999
DXF file: C:\Users\sesa63760\Dev\_Creo\CAD\MCADID0004819_3D-CAD\drw0001_2.dxf
999
Pro/ENGINEER 2019471 by Parametric Technology Corporation
  0
SECTION
  2
HEADER
  9
$ACADVER
  1
AC1024
  9
$DWGCODEPAGE
  3
ANSI_1252
  9
$EXTMAX
 10
73.2617777017
 20
103.6130856067
 30
0.0
  9
$EXTMIN
 10
0.0
 20
0.0
 30
0.0
  9
$LIMMIN
 10
0.0
 20
0.0
  9
$LIMMAX
 10
73.2617777017
 20
103.6130856067
  9
$VIEWCTR
 10
36.6308888509
 20
51.8065428034
  9
$VIEWSIZE
 40
103.6130856067
  9
$CLAYER
  8
0
  9
$LTSCALE
 40
6.7540381729
  9
$CELTYPE
  6
BYLAYER
  9
$DIMSCALE
 40
1.0
  9
$DIMASZ
 40
0.8721640203
  9
$DIMEXO
 40
1.0
  9
$DIMDLI
 40
4.666426374
  9
$DIMEXE
 40
1.0
  9
$DIMCEN
 40
1.1052062465
  9
$DIMLFAC
 40
1.0
  9
$DIMBLK
  1
_FILLED
  9
$DIMALT
 70
0
  9
$DIMALTF
 40
0.0393700787
  9
$DIMTXT
 40
1.2210296284
  9
$DIMTOL
 70
1
  9
$DIMLIM
 70
0
  9
$DIMTFAC
 40
1.0
  9
$DIMTP
 40
0.01
  9
$DIMTM
 40
0.01
  9
$DIMGAP
 40
0.625
  9
$DIMDSEP
 70
46
  9
$AUNITS
 70
0
  9
$PDMODE
 70
3
  9
$PDSIZE
 40
0.3125
  9
$HANDSEED
  5
246
  9
$TILEMODE
 70
1
  9
$MEASUREMENT
 70
1
  9
$INSUNITS
 70
4
  0
ENDSEC
  0
SECTION
  2
CLASSES
  0
CLASS
  1
ACDBDICTIONARYWDFLT
  2
AcDbDictionaryWithDefault
  3
AutoCAD 2000
 90
0
 91
1
280
0
281
0
  0
CLASS
  1
ACDBPLACEHOLDER
  2
AcDbPlaceHolder
  3
AutoCAD 2000
 90
0
 91
1
280
0
281
0
  0
CLASS
  1
LAYOUT
  2
AcDbLayout
  3
AutoCAD 2000
 90
0
 91
0
280
0
281
0
  0
ENDSEC
  0
SECTION
  2
TABLES
  0
TABLE
  2
VPORT
  5
8
100
AcDbSymbolTable
 70
2
  0
VPORT
  5
1F4
100
AcDbSymbolTableRecord
100
AcDbViewportTableRecord
  2
*ACTIVE
 70
0
 10
0.0
 20
0.0
 11
1.0
 21
1.0
 12
36.6308888509
 22
51.8065428034
 13
0.0
 23
0.0
 14
1.0
 24
1.0
 15
0.0
 25
0.0
 16
0.0
 26
0.0
 36
1.0
 17
0.0
 27
0.0
 37
0.0
 40
103.6130856067
 41
0.7070707071
 42
50.0
 43
0.0
 44
0.0
 50
0.0
 51
0.0
 71
0
 72
100
 73
1
 74
1
 75
0
 76
0
 77
0
 78
0
  0
ENDTAB
  0
TABLE
  2
LTYPE
  5
5
100
AcDbSymbolTable
 70
6
  0
LTYPE
  5
14
100
AcDbSymbolTableRecord
100
AcDbLinetypeTableRecord
  2
BYBLOCK
 70
0
  3

 72
65
 73
0
 40
0.0
  0
LTYPE
  5
15
100
AcDbSymbolTableRecord
100
AcDbLinetypeTableRecord
  2
BYLAYER
 70
0
  3

 72
65
 73
0
 40
0.0
  0
LTYPE
  5
16
100
AcDbSymbolTableRecord
100
AcDbLinetypeTableRecord
  2
CONTINUOUS
 70
64
  3
Solid line
 72
65
 73
0
 40
0.0
  0
LTYPE
  5
1F5
100
AcDbSymbolTableRecord
100
AcDbLinetypeTableRecord
  2
CENTER
 70
64
  3
____ _ ____ _ ____ _ ____ _ ____ _ ____ _ ____
 72
65
 73
4
 40
0.6
 49
0.375
 74
0
 49
-0.075
 74
0
 49
0.075
 74
0
 49
-0.075
 74
0
  0
LTYPE
  5
1F6
100
AcDbSymbolTableRecord
100
AcDbLinetypeTableRecord
  2
HIDDEN
 70
64
  3
- - - - - - - - - - - - - - - - - - - -
 72
65
 73
2
 40
0.2
 49
0.1
 74
0
 49
-0.1
 74
0
  0
LTYPE
  5
1F7
100
AcDbSymbolTableRecord
100
AcDbLinetypeTableRecord
  2
PHANTOM
 70
64
  3
_____ _ _ _____ _ _ _____ _ _ _____
 72
65
 73
6
 40
0.8
 49
0.45
 74
0
 49
-0.05
 74
0
 49
0.1
 74
0
 49
-0.05
 74
0
 49
0.1
 74
0
 49
-0.05
 74
0
  0
LTYPE
  5
1F8
100
AcDbSymbolTableRecord
100
AcDbLinetypeTableRecord
  2
DOT
 70
64
  3
. . . . . . . . . . . . . . . . . . . .
 72
65
 73
2
 40
0.2
 49
0.1
 74
0
 49
-0.1
 74
0
  0
LTYPE
  5
1F9
100
AcDbSymbolTableRecord
100
AcDbLinetypeTableRecord
  2
DASHED
 70
64
  3
- - - - - - - - - - - - - - - - - - - -
 72
65
 73
2
 40
0.2
 49
0.1
 74
0
 49
-0.1
 74
0
  0
ENDTAB
  0
TABLE
  2
LAYER
  5
2
100
AcDbSymbolTable
 70
36
  0
LAYER
  5
10
100
AcDbSymbolTableRecord
100
AcDbLayerTableRecord
  2
0
 70
0
 62
7
  6
CONTINUOUS
370
-3
390
F
  0
LAYER
  5
1FA
100
AcDbSymbolTableRecord
100
AcDbLayerTableRecord
  2
DEFAULT_1
 70
0
 62
7
  6
CENTER
370
-3
390
F
  0
LAYER
  5
1FB
100
AcDbSymbolTableRecord
100
AcDbLayerTableRecord
  2
DEFAULT_2
 70
0
 62
7
  6
HIDDEN
370
-3
390
F
  0
LAYER
  5
1FC
100
AcDbSymbolTableRecord
100
AcDbLayerTableRecord
  2
DEFAULT_3
 70
0
 62
7
  6
PHANTOM
370
-3
390
F
  0
LAYER
  5
1FD
100
AcDbSymbolTableRecord
100
AcDbLayerTableRecord
  2
00_COMPONENTS
 70
0
 62
7
  6
CONTINUOUS
370
-3
390
F
  0
LAYER
  5
1FE
100
AcDbSymbolTableRecord
100
AcDbLayerTableRecord
  2
01_1_DEFAULT_DATUMS
 70
0
 62
7
  6
CONTINUOUS
370
-3
390
F
  0
LAYER
  5
1FF
100
AcDbSymbolTableRecord
100
AcDbLayerTableRecord
  2
01_PLANES
 70
0
 62
7
  6
CONTINUOUS
370
-3
390
F
  0
LAYER
  5
200
100
AcDbSymbolTableRecord
100
AcDbLayerTableRecord
  2
02_COORD_SYS
 70
0
 62
7
  6
CONTINUOUS
370
-3
390
F
  0
LAYER
  5
201
100
AcDbSymbolTableRecord
100
AcDbLayerTableRecord
  2
03_AXES
 70
0
 62
7
  6
CONTINUOUS
370
-3
390
F
  0
LAYER
  5
202
100
AcDbSymbolTableRecord
100
AcDbLayerTableRecord
  2
04_POINTS
 70
0
 62
7
  6
CONTINUOUS
370
-3
390
F
  0
LAYER
  5
203
100
AcDbSymbolTableRecord
100
AcDbLayerTableRecord
  2
05_CURVES
 70
0
 62
7
  6
CONTINUOUS
370
-3
390
F
  0
LAYER
  5
204
100
AcDbSymbolTableRecord
100
AcDbLayerTableRecord
  2
06_SURFS
 70
0
 62
7
  6
CONTINUOUS
370
-3
390
F
  0
LAYER
  5
205
100
AcDbSymbolTableRecord
100
AcDbLayerTableRecord
  2
07_COSMETICS
 70
0
 62
7
  6
CONTINUOUS
370
-3
390
F
  0
LAYER
  5
206
100
AcDbSymbolTableRecord
100
AcDbLayerTableRecord
  2
10_NOTES
 70
0
 62
7
  6
CONTINUOUS
370
-3
390
F
  0
LAYER
  5
207
100
AcDbSymbolTableRecord
100
AcDbLayerTableRecord
  2
11_NOTES_PUB
 70
0
 62
7
  6
CONTINUOUS
370
-3
390
F
  0
LAYER
  5
208
100
AcDbSymbolTableRecord
100
AcDbLayerTableRecord
  2
13_REF_GTOL
 70
0
 62
7
  6
CONTINUOUS
370
-3
390
F
  0
LAYER
  5
209
100
AcDbSymbolTableRecord
100
AcDbLayerTableRecord
  2
16_MISC
 70
0
 62
7
  6
CONTINUOUS
370
-3
390
F
  0
LAYER
  5
20A
100
AcDbSymbolTableRecord
100
AcDbLayerTableRecord
  2
17_NO_PRINT
 70
0
 62
7
  6
CONTINUOUS
370
-3
390
F
  0
LAYER
  5
20B
100
AcDbSymbolTableRecord
100
AcDbLayerTableRecord
  2
18_DATUM_CAMS_JOINTS
 70
0
 62
7
  6
CONTINUOUS
370
-3
390
F
  0
LAYER
  5
20C
100
AcDbSymbolTableRecord
100
AcDbLayerTableRecord
  2
19_DATUM_FUNCTIONAL
 70
0
 62
7
  6
CONTINUOUS
370
-3
390
F
  0
LAYER
  5
20D
100
AcDbSymbolTableRecord
100
AcDbLayerTableRecord
  2
20_DATUM_KINEMATIC_SCHEME
 70
0
 62
7
  6
CONTINUOUS
370
-3
390
F
  0
ENDTAB
  0
TABLE
  2
STYLE
  5
3
100
AcDbSymbolTable
 70
1
  0
STYLE
  5
11
100
AcDbSymbolTableRecord
100
AcDbTextStyleTableRecord
  2
STANDARD
 70
0
 40
0.0
 41
1.0
 50
0.0
 71
0
 42
0.2
  3
ARIAL.TTF
  4

  0
STYLE
  5
20E
100
AcDbSymbolTableRecord
100
AcDbTextStyleTableRecord
  2
TEXTSTYLE_1
 70
0
 40
0.0
 41
0.8
 50
0.0
 71
0
 42
0.2
  3
gdt
  4

  0
ENDTAB
  0
TABLE
  2
VIEW
  5
6
100
AcDbSymbolTable
 70
0
  0
ENDTAB
  0
TABLE
  2
UCS
  5
7
100
AcDbSymbolTable
 70
0
  0
ENDTAB
  0
TABLE
  2
APPID
  5
9
100
AcDbSymbolTable
 70
1
  0
APPID
  5
20F
100
AcDbSymbolTableRecord
100
AcDbRegAppTableRecord
  2
ACAD
 70
0
  0
ENDTAB
  0
TABLE
  2
BLOCK_RECORD
  5
1
100
AcDbSymbolTable
 70
0
  0
BLOCK_RECORD
  5
210
100
AcDbSymbolTableRecord
100
AcDbBlockTableRecord
  2
*Model_Space
  0
BLOCK_RECORD
  5
211
100
AcDbSymbolTableRecord
100
AcDbBlockTableRecord
  2
*Paper_Space
  0
BLOCK_RECORD
  5
212
100
AcDbSymbolTableRecord
100
AcDbBlockTableRecord
  2
_FILLED
  0
ENDTAB
  0
TABLE
  2
DIMSTYLE
  5
A
100
AcDbSymbolTable
 70
1
100
AcDbDimStyleTable
 71
0
  0
DIMSTYLE
105
213
100
AcDbSymbolTableRecord
100
AcDbDimStyleTableRecord
  2
STANDARD
 70
0
  3

  4

 40
1.0
 41
0.8721640203
 42
1.0
 43
0.38
 44
1.0
 45
0.0
 46
0.0
 47
0.01
 48
0.01
140
1.2210296284
141
0.09
142
0.0
143
25.4
144
1.0
145
0.0
146
1.0
147
0.625
 71
1
 72
0
 73
0
 74
0
 75
0
 76
0
 77
1
 78
8
 79
2
170
0
171
1
172
0
173
0
174
0
175
0
176
0
177
0
178
0
270
2
179
2
271
2
272
2
273
2
274
2
275
0
280
0
281
0
282
0
283
1
284
8
285
0
286
0
287
3
288
0
340
11
278
46
341
212
342
212
343
212
344
212
  0
ENDTAB
  0
ENDSEC
  0
SECTION
  2
BLOCKS
  0
BLOCK
  5
20
100
AcDbEntity
  8
0
100
AcDbBlockBegin
  2
*Model_Space
 70
0
 10
0.0
 20
0.0
 30
0.0
  3
*Model_Space
  1

  0
ENDBLK
  5
21
100
AcDbEntity
  8
0
100
AcDbBlockEnd
  0
BLOCK
  5
1C
100
AcDbEntity
  8
0
100
AcDbBlockBegin
  2
*Paper_Space
 70
0
 10
0.0
 20
0.0
 30
0.0
  3
*Paper_Space
  1

  0
ENDBLK
  5
1D
100
AcDbEntity
  8
0
100
AcDbBlockEnd
  0
BLOCK
  5
214
100
AcDbEntity
  8
0
100
AcDbBlockBegin
  2
_FILLED
 70
64
 10
0.0
 20
0.0
  3
_FILLED
  1

  0
SOLID
  5
215
100
AcDbEntity
  8
0
  6
BYBLOCK
 62
0
100
AcDbTrace
 10
0.0
 20
0.0
 11
-1.0
 21
0.25
 12
-1.0
 22
-0.25
 13
-1.0
 23
-0.25
  0
ENDBLK
  5
216
100
AcDbEntity
  8
0
  6
BYBLOCK
 62
0
100
AcDbBlockEnd
  0
ENDSEC
  0
SECTION
  2
ENTITIES
  0
LINE
  5
217
100
AcDbEntity
  8
0
100
AcDbLine
 62
7
  6
BYLAYER
 10
36.24340545
 20
43.6163111215
 11
66.24340545
 21
43.6163111215
  0
LINE
  5
218
100
AcDbEntity
  8
0
100
AcDbLine
 62
7
  6
BYLAYER
 10
65.6113927717
 20
43.9163111215
 11
53.4136588915
 21
43.9163111215
  0
LINE
  5
219
100
AcDbEntity
  8
0
100
AcDbLine
 62
7
  6
BYLAYER
 10
49.0731520086
 20
43.9163111215
 11
36.8754181283
 21
43.9163111215
  0
LINE
  5
21A
100
AcDbEntity
  8
0
100
AcDbLine
 62
7
  6
BYLAYER
 10
36.24340545
 20
46.3163111215
 11
34.70340545
 21
46.3163111215
  0
LINE
  5
21B
100
AcDbEntity
  8
0
100
AcDbLine
 62
7
  6
BYLAYER
 10
34.20340545
 20
46.8163111215
 11
34.20340545
 21
47.9163111215
  0
LINE
  5
21C
100
AcDbEntity
  8
0
100
AcDbLine
 62
7
  6
BYLAYER
 10
34.20340545
 20
55.3163111215
 11
34.20340545
 21
56.4163111215
  0
LINE
  5
21D
100
AcDbEntity
  8
0
100
AcDbLine
 62
7
  6
BYLAYER
 10
36.24340545
 20
47.9163111215
 11
9.8065171617
 21
47.9163111215
  0
LINE
  5
21E
100
AcDbEntity
  8
0
100
AcDbLine
 62
7
  6
BYLAYER
 10
36.24340545
 20
59.6163111215
 11
36.24340545
 21
43.6163111215
  0
LINE
  5
21F
100
AcDbEntity
  8
0
100
AcDbLine
 62
7
  6
BYLAYER
 10
36.6281431289
 20
59.2316400992
 11
36.6281431289
 21
44.0009821437
  0
LINE
  5
220
100
AcDbEntity
  8
0
100
AcDbLine
 62
7
  6
BYLAYER
 10
36.24340545
 20
55.3163111215
 11
9.8065171617
 21
55.3163111215
  0
LINE
  5
221
100
AcDbEntity
  8
0
100
AcDbLine
 62
7
  6
BYLAYER
 10
34.70340545
 20
56.9163111215
 11
36.24340545
 21
56.9163111215
  0
LINE
  5
222
100
AcDbEntity
  8
0
100
AcDbLine
 62
7
  6
BYLAYER
 10
36.8754181283
 20
59.3163111215
 11
49.0731520086
 21
59.3163111215
  0
LINE
  5
223
100
AcDbEntity
  8
0
100
AcDbLine
 62
7
  6
BYLAYER
 10
53.4136588915
 20
59.3163111215
 11
65.6113927717
 21
59.3163111215
  0
LINE
  5
224
100
AcDbEntity
  8
0
100
AcDbLine
 62
7
  6
BYLAYER
 10
36.24340545
 20
59.6163111215
 11
66.24340545
 21
59.6163111215
  0
LINE
  5
225
100
AcDbEntity
  8
0
100
AcDbLine
 62
7
  6
BYLAYER
 10
65.8586677712
 20
59.2316400992
 11
65.8586677712
 21
44.0009821437
  0
LINE
  5
226
100
AcDbEntity
  8
0
100
AcDbLine
 62
7
  6
BYLAYER
 10
66.24340545
 20
43.6163111215
 11
66.24340545
 21
59.6163111215
  0
CIRCLE
  5
227
100
AcDbEntity
  8
0
100
AcDbCircle
 62
7
  6
BYLAYER
 10
51.24340545
 20
51.6163111215
 40
8.0
  0
ARC
  5
228
100
AcDbEntity
  8
0
100
AcDbCircle
 62
7
  6
BYLAYER
 10
36.94340545
 20
44.3163111215
 40
0.7
100
AcDbArc
 50
180.0
 51
270.0
  0
ARC
  5
229
100
AcDbEntity
  8
0
100
AcDbCircle
 62
7
  6
BYLAYER
 10
65.54340545
 20
44.3163111215
 40
0.7
100
AcDbArc
 50
270.0
 51
360.0
  0
ARC
  5
22A
100
AcDbEntity
  8
0
100
AcDbCircle
 62
7
  6
BYLAYER
 10
36.94340545
 20
58.9163111215
 40
0.7
100
AcDbArc
 50
90.0
 51
180.0000168901
  0
ARC
  5
22B
100
AcDbEntity
  8
0
100
AcDbCircle
 62
7
  6
BYLAYER
 10
65.54340545
 20
58.9163111215
 40
0.7
100
AcDbArc
 50
0.0
 51
90.0
  0
ARC
  5
22C
100
AcDbEntity
  8
0
100
AcDbCircle
 62
7
  6
BYLAYER
 10
34.70340545
 20
46.8163111215
 40
0.5
100
AcDbArc
 50
180.0
 51
270.0
  0
ARC
  5
22D
100
AcDbEntity
  8
0
100
AcDbCircle
 62
7
  6
BYLAYER
 10
34.70340545
 20
56.4163111215
 40
0.5
100
AcDbArc
 50
90.0
 51
180.0
  0
ARC
  5
22E
100
AcDbEntity
  8
0
100
AcDbCircle
 62
7
  6
BYLAYER
 10
36.8753186795
 20
44.3194297037
 40
0.4031185946
100
AcDbArc
 50
232.1817724426
 51
270.0141347972
  0
ARC
  5
22F
100
AcDbEntity
  8
0
100
AcDbCircle
 62
7
  6
BYLAYER
 10
65.6114922206
 20
58.9131925392
 40
0.4031185946
100
AcDbArc
 50
52.1817724426
 51
90.0141347972
  0
SPLINE
  5
230
100
AcDbEntity
  8
0
100
AcDbSpline
 62
7
  6
BYLAYER
 70
0
 71
3
 72
21
 73
17
 74
0
 42
0.0000001
 43
0.0000001
 44
0.0000000001
 40
0.0
 40
0.0
 40
0.0
 40
0.0
 40
0.0394433235
 40
0.0801216101
 40
0.123116688
 40
0.1692723145
 40
0.2191580158
 40
0.2731044313
 40
0.3312286146
 40
0.3934834778
 40
0.4596824298
 40
0.5295353499
 40
0.6026672516
 40
0.6786237876
 40
0.8369109759
 40
1.0
 40
1.0
 40
1.0
 40
1.0
 10
9.8065171647
 20
55.3162942199
 30
0.0
 10
9.7482583066
 20
55.3162941264
 30
0.0
 10
9.6295781468
 20
55.3039665256
 30
0.0
 10
9.4550892622
 20
55.2490892975
 30
0.0
 10
9.2847771293
 20
55.1589152896
 30
0.0
 10
9.1203191847
 20
55.034687465
 30
0.0
 10
8.962967039
 20
54.8779122217
 30
0.0
 10
8.8140488758
 20
54.6901143588
 30
0.0
 10
8.6747886509
 20
54.4731026103
 30
0.0
 10
8.5464410246
 20
54.2288947896
 30
0.0
 10
8.4301666482
 20
53.9597853485
 30
0.0
 10
8.3270472711
 20
53.668305883
 30
0.0
 10
8.2380749177
 20
53.3572057008
 30
0.0
 10
8.1380508171
 20
52.9141510983
 30
0.0
 10
8.0547588477
 20
52.3321594518
 30
0.0
 10
8.0326626522
 20
51.8571980312
 30
0.0
 10
8.0326626522
 20
51.6163111215
 30
0.0
  0
SPLINE
  5
231
100
AcDbEntity
  8
0
100
AcDbSpline
 62
7
  6
BYLAYER
 70
0
 71
3
 72
20
 73
16
 74
0
 42
0.0000001
 43
0.0000001
 44
0.0000000001
 40
0.0
 40
0.0
 40
0.0
 40
0.0
 40
0.1630962016
 40
0.3213907551
 40
0.470427576
 40
0.5402849758
 40
0.6064884068
 40
0.668747891
 40
0.7268763943
 40
0.7808269782
 40
0.83071641
 40
0.8768753945
 40
0.9198734099
 40
0.9605543105
 40
1.0
 40
1.0
 40
1.0
 40
1.0
 10
8.0326626522
 20
51.6163111215
 30
0.0
 10
8.0326626522
 20
51.3754280913
 30
0.0
 10
8.0547513254
 20
50.9004210145
 30
0.0
 10
8.1533873969
 20
50.211632189
 30
0.0
 10
8.2896618686
 20
49.6700812256
 30
0.0
 10
8.4301521632
 20
49.2728588756
 30
0.0
 10
8.5464345384
 20
49.0037445979
 30
0.0
 10
8.6747795802
 20
48.7595332728
 30
0.0
 10
8.8140421598
 20
48.5425179851
 30
0.0
 10
8.96296108
 20
48.3547161588
 30
0.0
 10
9.1203153914
 20
48.1979383126
 30
0.0
 10
9.2847748523
 20
48.0737084361
 30
0.0
 10
9.4550883156
 20
47.9835333332
 30
0.0
 10
9.6295779204
 20
47.9286559687
 30
0.0
 10
9.7482583083
 20
47.9163279295
 30
0.0
 10
9.8065171587
 20
47.916328023
 30
0.0
  0
SPLINE
  5
232
100
AcDbEntity
  8
0
100
AcDbSpline
 62
7
  6
BYLAYER
 70
0
 71
3
 72
20
 73
16
 74
0
 42
0.0000001
 43
0.0000001
 44
0.0000000001
 40
0.0
 40
0.0
 40
0.0
 40
0.0
 40
0.1630962016
 40
0.3213907551
 40
0.470427576
 40
0.5402849758
 40
0.6064884068
 40
0.668747891
 40
0.7268763943
 40
0.7808269782
 40
0.83071641
 40
0.8768753945
 40
0.9198734099
 40
0.9605543105
 40
1.0
 40
1.0
 40
1.0
 40
1.0
 10
11.5803716712
 20
51.6163111215
 30
0.0
 10
11.5803716712
 20
51.8571941516
 30
0.0
 10
11.558282998
 20
52.3322012284
 30
0.0
 10
11.4596469265
 20
53.0209900539
 30
0.0
 10
11.3233724548
 20
53.5625410173
 30
0.0
 10
11.1828821602
 20
53.9597633673
 30
0.0
 10
11.066599785
 20
54.228877645
 30
0.0
 10
10.9382547432
 20
54.4730889701
 30
0.0
 10
10.7989921636
 20
54.6901042578
 30
0.0
 10
10.6500732434
 20
54.8779060841
 30
0.0
 10
10.492718932
 20
55.0346839303
 30
0.0
 10
10.3282594711
 20
55.1589138068
 30
0.0
 10
10.1579460078
 20
55.2490889097
 30
0.0
 10
9.983456403
 20
55.3039662742
 30
0.0
 10
9.8647760151
 20
55.3162943134
 30
0.0
 10
9.8065171647
 20
55.3162942199
 30
0.0
  0
SPLINE
  5
233
100
AcDbEntity
  8
0
100
AcDbSpline
 62
7
  6
BYLAYER
 70
0
 71
3
 72
21
 73
17
 74
0
 42
0.0000001
 43
0.0000001
 44
0.0000000001
 40
0.0
 40
0.0
 40
0.0
 40
0.0
 40
0.0394433235
 40
0.0801216101
 40
0.123116688
 40
0.1692723145
 40
0.2191580158
 40
0.2731044313
 40
0.3312286146
 40
0.3934834778
 40
0.4596824298
 40
0.5295353499
 40
0.6026672516
 40
0.6786237876
 40
0.8369109759
 40
1.0
 40
1.0
 40
1.0
 40
1.0
 10
9.8065171587
 20
47.916328023
 30
0.0
 10
9.8647760168
 20
47.9163281165
 30
0.0
 10
9.9834561766
 20
47.9286557173
 30
0.0
 10
10.1579450612
 20
47.9835329454
 30
0.0
 10
10.3282571941
 20
48.0737069533
 30
0.0
 10
10.4927151387
 20
48.197934778
 30
0.0
 10
10.6500672844
 20
48.3547100212
 30
0.0
 10
10.7989854476
 20
48.5425078841
 30
0.0
 10
10.9382456725
 20
48.7595196326
 30
0.0
 10
11.0665932988
 20
49.0037274533
 30
0.0
 10
11.1828676753
 20
49.2728368944
 30
0.0
 10
11.2859870523
 20
49.5643163599
 30
0.0
 10
11.3749594057
 20
49.8754165421
 30
0.0
 10
11.4749835064
 20
50.3184711446
 30
0.0
 10
11.5582754757
 20
50.9004627911
 30
0.0
 10
11.5803716712
 20
51.3754242117
 30
0.0
 10
11.5803716712
 20
51.6163111215
 30
0.0
  0
SPLINE
  5
234
100
AcDbEntity
  8
0
100
AcDbSpline
 62
7
  6
BYLAYER
 70
0
 71
3
 72
22
 73
18
 74
0
 42
0.0000001
 43
0.0000001
 44
0.0000000001
 40
0.0
 40
0.0
 40
0.0
 40
0.0
 40
0.1760695028
 40
0.3460950105
 40
0.4270521266
 40
0.5044032932
 40
0.5775320049
 40
0.645896744
 40
0.7090368413
 40
0.7665913903
 40
0.8183386865
 40
0.864231584
 40
0.9044863749
 40
0.9396778614
 40
0.9709125602
 40
0.9856011372
 40
1.0
 40
1.0
 40
1.0
 40
1.0
 10
21.4631105439
 20
51.6163111215
 30
0.0
 10
21.4631105439
 20
51.375572239
 30
0.0
 10
21.4482377138
 20
50.9022317572
 30
0.0
 10
21.3920760402
 20
50.3205398549
 30
0.0
 10
21.3243316202
 20
49.8766531275
 30
0.0
 10
21.2642481645
 20
49.5658729601
 30
0.0
 10
21.1946419242
 20
49.2747472304
 30
0.0
 10
21.1162018073
 20
49.0060379883
 30
0.0
 10
21.0296866
 20
48.7622712631
 30
0.0
 10
20.9359105983
 20
48.5457099225
 30
0.0
 10
20.8357506151
 20
48.3583041321
 30
0.0
 10
20.7300220635
 20
48.201695262
 30
0.0
 10
20.6194423771
 20
48.0771617605
 30
0.0
 10
20.5045069382
 20
47.9858904469
 30
0.0
 10
20.4030130582
 20
47.9378597227
 30
0.0
 10
20.322365973
 20
47.9193638921
 30
0.0
 10
20.2825299348
 20
47.9163224634
 30
0.0
 10
20.2628424474
 20
47.9163224634
 30
0.0
  0
SPLINE
  5
235
100
AcDbEntity
  8
0
100
AcDbSpline
 62
7
  6
BYLAYER
 70
0
 71
3
 72
22
 73
18
 74
0
 42
0.0000001
 43
0.0000001
 44
0.0000000001
 40
0.0
 40
0.0
 40
0.0
 40
0.0
 40
0.0143988628
 40
0.0290874398
 40
0.0603221386
 40
0.0955136251
 40
0.135768416
 40
0.1816613135
 40
0.2334086097
 40
0.2909631587
 40
0.354103256
 40
0.4224679951
 40
0.4955967068
 40
0.5729478734
 40
0.6539049895
 40
0.8239304972
 40
1.0
 40
1.0
 40
1.0
 40
1.0
 10
20.2628424474
 20
55.3162997795
 30
0.0
 10
20.2825299348
 20
55.3162997795
 30
0.0
 10
20.322365973
 20
55.3132583508
 30
0.0
 10
20.4030130582
 20
55.2947625202
 30
0.0
 10
20.5045069382
 20
55.246731796
 30
0.0
 10
20.6194423771
 20
55.1554604824
 30
0.0
 10
20.7300220635
 20
55.0309269809
 30
0.0
 10
20.8357506151
 20
54.8743181108
 30
0.0
 10
20.9359105983
 20
54.6869123204
 30
0.0
 10
21.0296866
 20
54.4703509798
 30
0.0
 10
21.1162018073
 20
54.2265842546
 30
0.0
 10
21.1946419242
 20
53.9578750125
 30
0.0
 10
21.2642481645
 20
53.6667492828
 30
0.0
 10
21.3243316202
 20
53.3559691154
 30
0.0
 10
21.3920760402
 20
52.912082388
 30
0.0
 10
21.4482377138
 20
52.3303904857
 30
0.0
 10
21.4631105439
 20
51.8570500039
 30
0.0
 10
21.4631105439
 20
51.6163111215
 30
0.0
  0
SPLINE
  5
236
100
AcDbEntity
  8
0
100
AcDbSpline
 62
7
  6
BYLAYER
 70
0
 71
3
 72
16
 73
12
 74
0
 42
0.0000001
 43
0.0000001
 44
0.0000000001
 40
0.0
 40
0.0
 40
0.0
 40
0.0
 40
0.1717915562
 40
0.3475201631
 40
0.5175397329
 40
0.670896518
 40
0.7977748494
 40
0.8935528422
 40
0.9293342393
 40
0.9579808185
 40
1.0
 40
1.0
 40
1.0
 40
1.0
 10
36.8754187384
 20
43.9163111215
 30
0.0
 10
36.8754187646
 20
43.8980935052
 30
0.0
 10
36.8761855991
 20
43.861237277
 30
0.0
 10
36.8796621921
 20
43.8064432976
 30
0.0
 10
36.8857634024
 20
43.7538475135
 30
0.0
 10
36.8940658321
 20
43.7067721235
 30
0.0
 10
36.9044847489
 20
43.668245772
 30
0.0
 10
36.9147212497
 20
43.6426536448
 30
0.0
 10
36.9240145788
 20
43.6283107832
 30
0.0
 10
36.931593272
 20
43.6200036773
 30
0.0
 10
36.93895057
 20
43.6163111217
 30
0.0
 10
36.9434064893
 20
43.6163111214
 30
0.0
  0
SPLINE
  5
237
100
AcDbEntity
  8
0
100
AcDbSpline
 62
7
  6
BYLAYER
 70
0
 71
3
 72
14
 73
10
 74
0
 42
0.0000001
 43
0.0000001
 44
0.0000000001
 40
0.0
 40
0.0
 40
0.0
 40
0.0
 40
0.0872928746
 40
0.1802626731
 40
0.2834550938
 40
0.3996422278
 40
0.5301534109
 40
0.674908873
 40
1.0
 40
1.0
 40
1.0
 40
1.0
 10
36.24340545
 20
44.3163111215
 30
0.0
 10
36.2434079514
 20
44.3009872876
 30
0.0
 10
36.2481077661
 20
44.2691895267
 30
0.0
 10
36.2685483995
 20
44.2232834736
 30
0.0
 10
36.3017320603
 20
44.1791674761
 30
0.0
 10
36.3468936145
 20
44.1371768144
 30
0.0
 10
36.4033997491
 20
44.0977568024
 30
0.0
 10
36.496104895
 20
44.0473096597
 30
0.0
 10
36.5736944186
 20
44.0180734047
 30
0.0
 10
36.6281431289
 20
44.0009821437
 30
0.0
  0
SPLINE
  5
238
100
AcDbEntity
  8
0
100
AcDbSpline
 62
7
  6
BYLAYER
 70
0
 71
3
 72
16
 73
12
 74
0
 42
0.0000001
 43
0.0000001
 44
0.0000000001
 40
0.0
 40
0.0
 40
0.0
 40
0.0
 40
0.1717920548
 40
0.3475210148
 40
0.5175407267
 40
0.6708974435
 40
0.7977755378
 40
0.8935532311
 40
0.9293344917
 40
0.957980958
 40
1.0
 40
1.0
 40
1.0
 40
1.0
 10
36.8754181283
 20
59.3163111215
 30
0.0
 10
36.8754181283
 20
59.3345287862
 30
0.0
 10
36.8761849137
 20
59.3713850968
 30
0.0
 10
36.8796614424
 20
59.4261791728
 30
0.0
 10
36.8857625968
 20
59.4787749961
 30
0.0
 10
36.8940649748
 20
59.5258503662
 30
0.0
 10
36.9044838433
 20
59.5643766543
 30
0.0
 10
36.914720306
 20
59.5899687137
 30
0.0
 10
36.9240136037
 20
59.6043115208
 30
0.0
 10
36.9315922731
 20
59.6126185908
 30
0.0
 10
36.9389495465
 20
59.6163111214
 30
0.0
 10
36.94340545
 20
59.6163111215
 30
0.0
  0
SPLINE
  5
239
100
AcDbEntity
  8
0
100
AcDbSpline
 62
7
  6
BYLAYER
 70
0
 71
3
 72
16
 73
12
 74
0
 42
0.0000001
 43
0.0000001
 44
0.0000000001
 40
0.0
 40
0.0
 40
0.0
 40
0.0
 40
0.1823204212
 40
0.3633559826
 40
0.5341352984
 40
0.6854150534
 40
0.809086975
 40
0.9014158658
 40
0.9354947703
 40
0.9623259572
 40
1.0
 40
1.0
 40
1.0
 40
1.0
 10
36.6281431289
 20
59.2316400992
 30
0.0
 10
36.6183804521
 20
59.2448508486
 30
0.0
 10
36.599335384
 20
59.2714858953
 30
0.0
 10
36.5726691204
 20
59.3115612707
 30
0.0
 10
36.5491677405
 20
59.3503345843
 30
0.0
 10
36.5300639718
 20
59.3856956954
 30
0.0
 10
36.5165902463
 20
59.4159460034
 30
0.0
 10
36.5095155025
 20
59.4374348145
 30
0.0
 10
36.5075772171
 20
59.4511945655
 30
0.0
 10
36.5076749811
 20
59.4600011375
 30
0.0
 10
36.5100459926
 20
59.4660484243
 30
0.0
 10
36.5127218252
 20
59.4681368325
 30
0.0
  0
SPLINE
  5
23A
100
AcDbEntity
  8
0
100
AcDbSpline
 62
7
  6
BYLAYER
 70
0
 71
3
 72
16
 73
12
 74
0
 42
0.0000001
 43
0.0000001
 44
0.0000000001
 40
0.0
 40
0.0
 40
0.0
 40
0.0
 40
0.1717920548
 40
0.3475210148
 40
0.5175407267
 40
0.6708974435
 40
0.7977755378
 40
0.8935532311
 40
0.9293344917
 40
0.957980958
 40
1.0
 40
1.0
 40
1.0
 40
1.0
 10
65.6113927717
 20
43.9163111215
 30
0.0
 10
65.6113927717
 20
43.8980934567
 30
0.0
 10
65.6106259864
 20
43.8612371461
 30
0.0
 10
65.6071494577
 20
43.8064430702
 30
0.0
 10
65.6010483033
 20
43.7538472468
 30
0.0
 10
65.5927459252
 20
43.7067718767
 30
0.0
 10
65.5823270568
 20
43.6682455886
 30
0.0
 10
65.5720905941
 20
43.6426535292
 30
0.0
 10
65.5627972964
 20
43.6283107221
 30
0.0
 10
65.5552186269
 20
43.6200036521
 30
0.0
 10
65.5478613535
 20
43.6163111215
 30
0.0
 10
65.54340545
 20
43.6163111215
 30
0.0
  0
SPLINE
  5
23B
100
AcDbEntity
  8
0
100
AcDbSpline
 62
7
  6
BYLAYER
 70
0
 71
3
 72
16
 73
12
 74
0
 42
0.0000001
 43
0.0000001
 44
0.0000000001
 40
0.0
 40
0.0
 40
0.0
 40
0.0
 40
0.1823204212
 40
0.3633559826
 40
0.5341352984
 40
0.6854150534
 40
0.809086975
 40
0.9014158658
 40
0.9354947703
 40
0.9623259572
 40
1.0
 40
1.0
 40
1.0
 40
1.0
 10
65.8586677712
 20
44.0009821437
 30
0.0
 10
65.868430448
 20
43.9877713944
 30
0.0
 10
65.8874755161
 20
43.9611363476
 30
0.0
 10
65.9141417797
 20
43.9210609722
 30
0.0
 10
65.9376431595
 20
43.8822876586
 30
0.0
 10
65.9567469282
 20
43.8469265475
 30
0.0
 10
65.9702206537
 20
43.8166762395
 30
0.0
 10
65.9772953976
 20
43.7951874284
 30
0.0
 10
65.979233683
 20
43.7814276774
 30
0.0
 10
65.979135919
 20
43.7726211054
 30
0.0
 10
65.9767649075
 20
43.7665738186
 30
0.0
 10
65.9740890748
 20
43.7644854104
 30
0.0
  0
SPLINE
  5
23C
100
AcDbEntity
  8
0
100
AcDbSpline
 62
7
  6
BYLAYER
 70
0
 71
3
 72
14
 73
10
 74
0
 42
0.0000001
 43
0.0000001
 44
0.0000000001
 40
0.0
 40
0.0
 40
0.0
 40
0.0
 40
0.3251251772
 40
0.4698632676
 40
0.6003363316
 40
0.7165075209
 40
0.8197072703
 40
0.9127088583
 40
1.0
 40
1.0
 40
1.0
 40
1.0
 10
65.8586677712
 20
44.0009821437
 30
0.0
 10
65.9131211821
 20
44.0180780077
 30
0.0
 10
65.9907125123
 20
44.0473154362
 30
0.0
 10
66.083417326
 20
44.0977557431
 30
0.0
 10
66.1399097961
 20
44.1371727682
 30
0.0
 10
66.1850694917
 20
44.1791528093
 30
0.0
 10
66.2182550635
 20
44.2232733136
 30
0.0
 10
66.2386950269
 20
44.2691857019
 30
0.0
 10
66.2434035772
 20
44.3009876223
 30
0.0
 10
66.24340545
 20
44.3163111215
 30
0.0
  0
SPLINE
  5
23D
100
AcDbEntity
  8
0
100
AcDbSpline
 62
7
  6
BYLAYER
 70
0
 71
3
 72
14
 73
10
 74
0
 42
0.0000001
 43
0.0000001
 44
0.0000000001
 40
0.0
 40
0.0
 40
0.0
 40
0.0
 40
0.0872914987
 40
0.1802625537
 40
0.2834555143
 40
0.3996424516
 40
0.5301534412
 40
0.6749088354
 40
1.0
 40
1.0
 40
1.0
 40
1.0
 10
66.24340545
 20
58.9163111215
 30
0.0
 10
66.2434030102
 20
58.9316347145
 30
0.0
 10
66.2387029439
 20
58.9634324134
 30
0.0
 10
66.2182626252
 20
59.009338642
 30
0.0
 10
66.1850790294
 20
59.0534550846
 30
0.0
 10
66.1399173833
 20
59.0954457123
 30
0.0
 10
66.0834111731
 20
59.13486548
 30
0.0
 10
65.9907058553
 20
59.1853122602
 30
0.0
 10
65.9131163067
 20
59.21454825
 30
0.0
 10
65.8586677712
 20
59.2316400992
 30
0.0
  0
SPLINE
  5
23E
100
AcDbEntity
  8
0
100
AcDbSpline
 62
7
  6
BYLAYER
 70
0
 71
3
 72
9
 73
5
 74
0
 42
0.0000001
 43
0.0000001
 44
0.0000000001
 40
0.0
 40
0.0
 40
0.0
 40
0.0
 40
0.4995403653
 40
1.0
 40
1.0
 40
1.0
 40
1.0
 10
65.6113927718
 20
43.9163096686
 30
0.0
 10
65.6555026845
 20
43.9163106795
 30
0.0
 10
65.7443144385
 20
43.9313806396
 30
0.0
 10
65.8237687607
 20
43.9738728388
 30
0.0
 10
65.8586686236
 20
44.0009809847
 30
0.0
  0
SPLINE
  5
23F
100
AcDbEntity
  8
0
100
AcDbSpline
 62
7
  6
BYLAYER
 70
0
 71
3
 72
16
 73
12
 74
0
 42
0.0000001
 43
0.0000001
 44
0.0000000001
 40
0.0
 40
0.0
 40
0.0
 40
0.0
 40
0.1866019371
 40
0.3704478982
 40
0.5421640518
 40
0.6926973947
 40
0.814380316
 40
0.90434394
 40
0.9373831362
 40
0.9633673638
 40
1.0
 40
1.0
 40
1.0
 40
1.0
 10
65.8586677712
 20
59.2316400992
 30
0.0
 10
65.8686602788
 20
59.2451618532
 30
0.0
 10
65.8880669684
 20
59.2723266646
 30
0.0
 10
65.9150920109
 20
59.3130364221
 30
0.0
 10
65.9386547263
 20
59.3520922335
 30
0.0
 10
65.9575758751
 20
59.3873718237
 30
0.0
 10
65.9707306505
 20
59.4172624609
 30
0.0
 10
65.9775083139
 20
59.4383427599
 30
0.0
 10
65.9792641449
 20
59.4517367982
 30
0.0
 10
65.9790672644
 20
59.4602895199
 30
0.0
 10
65.9766910885
 20
59.4661060381
 30
0.0
 10
65.9740890743
 20
59.4681368328
 30
0.0
  0
SPLINE
  5
240
100
AcDbEntity
  8
0
100
AcDbSpline
 62
7
  6
BYLAYER
 70
0
 71
3
 72
16
 73
12
 74
0
 42
0.0000001
 43
0.0000001
 44
0.0000000001
 40
0.0
 40
0.0
 40
0.0
 40
0.0
 40
0.1717915562
 40
0.3475201631
 40
0.5175397329
 40
0.670896518
 40
0.7977748494
 40
0.8935528422
 40
0.9293342393
 40
0.9579808185
 40
1.0
 40
1.0
 40
1.0
 40
1.0
 10
65.6113921616
 20
59.3163111215
 30
0.0
 10
65.6113921354
 20
59.3345287377
 30
0.0
 10
65.610625301
 20
59.3713849659
 30
0.0
 10
65.607148708
 20
59.4261789453
 30
0.0
 10
65.6010474977
 20
59.4787747294
 30
0.0
 10
65.592745068
 20
59.5258501194
 30
0.0
 10
65.5823261512
 20
59.5643764709
 30
0.0
 10
65.5720896504
 20
59.5899685981
 30
0.0
 10
65.5627963212
 20
59.6043114597
 30
0.0
 10
65.5552176281
 20
59.6126185656
 30
0.0
 10
65.5478603301
 20
59.6163111212
 30
0.0
 10
65.5434044107
 20
59.6163111215
 30
0.0
  0
SPLINE
  5
241
100
AcDbEntity
  8
0
100
AcDbSpline
 62
7
  6
BYLAYER
 70
0
 71
3
 72
9
 73
5
 74
0
 42
0.0000001
 43
0.0000001
 44
0.0000000001
 40
0.0
 40
0.0
 40
0.0
 40
0.0
 40
0.4995403653
 40
1.0
 40
1.0
 40
1.0
 40
1.0
 10
36.8754181283
 20
59.3163125743
 30
0.0
 10
36.8313082156
 20
59.3163115634
 30
0.0
 10
36.7424964616
 20
59.3012416033
 30
0.0
 10
36.6630421393
 20
59.2587494041
 30
0.0
 10
36.6281422765
 20
59.2316412582
 30
0.0
  0
SPLINE
  5
242
100
AcDbEntity
  8
0
100
AcDbSpline
 62
7
  6
BYLAYER
 70
0
 71
3
 72
14
 73
10
 74
0
 42
0.0000001
 43
0.0000001
 44
0.0000000001
 40
0.0
 40
0.0
 40
0.0
 40
0.0
 40
0.3251251336
 40
0.4698632884
 40
0.600336564
 40
0.7165079756
 40
0.819707124
 40
0.9127073709
 40
1.0
 40
1.0
 40
1.0
 40
1.0
 10
36.6281431289
 20
59.2316400992
 30
0.0
 10
36.5736895505
 20
59.2145448035
 30
0.0
 10
36.4960982363
 20
59.185307143
 30
0.0
 10
36.4033935905
 20
59.1348664745
 30
0.0
 10
36.3469011969
 20
59.0954491891
 30
0.0
 10
36.3017416166
 20
59.0534690948
 30
0.0
 10
36.2685559739
 20
59.0093490705
 30
0.0
 10
36.2481156731
 20
58.963436871
 30
0.0
 10
36.2434073876
 20
58.931634881
 30
0.0
 10
36.24340545
 20
58.9163111215
 30
0.0
  0
SPLINE
  5
243
100
AcDbEntity
  8
0
100
AcDbSpline
 62
7
  6
BYLAYER
 70
0
 71
3
 72
16
 73
12
 74
0
 42
0.0000001
 43
0.0000001
 44
0.0000000001
 40
0.0
 40
0.0
 40
0.0
 40
0.0
 40
0.1866019382
 40
0.3704479002
 40
0.5421640545
 40
0.6926973976
 40
0.8143803185
 40
0.9043439416
 40
0.9373831373
 40
0.9633673644
 40
1.0
 40
1.0
 40
1.0
 40
1.0
 10
36.6281431289
 20
44.0009821437
 30
0.0
 10
36.6181506212
 20
43.9874603896
 30
0.0
 10
36.5987439314
 20
43.960295578
 30
0.0
 10
36.5717188888
 20
43.9195858202
 30
0.0
 10
36.5481561733
 20
43.8805300085
 30
0.0
 10
36.5292350245
 20
43.8452504183
 30
0.0
 10
36.5160802492
 20
43.815359781
 30
0.0
 10
36.5093025859
 20
43.794279482
 30
0.0
 10
36.5075467551
 20
43.7808854439
 30
0.0
 10
36.5077436357
 20
43.7723327223
 30
0.0
 10
36.5101198119
 20
43.7665162043
 30
0.0
 10
36.5127218262
 20
43.7644854097
 30
0.0
  0
ENDSEC
  0
SECTION
  2
OBJECTS
  0
DICTIONARY
  5
C
100
AcDbDictionary
280
0
281
1
  3
ACAD_GROUP
350
D
  3
ACAD_MLINESTYLE
350
17
  3
ACAD_LAYOUT
350
1A
  3
ACAD_PLOTSETTINGS
350
19
  3
ACAD_PLOTSTYLENAME
350
E
  0
DICTIONARY
  5
D
102
{ACAD_REACTORS
330
C
102
}
100
AcDbDictionary
280
0
281
1
  0
ACDBDICTIONARYWDFLT
  5
E
102
{ACAD_REACTORS
330
C
102
}
100
AcDbDictionary
281
1
  3
Normal
350
F
100
AcDbDictionaryWithDefault
340
F
  0
DICTIONARY
  5
17
102
{ACAD_REACTORS
330
C
102
}
100
AcDbDictionary
280
0
281
1
  3
Standard
350
18
  0
DICTIONARY
  5
19
102
{ACAD_REACTORS
330
C
102
}
100
AcDbDictionary
281
1
  0
DICTIONARY
  5
1A
102
{ACAD_REACTORS
330
C
102
}
100
AcDbDictionary
281
1
  3
Model
350
244
  3
Layout1
350
245
  0
ACDBPLACEHOLDER
  5
F
102
{ACAD_REACTORS
330
E
102
}
  0
MLINESTYLE
  5
18
102
{ACAD_REACTORS
330
17
102
}
100
AcDbMlineStyle
  2
STANDARD
 70
0
  3

 62
256
 51
90.0
 52
90.0
 71
2
 49
0.5
 62
256
  6
BYLAYER
 49
-0.5
 62
256
  6
BYLAYER
  0
LAYOUT
  5
244
102
{ACAD_REACTORS
330
1A
102
}
100
AcDbPlotSettings
  1

  2
none_device
  4

  6

 40
0.0
 41
0.0
 42
0.0
 43
0.0
 44
210.0
 45
297.0
 46
0.0
 47
0.0
 48
0.0
 49
0.0
140
0.0
141
0.0
142
1.0
143
1.0
 70
1024
 72
1
 73
0
 74
0
  7

 75
0
147
1.0
148
0.0
149
0.0
100
AcDbLayout
  1
Model
 70
0
 71
0
 10
0.0
 20
0.0
 11
210.0
 21
297.0
 12
0.0
 22
0.0
 32
0.0
 14
0.0
 24
0.0
 34
0.0
 15
0.0
 25
0.0
 35
0.0
146
0.0
 13
0.0
 23
0.0
 33
0.0
 16
1.0
 26
0.0
 36
0.0
 17
0.0
 27
1.0
 37
0.0
 76
0
330
210
345
0
346
0
  0
LAYOUT
  5
245
102
{ACAD_REACTORS
330
1A
102
}
100
AcDbPlotSettings
  1

  2
none_device
  4

  6

 40
0.0
 41
0.0
 42
0.0
 43
0.0
 44
210.0
 45
297.0
 46
0.0
 47
0.0
 48
0.0
 49
0.0
140
0.0
141
0.0
142
1.0
143
1.0
 70
0
 72
1
 73
0
 74
0
  7

 75
0
147
1.0
148
0.0
149
0.0
100
AcDbLayout
  1
Layout1
 70
0
 71
1
 10
0.0
 20
0.0
 11
210.0
 21
297.0
 12
0.0
 22
0.0
 32
0.0
 14
0.0
 24
0.0
 34
0.0
 15
0.0
 25
0.0
 35
0.0
146
0.0
 13
0.0
 23
0.0
 33
0.0
 16
1.0
 26
0.0
 36
0.0
 17
0.0
 27
1.0
 37
0.0
 76
0
330
211
345
0
346
0
  0
ENDSEC
  0
EOF
