999
DXF file: C:\Users\sesa63760\Dev\_Creo\CAD\MCADPD0005307_3D-CAD\drw0001_4.dxf
999
Pro/ENGINEER 2019471 by Parametric Technology Corporation
  0
SECTION
  2
HEADER
  9
$ACADVER
  1
AC1024
  9
$DWGCODEPAGE
  3
ANSI_1252
  9
$EXTMAX
 10
92.8438776452
 20
131.3077698125
 30
0.0
  9
$EXTMIN
 10
0.0
 20
0.0
 30
0.0
  9
$LIMMIN
 10
0.0
 20
0.0
  9
$LIMMAX
 10
92.8438776452
 20
131.3077698125
  9
$VIEWCTR
 10
46.4219388226
 20
65.6538849062
  9
$VIEWSIZE
 40
131.3077698125
  9
$CLAYER
  8
0
  9
$LTSCALE
 40
8.5593212915
  9
$CELTYPE
  6
BYLAYER
  9
$DIMSCALE
 40
1.0
  9
$DIMASZ
 40
1.1052842577
  9
$DIMEXO
 40
1.0
  9
$DIMDLI
 40
5.9137128923
  9
$DIMEXE
 40
1.0
  9
$DIMCEN
 40
1.4006162113
  9
$DIMLFAC
 40
1.0
  9
$DIMBLK
  1
_FILLED
  9
$DIMALT
 70
0
  9
$DIMALTF
 40
0.0393700787
  9
$DIMTXT
 40
1.5473979608
  9
$DIMTOL
 70
1
  9
$DIMLIM
 70
0
  9
$DIMTFAC
 40
1.0
  9
$DIMTP
 40
0.01
  9
$DIMTM
 40
0.01
  9
$DIMGAP
 40
0.625
  9
$DIMDSEP
 70
46
  9
$AUNITS
 70
0
  9
$PDMODE
 70
3
  9
$PDSIZE
 40
0.3125
  9
$HANDSEED
  5
279
  9
$TILEMODE
 70
1
  9
$MEASUREMENT
 70
1
  9
$INSUNITS
 70
4
  0
ENDSEC
  0
SECTION
  2
CLASSES
  0
CLASS
  1
ACDBDICTIONARYWDFLT
  2
AcDbDictionaryWithDefault
  3
AutoCAD 2000
 90
0
 91
1
280
0
281
0
  0
CLASS
  1
ACDBPLACEHOLDER
  2
AcDbPlaceHolder
  3
AutoCAD 2000
 90
0
 91
1
280
0
281
0
  0
CLASS
  1
LAYOUT
  2
AcDbLayout
  3
AutoCAD 2000
 90
0
 91
0
280
0
281
0
  0
ENDSEC
  0
SECTION
  2
TABLES
  0
TABLE
  2
VPORT
  5
8
100
AcDbSymbolTable
 70
2
  0
VPORT
  5
1F4
100
AcDbSymbolTableRecord
100
AcDbViewportTableRecord
  2
*ACTIVE
 70
0
 10
0.0
 20
0.0
 11
1.0
 21
1.0
 12
46.4219388226
 22
65.6538849062
 13
0.0
 23
0.0
 14
1.0
 24
1.0
 15
0.0
 25
0.0
 16
0.0
 26
0.0
 36
1.0
 17
0.0
 27
0.0
 37
0.0
 40
131.3077698125
 41
0.7070707071
 42
50.0
 43
0.0
 44
0.0
 50
0.0
 51
0.0
 71
0
 72
100
 73
1
 74
1
 75
0
 76
0
 77
0
 78
0
  0
ENDTAB
  0
TABLE
  2
LTYPE
  5
5
100
AcDbSymbolTable
 70
6
  0
LTYPE
  5
14
100
AcDbSymbolTableRecord
100
AcDbLinetypeTableRecord
  2
BYBLOCK
 70
0
  3

 72
65
 73
0
 40
0.0
  0
LTYPE
  5
15
100
AcDbSymbolTableRecord
100
AcDbLinetypeTableRecord
  2
BYLAYER
 70
0
  3

 72
65
 73
0
 40
0.0
  0
LTYPE
  5
16
100
AcDbSymbolTableRecord
100
AcDbLinetypeTableRecord
  2
CONTINUOUS
 70
64
  3
Solid line
 72
65
 73
0
 40
0.0
  0
LTYPE
  5
1F5
100
AcDbSymbolTableRecord
100
AcDbLinetypeTableRecord
  2
CENTER
 70
64
  3
____ _ ____ _ ____ _ ____ _ ____ _ ____ _ ____
 72
65
 73
4
 40
0.6
 49
0.375
 74
0
 49
-0.075
 74
0
 49
0.075
 74
0
 49
-0.075
 74
0
  0
LTYPE
  5
1F6
100
AcDbSymbolTableRecord
100
AcDbLinetypeTableRecord
  2
HIDDEN
 70
64
  3
- - - - - - - - - - - - - - - - - - - -
 72
65
 73
2
 40
0.2
 49
0.1
 74
0
 49
-0.1
 74
0
  0
LTYPE
  5
1F7
100
AcDbSymbolTableRecord
100
AcDbLinetypeTableRecord
  2
PHANTOM
 70
64
  3
_____ _ _ _____ _ _ _____ _ _ _____
 72
65
 73
6
 40
0.8
 49
0.45
 74
0
 49
-0.05
 74
0
 49
0.1
 74
0
 49
-0.05
 74
0
 49
0.1
 74
0
 49
-0.05
 74
0
  0
LTYPE
  5
1F8
100
AcDbSymbolTableRecord
100
AcDbLinetypeTableRecord
  2
DOT
 70
64
  3
. . . . . . . . . . . . . . . . . . . .
 72
65
 73
2
 40
0.2
 49
0.1
 74
0
 49
-0.1
 74
0
  0
LTYPE
  5
1F9
100
AcDbSymbolTableRecord
100
AcDbLinetypeTableRecord
  2
DASHED
 70
64
  3
- - - - - - - - - - - - - - - - - - - -
 72
65
 73
2
 40
0.2
 49
0.1
 74
0
 49
-0.1
 74
0
  0
ENDTAB
  0
TABLE
  2
LAYER
  5
2
100
AcDbSymbolTable
 70
36
  0
LAYER
  5
10
100
AcDbSymbolTableRecord
100
AcDbLayerTableRecord
  2
0
 70
0
 62
7
  6
CONTINUOUS
370
-3
390
F
  0
LAYER
  5
1FA
100
AcDbSymbolTableRecord
100
AcDbLayerTableRecord
  2
DEFAULT_1
 70
0
 62
7
  6
CENTER
370
-3
390
F
  0
LAYER
  5
1FB
100
AcDbSymbolTableRecord
100
AcDbLayerTableRecord
  2
DEFAULT_2
 70
0
 62
7
  6
HIDDEN
370
-3
390
F
  0
LAYER
  5
1FC
100
AcDbSymbolTableRecord
100
AcDbLayerTableRecord
  2
DEFAULT_3
 70
0
 62
7
  6
PHANTOM
370
-3
390
F
  0
LAYER
  5
1FD
100
AcDbSymbolTableRecord
100
AcDbLayerTableRecord
  2
00_COMPONENTS
 70
0
 62
7
  6
CONTINUOUS
370
-3
390
F
  0
LAYER
  5
1FE
100
AcDbSymbolTableRecord
100
AcDbLayerTableRecord
  2
01_1_DEFAULT_DATUMS
 70
0
 62
7
  6
CONTINUOUS
370
-3
390
F
  0
LAYER
  5
1FF
100
AcDbSymbolTableRecord
100
AcDbLayerTableRecord
  2
01_PLANES
 70
0
 62
7
  6
CONTINUOUS
370
-3
390
F
  0
LAYER
  5
200
100
AcDbSymbolTableRecord
100
AcDbLayerTableRecord
  2
02_COORD_SYS
 70
0
 62
7
  6
CONTINUOUS
370
-3
390
F
  0
LAYER
  5
201
100
AcDbSymbolTableRecord
100
AcDbLayerTableRecord
  2
03_AXES
 70
0
 62
7
  6
CONTINUOUS
370
-3
390
F
  0
LAYER
  5
202
100
AcDbSymbolTableRecord
100
AcDbLayerTableRecord
  2
04_POINTS
 70
0
 62
7
  6
CONTINUOUS
370
-3
390
F
  0
LAYER
  5
203
100
AcDbSymbolTableRecord
100
AcDbLayerTableRecord
  2
05_CURVES
 70
0
 62
7
  6
CONTINUOUS
370
-3
390
F
  0
LAYER
  5
204
100
AcDbSymbolTableRecord
100
AcDbLayerTableRecord
  2
06_SURFS
 70
0
 62
7
  6
CONTINUOUS
370
-3
390
F
  0
LAYER
  5
205
100
AcDbSymbolTableRecord
100
AcDbLayerTableRecord
  2
07_COSMETICS
 70
0
 62
7
  6
CONTINUOUS
370
-3
390
F
  0
LAYER
  5
206
100
AcDbSymbolTableRecord
100
AcDbLayerTableRecord
  2
10_NOTES
 70
0
 62
7
  6
CONTINUOUS
370
-3
390
F
  0
LAYER
  5
207
100
AcDbSymbolTableRecord
100
AcDbLayerTableRecord
  2
11_NOTES_PUB
 70
0
 62
7
  6
CONTINUOUS
370
-3
390
F
  0
LAYER
  5
208
100
AcDbSymbolTableRecord
100
AcDbLayerTableRecord
  2
13_REF_GTOL
 70
0
 62
7
  6
CONTINUOUS
370
-3
390
F
  0
LAYER
  5
209
100
AcDbSymbolTableRecord
100
AcDbLayerTableRecord
  2
16_MISC
 70
0
 62
7
  6
CONTINUOUS
370
-3
390
F
  0
LAYER
  5
20A
100
AcDbSymbolTableRecord
100
AcDbLayerTableRecord
  2
17_NO_PRINT
 70
0
 62
7
  6
CONTINUOUS
370
-3
390
F
  0
LAYER
  5
20B
100
AcDbSymbolTableRecord
100
AcDbLayerTableRecord
  2
18_DATUM_CAMS_JOINTS
 70
0
 62
7
  6
CONTINUOUS
370
-3
390
F
  0
LAYER
  5
20C
100
AcDbSymbolTableRecord
100
AcDbLayerTableRecord
  2
19_DATUM_FUNCTIONAL
 70
0
 62
7
  6
CONTINUOUS
370
-3
390
F
  0
LAYER
  5
20D
100
AcDbSymbolTableRecord
100
AcDbLayerTableRecord
  2
20_DATUM_KINEMATIC_SCHEME
 70
0
 62
7
  6
CONTINUOUS
370
-3
390
F
  0
ENDTAB
  0
TABLE
  2
STYLE
  5
3
100
AcDbSymbolTable
 70
1
  0
STYLE
  5
11
100
AcDbSymbolTableRecord
100
AcDbTextStyleTableRecord
  2
STANDARD
 70
0
 40
0.0
 41
1.0
 50
0.0
 71
0
 42
0.2
  3
ARIAL.TTF
  4

  0
STYLE
  5
20E
100
AcDbSymbolTableRecord
100
AcDbTextStyleTableRecord
  2
TEXTSTYLE_1
 70
0
 40
0.0
 41
0.8
 50
0.0
 71
0
 42
0.2
  3
gdt
  4

  0
ENDTAB
  0
TABLE
  2
VIEW
  5
6
100
AcDbSymbolTable
 70
0
  0
ENDTAB
  0
TABLE
  2
UCS
  5
7
100
AcDbSymbolTable
 70
0
  0
ENDTAB
  0
TABLE
  2
APPID
  5
9
100
AcDbSymbolTable
 70
1
  0
APPID
  5
20F
100
AcDbSymbolTableRecord
100
AcDbRegAppTableRecord
  2
ACAD
 70
0
  0
ENDTAB
  0
TABLE
  2
BLOCK_RECORD
  5
1
100
AcDbSymbolTable
 70
0
  0
BLOCK_RECORD
  5
210
100
AcDbSymbolTableRecord
100
AcDbBlockTableRecord
  2
*Model_Space
  0
BLOCK_RECORD
  5
211
100
AcDbSymbolTableRecord
100
AcDbBlockTableRecord
  2
*Paper_Space
  0
BLOCK_RECORD
  5
212
100
AcDbSymbolTableRecord
100
AcDbBlockTableRecord
  2
_FILLED
  0
ENDTAB
  0
TABLE
  2
DIMSTYLE
  5
A
100
AcDbSymbolTable
 70
1
100
AcDbDimStyleTable
 71
0
  0
DIMSTYLE
105
213
100
AcDbSymbolTableRecord
100
AcDbDimStyleTableRecord
  2
STANDARD
 70
0
  3

  4

 40
1.0
 41
1.1052842577
 42
1.0
 43
0.38
 44
1.0
 45
0.0
 46
0.0
 47
0.01
 48
0.01
140
1.5473979608
141
0.09
142
0.0
143
25.4
144
1.0
145
0.0
146
1.0
147
0.625
 71
1
 72
0
 73
0
 74
0
 75
0
 76
0
 77
1
 78
8
 79
2
170
0
171
1
172
0
173
0
174
0
175
0
176
0
177
0
178
0
270
2
179
2
271
2
272
2
273
2
274
2
275
0
280
0
281
0
282
0
283
1
284
8
285
0
286
0
287
3
288
0
340
11
278
46
341
212
342
212
343
212
344
212
  0
ENDTAB
  0
ENDSEC
  0
SECTION
  2
BLOCKS
  0
BLOCK
  5
20
100
AcDbEntity
  8
0
100
AcDbBlockBegin
  2
*Model_Space
 70
0
 10
0.0
 20
0.0
 30
0.0
  3
*Model_Space
  1

  0
ENDBLK
  5
21
100
AcDbEntity
  8
0
100
AcDbBlockEnd
  0
BLOCK
  5
1C
100
AcDbEntity
  8
0
100
AcDbBlockBegin
  2
*Paper_Space
 70
0
 10
0.0
 20
0.0
 30
0.0
  3
*Paper_Space
  1

  0
ENDBLK
  5
1D
100
AcDbEntity
  8
0
100
AcDbBlockEnd
  0
BLOCK
  5
214
100
AcDbEntity
  8
0
100
AcDbBlockBegin
  2
_FILLED
 70
64
 10
0.0
 20
0.0
  3
_FILLED
  1

  0
SOLID
  5
215
100
AcDbEntity
  8
0
  6
BYBLOCK
 62
0
100
AcDbTrace
 10
0.0
 20
0.0
 11
-1.0
 21
0.25
 12
-1.0
 22
-0.25
 13
-1.0
 23
-0.25
  0
ENDBLK
  5
216
100
AcDbEntity
  8
0
  6
BYBLOCK
 62
0
100
AcDbBlockEnd
  0
ENDSEC
  0
SECTION
  2
ENTITIES
  0
LINE
  5
217
100
AcDbEntity
  8
0
100
AcDbLine
 62
7
  6
BYLAYER
 10
17.6773345063
 20
9.402086333
 11
77.5773345063
 21
9.402086333
  0
LINE
  5
218
100
AcDbEntity
  8
0
100
AcDbLine
 62
7
  6
BYLAYER
 10
63.1273345063
 20
13.902086333
 11
52.1273345063
 21
13.902086333
  0
LINE
  5
219
100
AcDbEntity
  8
0
100
AcDbLine
 62
7
  6
BYLAYER
 10
44.6273345063
 20
13.902086333
 11
30.6273345063
 21
13.902086333
  0
LINE
  5
21A
100
AcDbEntity
  8
0
100
AcDbLine
 62
7
  6
BYLAYER
 10
26.6273345063
 20
15.902086333
 11
48.6273345063
 21
15.902086333
  0
LINE
  5
21B
100
AcDbEntity
  8
0
100
AcDbLine
 62
7
  6
BYLAYER
 10
77.5773345063
 20
21.102086333
 11
17.6773345063
 21
21.102086333
  0
LINE
  5
21C
100
AcDbEntity
  8
0
100
AcDbLine
 62
7
  6
BYLAYER
 10
17.6773345063
 20
22.602086333
 11
77.5773345063
 21
22.602086333
  0
LINE
  5
21D
100
AcDbEntity
  8
0
100
AcDbLine
 62
7
  6
BYLAYER
 10
16.1273345063
 20
74.502086333
 11
16.1273345063
 21
75.802086333
  0
LINE
  5
21E
100
AcDbEntity
  8
0
100
AcDbLine
 62
7
  6
BYLAYER
 10
17.6273345063
 20
75.802086333
 11
17.6273345063
 21
80.102086333
  0
LINE
  5
21F
100
AcDbEntity
  8
0
100
AcDbLine
 62
7
  6
BYLAYER
 10
17.6773345063
 20
9.402086333
 11
17.6773345063
 21
65.702086333
  0
LINE
  5
220
100
AcDbEntity
  8
0
100
AcDbLine
 62
7
  6
BYLAYER
 10
17.7273345063
 20
65.702086333
 11
17.7273345063
 21
74.502086333
  0
LINE
  5
221
100
AcDbEntity
  8
0
100
AcDbLine
 62
7
  6
BYLAYER
 10
69.7161999565
 20
32.517086333
 11
65.7161999565
 21
32.517086333
  0
LINE
  5
222
100
AcDbEntity
  8
0
100
AcDbLine
 62
7
  6
BYLAYER
 10
49.6273345063
 20
32.517086333
 11
45.6273345063
 21
32.517086333
  0
LINE
  5
223
100
AcDbEntity
  8
0
100
AcDbLine
 62
7
  6
BYLAYER
 10
29.5384690561
 20
32.517086333
 11
25.5384690561
 21
32.517086333
  0
LINE
  5
224
100
AcDbEntity
  8
0
100
AcDbLine
 62
7
  6
BYLAYER
 10
20.6273345063
 20
75.802086333
 11
20.6273345063
 21
81.102086333
  0
LINE
  5
225
100
AcDbEntity
  8
0
100
AcDbLine
 62
7
  6
BYLAYER
 10
21.6773345063
 20
65.702086333
 11
21.6773345063
 21
61.102086333
  0
LINE
  5
226
100
AcDbEntity
  8
0
100
AcDbLine
 62
7
  6
BYLAYER
 10
23.4384690561
 20
40.047086333
 11
31.6384690561
 21
40.047086333
  0
LINE
  5
227
100
AcDbEntity
  8
0
100
AcDbLine
 62
7
  6
BYLAYER
 10
43.5273345063
 20
40.047086333
 11
51.7273345063
 21
40.047086333
  0
LINE
  5
228
100
AcDbEntity
  8
0
100
AcDbLine
 62
7
  6
BYLAYER
 10
63.6161999565
 20
40.047086333
 11
71.8161999565
 21
40.047086333
  0
LINE
  5
229
100
AcDbEntity
  8
0
100
AcDbLine
 62
7
  6
BYLAYER
 10
23.4384690561
 20
33.6606203363
 11
23.4384690561
 21
40.047086333
  0
LINE
  5
22A
100
AcDbEntity
  8
0
100
AcDbLine
 62
7
  6
BYLAYER
 10
23.6273345063
 20
74.502086333
 11
23.6273345063
 21
65.702086333
  0
LINE
  5
22B
100
AcDbEntity
  8
0
100
AcDbLine
 62
7
  6
BYLAYER
 10
23.7273345063
 20
75.802086333
 11
23.7273345063
 21
74.502086333
  0
LINE
  5
22C
100
AcDbEntity
  8
0
100
AcDbLine
 62
7
  6
BYLAYER
 10
25.1273345063
 20
119.102086333
 11
25.1273345063
 21
81.102086333
  0
LINE
  5
22D
100
AcDbEntity
  8
0
100
AcDbLine
 62
7
  6
BYLAYER
 10
25.5773345063
 20
65.702086333
 11
25.5773345063
 21
61.102086333
  0
LINE
  5
22E
100
AcDbEntity
  8
0
100
AcDbLine
 62
7
  6
BYLAYER
 10
26.6273345063
 20
9.402086333
 11
26.6273345063
 21
15.902086333
  0
LINE
  5
22F
100
AcDbEntity
  8
0
100
AcDbLine
 62
7
  6
BYLAYER
 10
27.9362365899
 20
102.8832923725
 11
27.8435230429
 21
119.1718853864
  0
LINE
  5
230
100
AcDbEntity
  8
0
100
AcDbLine
 62
7
  6
BYLAYER
 10
27.8435230436
 20
121.102086333
 11
27.8435230436
 21
119.1718853564
  0
LINE
  5
231
100
AcDbEntity
  8
0
100
AcDbLine
 62
7
  6
BYLAYER
 10
31.6273345063
 20
9.402086333
 11
31.6273345063
 21
13.902086333
  0
LINE
  5
232
100
AcDbEntity
  8
0
100
AcDbLine
 62
7
  6
BYLAYER
 10
31.6384690561
 20
40.047086333
 11
31.6384690561
 21
33.6606203363
  0
LINE
  5
233
100
AcDbEntity
  8
0
100
AcDbLine
 62
7
  6
BYLAYER
 10
33.7273345063
 20
119.102086333
 11
33.7273345063
 21
121.102086333
  0
LINE
  5
234
100
AcDbEntity
  8
0
100
AcDbLine
 62
7
  6
BYLAYER
 10
34.1273345063
 20
119.102086333
 11
34.1273345063
 21
121.102086333
  0
LINE
  5
235
100
AcDbEntity
  8
0
100
AcDbLine
 62
7
  6
BYLAYER
 10
43.5273345063
 20
33.6606203363
 11
43.5273345063
 21
40.047086333
  0
LINE
  5
236
100
AcDbEntity
  8
0
100
AcDbLine
 62
7
  6
BYLAYER
 10
43.6273345063
 20
13.902086333
 11
43.6273345063
 21
9.402086333
  0
LINE
  5
237
100
AcDbEntity
  8
0
100
AcDbLine
 62
7
  6
BYLAYER
 10
77.5773345063
 20
58.602086333
 11
17.6773345063
 21
58.602086333
  0
LINE
  5
238
100
AcDbEntity
  8
0
100
AcDbLine
 62
7
  6
BYLAYER
 10
17.6773345063
 20
60.102086333
 11
77.5773345063
 21
60.102086333
  0
LINE
  5
239
100
AcDbEntity
  8
0
100
AcDbLine
 62
7
  6
BYLAYER
 10
21.6773345063
 20
61.102086333
 11
25.5773345063
 21
61.102086333
  0
LINE
  5
23A
100
AcDbEntity
  8
0
100
AcDbLine
 62
7
  6
BYLAYER
 10
69.6773345063
 20
61.102086333
 11
73.5773345063
 21
61.102086333
  0
LINE
  5
23B
100
AcDbEntity
  8
0
100
AcDbLine
 62
7
  6
BYLAYER
 10
17.6773345063
 20
65.702086333
 11
77.5773345063
 21
65.702086333
  0
LINE
  5
23C
100
AcDbEntity
  8
0
100
AcDbLine
 62
7
  6
BYLAYER
 10
48.6273345063
 20
15.902086333
 11
48.6273345063
 21
9.402086333
  0
LINE
  5
23D
100
AcDbEntity
  8
0
100
AcDbLine
 62
7
  6
BYLAYER
 10
51.7273345063
 20
40.047086333
 11
51.7273345063
 21
33.6606203363
  0
LINE
  5
23E
100
AcDbEntity
  8
0
100
AcDbLine
 62
7
  6
BYLAYER
 10
52.1273345063
 20
13.902086333
 11
52.1273345063
 21
9.402086333
  0
LINE
  5
23F
100
AcDbEntity
  8
0
100
AcDbLine
 62
7
  6
BYLAYER
 10
16.1273345063
 20
74.502086333
 11
79.1273345063
 21
74.502086333
  0
LINE
  5
240
100
AcDbEntity
  8
0
100
AcDbLine
 62
7
  6
BYLAYER
 10
79.1273345063
 20
75.802086333
 11
16.1273345063
 21
75.802086333
  0
LINE
  5
241
100
AcDbEntity
  8
0
100
AcDbLine
 62
7
  6
BYLAYER
 10
63.1273345063
 20
13.902086333
 11
63.1273345063
 21
9.402086333
  0
LINE
  5
242
100
AcDbEntity
  8
0
100
AcDbLine
 62
7
  6
BYLAYER
 10
63.6161999565
 20
33.6606203363
 11
63.6161999565
 21
40.047086333
  0
LINE
  5
243
100
AcDbEntity
  8
0
100
AcDbLine
 62
7
  6
BYLAYER
 10
77.6273345063
 20
80.102086333
 11
17.6273345063
 21
80.102086333
  0
LINE
  5
244
100
AcDbEntity
  8
0
100
AcDbLine
 62
7
  6
BYLAYER
 10
18.6273345063
 20
81.102086333
 11
76.6273345063
 21
81.102086333
  0
LINE
  5
245
100
AcDbEntity
  8
0
100
AcDbLine
 62
7
  6
BYLAYER
 10
67.4111457603
 20
119.1718853464
 11
67.4111457603
 21
121.102086333
  0
LINE
  5
246
100
AcDbEntity
  8
0
100
AcDbLine
 62
7
  6
BYLAYER
 10
67.4111459697
 20
119.1718853664
 11
67.3184324227
 21
102.8832923725
  0
LINE
  5
247
100
AcDbEntity
  8
0
100
AcDbLine
 62
7
  6
BYLAYER
 10
69.6773345063
 20
65.702086333
 11
69.6773345063
 21
61.102086333
  0
LINE
  5
248
100
AcDbEntity
  8
0
100
AcDbLine
 62
7
  6
BYLAYER
 10
70.1273345063
 20
119.102086333
 11
70.1273345063
 21
81.102086333
  0
LINE
  5
249
100
AcDbEntity
  8
0
100
AcDbLine
 62
7
  6
BYLAYER
 10
71.5273345063
 20
74.502086333
 11
71.5273345063
 21
75.802086333
  0
LINE
  5
24A
100
AcDbEntity
  8
0
100
AcDbLine
 62
7
  6
BYLAYER
 10
71.6273345063
 20
65.702086333
 11
71.6273345063
 21
74.502086333
  0
LINE
  5
24B
100
AcDbEntity
  8
0
100
AcDbLine
 62
7
  6
BYLAYER
 10
71.8161999565
 20
40.047086333
 11
71.8161999565
 21
33.6606203363
  0
LINE
  5
24C
100
AcDbEntity
  8
0
100
AcDbLine
 62
7
  6
BYLAYER
 10
73.5773345063
 20
65.702086333
 11
73.5773345063
 21
61.102086333
  0
LINE
  5
24D
100
AcDbEntity
  8
0
100
AcDbLine
 62
7
  6
BYLAYER
 10
57.4518191084
 20
88.802086333
 11
37.8028499043
 21
88.802086333
  0
LINE
  5
24E
100
AcDbEntity
  8
0
100
AcDbLine
 62
7
  6
BYLAYER
 10
56.3602097081
 20
91.302086333
 11
38.8944593045
 21
91.302086333
  0
LINE
  5
24F
100
AcDbEntity
  8
0
100
AcDbLine
 62
7
  6
BYLAYER
 10
74.6273345063
 20
75.802086333
 11
74.6273345063
 21
81.102086333
  0
LINE
  5
250
100
AcDbEntity
  8
0
100
AcDbLine
 62
7
  6
BYLAYER
 10
77.5273345063
 20
74.502086333
 11
77.5273345063
 21
65.702086333
  0
LINE
  5
251
100
AcDbEntity
  8
0
100
AcDbLine
 62
7
  6
BYLAYER
 10
77.5773345063
 20
9.402086333
 11
77.5773345063
 21
65.702086333
  0
LINE
  5
252
100
AcDbEntity
  8
0
100
AcDbLine
 62
7
  6
BYLAYER
 10
77.6273345063
 20
75.802086333
 11
77.6273345063
 21
80.102086333
  0
LINE
  5
253
100
AcDbEntity
  8
0
100
AcDbLine
 62
7
  6
BYLAYER
 10
79.1273345063
 20
75.802086333
 11
79.1273345063
 21
74.502086333
  0
LINE
  5
254
100
AcDbEntity
  8
0
100
AcDbLine
 62
7
  6
BYLAYER
 10
27.9362365899
 20
102.8832923725
 11
67.3184324227
 21
102.8832923725
  0
LINE
  5
255
100
AcDbEntity
  8
0
100
AcDbLine
 62
7
  6
BYLAYER
 10
70.1273345063
 20
119.102086333
 11
69.8842240154
 21
119.102086333
  0
LINE
  5
256
100
AcDbEntity
  8
0
100
AcDbLine
 62
7
  6
BYLAYER
 10
34.1273345063
 20
119.102086333
 11
33.7273345063
 21
119.102086333
  0
LINE
  5
257
100
AcDbEntity
  8
0
100
AcDbLine
 62
7
  6
BYLAYER
 10
25.3704449973
 20
119.102086333
 11
25.1273345063
 21
119.102086333
  0
LINE
  5
258
100
AcDbEntity
  8
0
100
AcDbLine
 62
7
  6
BYLAYER
 10
33.7273345063
 20
119.1718853264
 11
27.8435230429
 21
119.1718853864
  0
LINE
  5
259
100
AcDbEntity
  8
0
100
AcDbLine
 62
7
  6
BYLAYER
 10
67.4111459697
 20
119.1718853664
 11
34.1273345063
 21
119.1718853264
  0
LINE
  5
25A
100
AcDbEntity
  8
0
100
AcDbLine
 62
7
  6
BYLAYER
 10
27.1273389489
 20
121.102086333
 11
68.1273300637
 21
121.102086333
  0
ARC
  5
25B
100
AcDbEntity
  8
0
100
AcDbCircle
 62
7
  6
BYLAYER
 10
25.5384690561
 20
35.017086333
 40
2.5
100
AcDbArc
 50
212.8598803789
 51
270.0
  0
ARC
  5
25C
100
AcDbEntity
  8
0
100
AcDbCircle
 62
7
  6
BYLAYER
 10
29.5384690561
 20
35.017086333
 40
2.5
100
AcDbArc
 50
270.0
 51
327.1401196211
  0
ARC
  5
25D
100
AcDbEntity
  8
0
100
AcDbCircle
 62
7
  6
BYLAYER
 10
65.7161999565
 20
35.017086333
 40
2.5
100
AcDbArc
 50
212.8598803789
 51
270.0
  0
ARC
  5
25E
100
AcDbEntity
  8
0
100
AcDbCircle
 62
7
  6
BYLAYER
 10
69.7161999565
 20
35.017086333
 40
2.5
100
AcDbArc
 50
270.0
 51
327.1401196211
  0
ARC
  5
25F
100
AcDbEntity
  8
0
100
AcDbCircle
 62
7
  6
BYLAYER
 10
49.6273345063
 20
35.017086333
 40
2.5
100
AcDbArc
 50
270.0
 51
327.1401196211
  0
ARC
  5
260
100
AcDbEntity
  8
0
100
AcDbCircle
 62
7
  6
BYLAYER
 10
45.6273345063
 20
35.017086333
 40
2.5
100
AcDbArc
 50
212.8598803789
 51
270.0
  0
ARC
  5
261
100
AcDbEntity
  8
0
100
AcDbCircle
 62
7
  6
BYLAYER
 10
27.1273345063
 20
119.102086333
 40
2.0
100
AcDbArc
 50
90.0
 51
180.0
  0
ARC
  5
262
100
AcDbEntity
  8
0
100
AcDbCircle
 62
7
  6
BYLAYER
 10
68.1273345063
 20
119.102086333
 40
2.0
100
AcDbArc
 50
0.0
 51
90.0
  0
ARC
  5
263
100
AcDbEntity
  8
0
100
AcDbCircle
 62
7
  6
BYLAYER
 10
67.9039917973
 20
119.1364439264
 40
1.965699091
100
AcDbArc
 50
83.9527279705
 51
84.6075924985
  0
ARC
  5
264
100
AcDbEntity
  8
0
100
AcDbCircle
 62
7
  6
BYLAYER
 10
67.9054572041
 20
119.1547588541
 40
1.9473275214
100
AcDbArc
 50
84.599876401
 51
89.9892184171
  0
ARC
  5
265
100
AcDbEntity
  8
0
100
AcDbCircle
 62
7
  6
BYLAYER
 10
76.6273345063
 20
80.102086333
 40
1.0
100
AcDbArc
 50
0.0
 51
90.0
  0
ARC
  5
266
100
AcDbEntity
  8
0
100
AcDbCircle
 62
7
  6
BYLAYER
 10
18.6273345063
 20
80.102086333
 40
1.0
100
AcDbArc
 50
90.0
 51
180.0
  0
SPLINE
  5
267
100
AcDbEntity
  8
0
100
AcDbSpline
 62
7
  6
BYLAYER
 70
0
 71
3
 72
23
 73
19
 74
0
 42
0.0000001
 43
0.0000001
 44
0.0000000001
 40
0.0
 40
0.0
 40
0.0
 40
0.0
 40
0.0788713274
 40
0.1558558106
 40
0.2296427082
 40
0.2991787642
 40
0.3637985236
 40
0.4233657103
 40
0.4784130733
 40
0.5301903595
 40
0.5805009503
 40
0.6312889511
 40
0.6841742325
 40
0.7402011481
 40
0.7998513312
 40
0.8631895679
 40
0.9300199991
 40
1.0
 40
1.0
 40
1.0
 40
1.0
 10
69.7798196623
 20
102.7960436308
 30
0.0
 10
69.7757119399
 20
102.2080134965
 30
0.0
 10
69.7536409649
 20
101.046054292
 30
0.0
 10
69.6728110852
 20
99.3355248173
 30
0.0
 10
69.5333231386
 20
97.6983649775
 30
0.0
 10
69.3194698899
 20
96.1617941538
 30
0.0
 10
69.0128183872
 20
94.7484615542
 30
0.0
 10
68.5939638342
 20
93.4760867102
 30
0.0
 10
68.044666597
 20
92.3581507743
 30
0.0
 10
67.3514346754
 20
91.4054052409
 30
0.0
 10
66.5112279432
 20
90.624588297
 30
0.0
 10
65.532724575
 20
90.0124297216
 30
0.0
 10
64.4293152168
 20
89.5535676458
 30
0.0
 10
63.2131539765
 20
89.2261913194
 30
0.0
 10
61.8949133783
 20
89.0076143064
 30
0.0
 10
60.484948528
 20
88.8762807295
 30
0.0
 10
58.9936729983
 20
88.8121336008
 30
0.0
 10
57.9735721295
 20
88.8020864032
 30
0.0
 10
57.4518191084
 20
88.802086333
 30
0.0
  0
SPLINE
  5
268
100
AcDbEntity
  8
0
100
AcDbSpline
 62
7
  6
BYLAYER
 70
0
 71
3
 72
15
 73
11
 74
0
 42
0.0000001
 43
0.0000001
 44
0.0000000001
 40
0.0
 40
0.0
 40
0.0
 40
0.0
 40
0.0172857031
 40
0.0423042791
 40
0.114719329
 40
0.2150066266
 40
0.3400765953
 40
0.4859158489
 40
0.647974755
 40
1.0
 40
1.0
 40
1.0
 40
1.0
 10
69.8846811132
 20
119.1020792697
 30
0.0
 10
69.8706721816
 20
119.1047577671
 30
0.0
 10
69.8360361262
 20
119.1093635253
 30
0.0
 10
69.7418295937
 20
119.1185110879
 30
0.0
 10
69.5789465459
 20
119.1285218167
 30
0.0
 10
69.3334971002
 20
119.1393398069
 30
0.0
 10
69.027361728
 20
119.1491088535
 30
0.0
 10
68.670213241
 20
119.1576039415
 30
0.0
 10
68.1257769411
 20
119.1669355244
 30
0.0
 10
67.7016050948
 20
119.1706973124
 30
0.0
 10
67.4111460884
 20
119.1718727672
 30
0.0
  0
SPLINE
  5
269
100
AcDbEntity
  8
0
100
AcDbSpline
 62
7
  6
BYLAYER
 70
0
 71
3
 72
13
 73
9
 74
0
 42
0.0000001
 43
0.0000001
 44
0.0000000001
 40
0.0
 40
0.0
 40
0.0
 40
0.0
 40
0.1246821569
 40
0.2493990873
 40
0.374231047
 40
0.4993641376
 40
0.7493049811
 40
1.0
 40
1.0
 40
1.0
 40
1.0
 10
68.111076153
 20
121.0912045219
 30
0.0
 10
68.2312971682
 20
121.0784686628
 30
0.0
 10
68.4700359631
 20
121.0307887317
 30
0.0
 10
68.808440494
 20
120.8944529068
 30
0.0
 10
69.1165564059
 20
120.6979354034
 30
0.0
 10
69.4725518643
 20
120.3655659879
 30
0.0
 10
69.7951456298
 20
119.8350043174
 30
0.0
 10
69.8842139142
 20
119.3451640253
 30
0.0
 10
69.8842139613
 20
119.1020862877
 30
0.0
  0
SPLINE
  5
26A
100
AcDbEntity
  8
0
100
AcDbSpline
 62
7
  6
BYLAYER
 70
0
 71
3
 72
9
 73
5
 74
0
 42
0.0000001
 43
0.0000001
 44
0.0000000001
 40
0.0
 40
0.0
 40
0.0
 40
0.0
 40
0.5000009522
 40
1.0
 40
1.0
 40
1.0
 40
1.0
 10
69.7798196623
 20
102.7960436308
 30
0.0
 10
69.7981116942
 20
105.5137168572
 30
0.0
 10
69.8360144221
 20
110.9490446051
 30
0.0
 10
69.8676427865
 20
116.3844124813
 30
0.0
 10
69.8842240154
 20
119.102086333
 30
0.0
  0
SPLINE
  5
26B
100
AcDbEntity
  8
0
100
AcDbSpline
 62
7
  6
BYLAYER
 70
0
 71
3
 72
23
 73
19
 74
0
 42
0.0000001
 43
0.0000001
 44
0.0000000001
 40
0.0
 40
0.0
 40
0.0
 40
0.0
 40
0.0788711856
 40
0.1558556287
 40
0.2296426098
 40
0.2991786991
 40
0.3637984838
 40
0.4233657871
 40
0.47841311
 40
0.5301904159
 40
0.5805010197
 40
0.6312890391
 40
0.6841743206
 40
0.740201225
 40
0.7998513977
 40
0.8631896097
 40
0.9300200074
 40
1.0
 40
1.0
 40
1.0
 40
1.0
 10
25.4748493504
 20
102.7960436308
 30
0.0
 10
25.478957067
 20
102.2080145548
 30
0.0
 10
25.5010283883
 20
101.0460567111
 30
0.0
 10
25.58185845
 20
99.3355279964
 30
0.0
 10
25.721345476
 20
97.6983675085
 30
0.0
 10
25.9352001015
 20
96.1617957158
 30
0.0
 10
26.2418531479
 20
94.7484623208
 30
0.0
 10
26.6607039266
 20
93.4760853146
 30
0.0
 10
27.21000381
 20
92.3581497729
 30
0.0
 10
27.9032354698
 20
91.4054042045
 30
0.0
 10
28.7434429396
 20
90.6245875757
 30
0.0
 10
29.7219455503
 20
90.0124273435
 30
0.0
 10
30.8253556344
 20
89.5535665346
 30
0.0
 10
32.041516855
 20
89.2261910639
 30
0.0
 10
33.3597570332
 20
89.0076137936
 30
0.0
 10
34.7697212918
 20
88.8762791563
 30
0.0
 10
36.2609964029
 20
88.8121335115
 30
0.0
 10
37.281096946
 20
88.8020862682
 30
0.0
 10
37.8028499043
 20
88.802086333
 30
0.0
  0
SPLINE
  5
26C
100
AcDbEntity
  8
0
100
AcDbSpline
 62
7
  6
BYLAYER
 70
0
 71
3
 72
9
 73
5
 74
0
 42
0.0000001
 43
0.0000001
 44
0.0000000001
 40
0.0
 40
0.0
 40
0.0
 40
0.0
 40
0.4999990478
 40
1.0
 40
1.0
 40
1.0
 40
1.0
 10
25.3704449973
 20
119.102086333
 30
0.0
 10
25.3870276604
 20
116.3844124901
 30
0.0
 10
25.418654596
 20
110.9490446057
 30
0.0
 10
25.4565558763
 20
105.5137168476
 30
0.0
 10
25.4748493504
 20
102.7960436308
 30
0.0
  0
SPLINE
  5
26D
100
AcDbEntity
  8
0
100
AcDbSpline
 62
7
  6
BYLAYER
 70
0
 71
3
 72
22
 73
18
 74
0
 42
0.0000001
 43
0.0000001
 44
0.0000000001
 40
0.0
 40
0.0
 40
0.0
 40
0.0
 40
0.1466554138
 40
0.2167553332
 40
0.2834576007
 40
0.3461322196
 40
0.4046167764
 40
0.4593415973
 40
0.5115115152
 40
0.5628790495
 40
0.6153416751
 40
0.6704233943
 40
0.7290172539
 40
0.7914421769
 40
0.8576370925
 40
0.9272936417
 40
1.0
 40
1.0
 40
1.0
 40
1.0
 10
67.318432831
 20
102.8832923695
 30
0.0
 10
67.3114108348
 20
101.9475840397
 30
0.0
 10
67.2690952812
 20
100.5640423731
 30
0.0
 10
67.1103565081
 20
98.761872222
 30
0.0
 10
66.9286999987
 20
97.5012201787
 30
0.0
 10
66.6662840404
 20
96.3300253908
 30
0.0
 10
66.3048178923
 20
95.2645007866
 30
0.0
 10
65.8233813673
 20
94.320505988
 30
0.0
 10
65.2113812885
 20
93.5096530267
 30
0.0
 10
64.4616974091
 20
92.845133824
 30
0.0
 10
63.5862772095
 20
92.3232094098
 30
0.0
 10
62.5962128802
 20
91.9341816529
 30
0.0
 10
61.5050072091
 20
91.6573275838
 30
0.0
 10
60.3234478534
 20
91.4734709961
 30
0.0
 10
59.062456121
 20
91.3638244549
 30
0.0
 10
57.7325216243
 20
91.3102654926
 30
0.0
 10
56.8241126849
 20
91.3020871265
 30
0.0
 10
56.3602098599
 20
91.302086333
 30
0.0
  0
SPLINE
  5
26E
100
AcDbEntity
  8
0
100
AcDbSpline
 62
7
  6
BYLAYER
 70
0
 71
3
 72
22
 73
18
 74
0
 42
0.0000001
 43
0.0000001
 44
0.0000000001
 40
0.0
 40
0.0
 40
0.0
 40
0.0
 40
0.072702125
 40
0.1423539816
 40
0.2085468461
 40
0.2709710305
 40
0.3295636235
 40
0.3846442275
 40
0.4371067109
 40
0.48847409
 40
0.5406429793
 40
0.5953671707
 40
0.6538525857
 40
0.7165268619
 40
0.7832259642
 40
0.8533269871
 40
1.0
 40
1.0
 40
1.0
 40
1.0
 10
38.8944588797
 20
91.302086333
 30
0.0
 10
38.4305830522
 20
91.3020868571
 30
0.0
 10
37.5222310327
 20
91.3102625765
 30
0.0
 10
36.1923663784
 20
91.3638156583
 30
0.0
 10
34.9314217374
 20
91.4734508463
 30
0.0
 10
33.7498852728
 20
91.6572837987
 30
0.0
 10
32.6586918722
 20
91.9341043171
 30
0.0
 10
31.6686311491
 20
92.3230961939
 30
0.0
 10
30.7931974581
 20
92.8449783018
 30
0.0
 10
30.0434800453
 20
93.5094456097
 30
0.0
 10
29.4314354781
 20
94.3202513462
 30
0.0
 10
28.9499622389
 20
95.2642232567
 30
0.0
 10
28.5884709838
 20
96.3297388737
 30
0.0
 10
28.3260255571
 20
97.5009095209
 30
0.0
 10
28.1443393111
 20
98.7615422186
 30
0.0
 10
27.9855821953
 20
100.5638107022
 30
0.0
 10
27.9432602447
 20
101.9474717341
 30
0.0
 10
27.9362354475
 20
102.883292364
 30
0.0
  0
SPLINE
  5
26F
100
AcDbEntity
  8
0
100
AcDbSpline
 62
7
  6
BYLAYER
 70
0
 71
3
 72
13
 73
9
 74
0
 42
0.0000001
 43
0.0000001
 44
0.0000000001
 40
0.0
 40
0.0
 40
0.0
 40
0.0
 40
0.0925618709
 40
0.1999214631
 40
0.3190007047
 40
0.446664834
 40
0.7181483721
 40
1.0
 40
1.0
 40
1.0
 40
1.0
 10
44.6273345063
 20
13.902086333
 30
0.0
 10
44.7664049532
 20
13.902086333
 30
0.0
 10
45.0659690777
 20
13.955035756
 30
0.0
 10
45.5181094023
 20
14.1153046529
 30
0.0
 10
46.0014397274
 20
14.3391727816
 30
0.0
 10
46.6890473756
 20
14.7047842565
 30
0.0
 10
47.5668440459
 20
15.2314166912
 30
0.0
 10
48.2694365194
 20
15.6757317712
 30
0.0
 10
48.6273345063
 20
15.902086333
 30
0.0
  0
SPLINE
  5
270
100
AcDbEntity
  8
0
100
AcDbSpline
 62
7
  6
BYLAYER
 70
0
 71
3
 72
13
 73
9
 74
0
 42
0.0000001
 43
0.0000001
 44
0.0000000001
 40
0.0
 40
0.0
 40
0.0
 40
0.0
 40
0.2818517956
 40
0.5533384161
 40
0.6810038459
 40
0.8000784375
 40
0.9074387665
 40
1.0
 40
1.0
 40
1.0
 40
1.0
 10
26.6273345063
 20
15.902086333
 30
0.0
 10
26.9852328221
 20
15.6757315632
 30
0.0
 10
27.6877994193
 20
15.2313552561
 30
0.0
 10
28.5657392217
 20
14.7049745614
 30
0.0
 10
29.2530955008
 20
14.3388946346
 30
0.0
 10
29.7365204024
 20
14.1151917778
 30
0.0
 10
30.1887363701
 20
13.9552357527
 30
0.0
 10
30.488264972
 20
13.902086333
 30
0.0
 10
30.6273345063
 20
13.902086333
 30
0.0
  0
SPLINE
  5
271
100
AcDbEntity
  8
0
100
AcDbSpline
 62
7
  6
BYLAYER
 70
0
 71
3
 72
11
 73
7
 74
0
 42
0.0000001
 43
0.0000001
 44
0.0000000001
 40
0.0
 40
0.0
 40
0.0
 40
0.0
 40
0.2512653396
 40
0.5016958011
 40
0.7511572041
 40
1.0
 40
1.0
 40
1.0
 40
1.0
 10
25.3704587345
 20
119.1020864821
 30
0.0
 10
25.370458761
 20
119.3621112409
 30
0.0
 10
25.4729392313
 20
119.8869385832
 30
0.0
 10
25.9125046353
 20
120.551414969
 30
0.0
 10
26.5698818434
 20
120.997621583
 30
0.0
 10
27.0913298906
 20
121.1020861332
 30
0.0
 10
27.348847653
 20
121.1020862568
 30
0.0
  0
SPLINE
  5
272
100
AcDbEntity
  8
0
100
AcDbSpline
 62
7
  6
BYLAYER
 70
0
 71
3
 72
15
 73
11
 74
0
 42
0.0000001
 43
0.0000001
 44
0.0000000001
 40
0.0
 40
0.0
 40
0.0
 40
0.0
 40
0.3520222275
 40
0.5140814594
 40
0.6599213639
 40
0.7849922321
 40
0.8852800199
 40
0.9576954605
 40
0.982714114
 40
1.0
 40
1.0
 40
1.0
 40
1.0
 10
27.843522875
 20
119.1718755155
 30
0.0
 10
27.5530595467
 20
119.1707003133
 30
0.0
 10
27.1288799684
 20
119.1669393267
 30
0.0
 10
26.5844325743
 20
119.1576082352
 30
0.0
 10
26.2272741497
 20
119.1491135944
 30
0.0
 10
25.9211298942
 20
119.139344979
 30
0.0
 10
25.6756732008
 20
119.1285271949
 30
0.0
 10
25.5127855084
 20
119.1185169232
 30
0.0
 10
25.4185761685
 20
119.1093696955
 30
0.0
 10
25.3839390564
 20
119.1047641151
 30
0.0
 10
25.3699295992
 20
119.1020857821
 30
0.0
  0
SPLINE
  5
273
100
AcDbEntity
  8
0
100
AcDbSpline
 62
7
  6
BYLAYER
 70
0
 71
3
 72
14
 73
10
 74
0
 42
0.0000001
 43
0.0000001
 44
0.0000000001
 40
0.0
 40
0.0
 40
0.0
 40
0.0
 40
0.3282427225
 40
0.4912784821
 40
0.642681467
 40
0.7741742413
 40
0.8797712531
 40
0.95510772
 40
1.0
 40
1.0
 40
1.0
 40
1.0
 10
27.9362365131
 20
102.8832923721
 30
0.0
 10
27.6666438946
 20
102.8816203206
 30
0.0
 10
27.2631518465
 20
102.8769408057
 30
0.0
 10
26.7354155471
 20
102.8655964247
 30
0.0
 10
26.3692978155
 20
102.8549383512
 30
0.0
 10
26.0504836068
 20
102.8422150872
 30
0.0
 10
25.7941613277
 20
102.8287339592
 30
0.0
 10
25.6093461923
 20
102.8142072467
 30
0.0
 10
25.5109868984
 20
102.8033647178
 30
0.0
 10
25.4748493507
 20
102.7960436309
 30
0.0
  0
SPLINE
  5
274
100
AcDbEntity
  8
0
100
AcDbSpline
 62
7
  6
BYLAYER
 70
0
 71
3
 72
15
 73
11
 74
0
 42
0.0000001
 43
0.0000001
 44
0.0000000001
 40
0.0
 40
0.0
 40
0.0
 40
0.0
 40
0.0694567956
 40
0.1525148429
 40
0.2564096755
 40
0.3821938629
 40
0.5271771915
 40
0.6840816766
 40
0.8442331294
 40
1.0
 40
1.0
 40
1.0
 40
1.0
 10
38.8944591777
 20
91.302086333
 30
0.0
 10
38.8267250214
 20
91.302086333
 30
0.0
 10
38.6769548624
 20
91.2680293352
 30
0.0
 10
38.4683286412
 20
91.1220640327
 30
0.0
 10
38.2762588823
 20
90.8815831132
 30
0.0
 10
38.105785009
 20
90.556571334
 30
0.0
 10
37.9701390697
 20
90.1608880985
 30
0.0
 10
37.871449159
 20
89.7204745595
 30
0.0
 10
37.8152167959
 20
89.2621921176
 30
0.0
 10
37.8028497571
 20
88.9539899369
 30
0.0
 10
37.8028497568
 20
88.802086333
 30
0.0
  0
SPLINE
  5
275
100
AcDbEntity
  8
0
100
AcDbSpline
 62
7
  6
BYLAYER
 70
0
 71
3
 72
14
 73
10
 74
0
 42
0.0000001
 43
0.0000001
 44
0.0000000001
 40
0.0
 40
0.0
 40
0.0
 40
0.0
 40
0.3282427217
 40
0.4912784813
 40
0.6426814665
 40
0.7741742411
 40
0.8797712531
 40
0.9551077201
 40
1.0
 40
1.0
 40
1.0
 40
1.0
 10
67.3184324784
 20
102.8832923599
 30
0.0
 10
67.5880250986
 20
102.8816203084
 30
0.0
 10
67.9915171496
 20
102.8769407935
 30
0.0
 10
68.5192534532
 20
102.8655964122
 30
0.0
 10
68.8853711885
 20
102.8549383384
 30
0.0
 10
69.2041854005
 20
102.8422150739
 30
0.0
 10
69.4605076822
 20
102.8287339454
 30
0.0
 10
69.6453228195
 20
102.8142072324
 30
0.0
 10
69.7436821142
 20
102.8033647032
 30
0.0
 10
69.7798196621
 20
102.7960436159
 30
0.0
  0
SPLINE
  5
276
100
AcDbEntity
  8
0
100
AcDbSpline
 62
7
  6
BYLAYER
 70
0
 71
3
 72
15
 73
11
 74
0
 42
0.0000001
 43
0.0000001
 44
0.0000000001
 40
0.0
 40
0.0
 40
0.0
 40
0.0
 40
0.1557668708
 40
0.315918324
 40
0.4728228094
 40
0.6178061382
 40
0.7435903257
 40
0.8474851582
 40
0.930543205
 40
1.0
 40
1.0
 40
1.0
 40
1.0
 10
57.4518191086
 20
88.802086333
 30
0.0
 10
57.4518191086
 20
88.9539899366
 30
0.0
 10
57.4394520705
 20
89.2621921167
 30
0.0
 10
57.3832197092
 20
89.7204745579
 30
0.0
 10
57.284529801
 20
90.1608880966
 30
0.0
 10
57.1488838648
 20
90.5565713321
 30
0.0
 10
56.9784099948
 20
90.8815831116
 30
0.0
 10
56.7863402392
 20
91.1220640316
 30
0.0
 10
56.5777140212
 20
91.268029335
 30
0.0
 10
56.4279438638
 20
91.302086333
 30
0.0
 10
56.3602097083
 20
91.302086333
 30
0.0
  0
ENDSEC
  0
SECTION
  2
OBJECTS
  0
DICTIONARY
  5
C
100
AcDbDictionary
280
0
281
1
  3
ACAD_GROUP
350
D
  3
ACAD_MLINESTYLE
350
17
  3
ACAD_LAYOUT
350
1A
  3
ACAD_PLOTSETTINGS
350
19
  3
ACAD_PLOTSTYLENAME
350
E
  0
DICTIONARY
  5
D
102
{ACAD_REACTORS
330
C
102
}
100
AcDbDictionary
280
0
281
1
  0
ACDBDICTIONARYWDFLT
  5
E
102
{ACAD_REACTORS
330
C
102
}
100
AcDbDictionary
281
1
  3
Normal
350
F
100
AcDbDictionaryWithDefault
340
F
  0
DICTIONARY
  5
17
102
{ACAD_REACTORS
330
C
102
}
100
AcDbDictionary
280
0
281
1
  3
Standard
350
18
  0
DICTIONARY
  5
19
102
{ACAD_REACTORS
330
C
102
}
100
AcDbDictionary
281
1
  0
DICTIONARY
  5
1A
102
{ACAD_REACTORS
330
C
102
}
100
AcDbDictionary
281
1
  3
Model
350
277
  3
Layout1
350
278
  0
ACDBPLACEHOLDER
  5
F
102
{ACAD_REACTORS
330
E
102
}
  0
MLINESTYLE
  5
18
102
{ACAD_REACTORS
330
17
102
}
100
AcDbMlineStyle
  2
STANDARD
 70
0
  3

 62
256
 51
90.0
 52
90.0
 71
2
 49
0.5
 62
256
  6
BYLAYER
 49
-0.5
 62
256
  6
BYLAYER
  0
LAYOUT
  5
277
102
{ACAD_REACTORS
330
1A
102
}
100
AcDbPlotSettings
  1

  2
none_device
  4

  6

 40
0.0
 41
0.0
 42
0.0
 43
0.0
 44
210.0
 45
297.0
 46
0.0
 47
0.0
 48
0.0
 49
0.0
140
0.0
141
0.0
142
1.0
143
1.0
 70
1024
 72
1
 73
0
 74
0
  7

 75
0
147
1.0
148
0.0
149
0.0
100
AcDbLayout
  1
Model
 70
0
 71
0
 10
0.0
 20
0.0
 11
210.0
 21
297.0
 12
0.0
 22
0.0
 32
0.0
 14
0.0
 24
0.0
 34
0.0
 15
0.0
 25
0.0
 35
0.0
146
0.0
 13
0.0
 23
0.0
 33
0.0
 16
1.0
 26
0.0
 36
0.0
 17
0.0
 27
1.0
 37
0.0
 76
0
330
210
345
0
346
0
  0
LAYOUT
  5
278
102
{ACAD_REACTORS
330
1A
102
}
100
AcDbPlotSettings
  1

  2
none_device
  4

  6

 40
0.0
 41
0.0
 42
0.0
 43
0.0
 44
210.0
 45
297.0
 46
0.0
 47
0.0
 48
0.0
 49
0.0
140
0.0
141
0.0
142
1.0
143
1.0
 70
0
 72
1
 73
0
 74
0
  7

 75
0
147
1.0
148
0.0
149
0.0
100
AcDbLayout
  1
Layout1
 70
0
 71
1
 10
0.0
 20
0.0
 11
210.0
 21
297.0
 12
0.0
 22
0.0
 32
0.0
 14
0.0
 24
0.0
 34
0.0
 15
0.0
 25
0.0
 35
0.0
146
0.0
 13
0.0
 23
0.0
 33
0.0
 16
1.0
 26
0.0
 36
0.0
 17
0.0
 27
1.0
 37
0.0
 76
0
330
211
345
0
346
0
  0
ENDSEC
  0
EOF
