999
DXF file: C:\Users\sesa63760\Dev\_Creo\CAD\MCADID0004248_3D-CAD\drw0001_4.dxf
999
Pro/ENGINEER 2019471 by Parametric Technology Corporation
  0
SECTION
  2
HEADER
  9
$ACADVER
  1
AC1024
  9
$DWGCODEPAGE
  3
ANSI_1252
  9
$EXTMAX
 10
817.973680414
 20
1156.8484908713
 30
0.0
  9
$EXTMIN
 10
0.0
 20
0.0
 30
0.0
  9
$LIMMIN
 10
0.0
 20
0.0
  9
$LIMMAX
 10
817.973680414
 20
1156.8484908713
  9
$VIEWCTR
 10
408.986840207
 20
578.4242454356
  9
$VIEWSIZE
 40
1156.8484908713
  9
$CLAYER
  8
0
  9
$LTSCALE
 40
75.4093831086
  9
$CELTYPE
  6
BYLAYER
  9
$DIMSCALE
 40
1.0
  9
$DIMASZ
 40
9.7377819097
  9
$DIMEXO
 40
1.0
  9
$DIMDLI
 40
52.1010283296
  9
$DIMEXE
 40
1.0
  9
$DIMCEN
 40
12.339717236
  9
$DIMLFAC
 40
1.0
  9
$DIMBLK
  1
_FILLED
  9
$DIMALT
 70
0
  9
$DIMALTF
 40
0.0393700787
  9
$DIMTXT
 40
13.6328946736
  9
$DIMTOL
 70
1
  9
$DIMLIM
 70
0
  9
$DIMTFAC
 40
1.0
  9
$DIMTP
 40
0.01
  9
$DIMTM
 40
0.01
  9
$DIMGAP
 40
0.625
  9
$DIMDSEP
 70
46
  9
$AUNITS
 70
0
  9
$PDMODE
 70
3
  9
$PDSIZE
 40
0.3125
  9
$HANDSEED
  5
3F7
  9
$TILEMODE
 70
1
  9
$MEASUREMENT
 70
1
  9
$INSUNITS
 70
4
  0
ENDSEC
  0
SECTION
  2
CLASSES
  0
CLASS
  1
ACDBDICTIONARYWDFLT
  2
AcDbDictionaryWithDefault
  3
AutoCAD 2000
 90
0
 91
1
280
0
281
0
  0
CLASS
  1
ACDBPLACEHOLDER
  2
AcDbPlaceHolder
  3
AutoCAD 2000
 90
0
 91
1
280
0
281
0
  0
CLASS
  1
LAYOUT
  2
AcDbLayout
  3
AutoCAD 2000
 90
0
 91
0
280
0
281
0
  0
ENDSEC
  0
SECTION
  2
TABLES
  0
TABLE
  2
VPORT
  5
8
100
AcDbSymbolTable
 70
2
  0
VPORT
  5
1F4
100
AcDbSymbolTableRecord
100
AcDbViewportTableRecord
  2
*ACTIVE
 70
0
 10
0.0
 20
0.0
 11
1.0
 21
1.0
 12
408.986840207
 22
578.4242454356
 13
0.0
 23
0.0
 14
1.0
 24
1.0
 15
0.0
 25
0.0
 16
0.0
 26
0.0
 36
1.0
 17
0.0
 27
0.0
 37
0.0
 40
1156.8484908713
 41
0.7070707071
 42
50.0
 43
0.0
 44
0.0
 50
0.0
 51
0.0
 71
0
 72
100
 73
1
 74
1
 75
0
 76
0
 77
0
 78
0
  0
ENDTAB
  0
TABLE
  2
LTYPE
  5
5
100
AcDbSymbolTable
 70
6
  0
LTYPE
  5
14
100
AcDbSymbolTableRecord
100
AcDbLinetypeTableRecord
  2
BYBLOCK
 70
0
  3

 72
65
 73
0
 40
0.0
  0
LTYPE
  5
15
100
AcDbSymbolTableRecord
100
AcDbLinetypeTableRecord
  2
BYLAYER
 70
0
  3

 72
65
 73
0
 40
0.0
  0
LTYPE
  5
16
100
AcDbSymbolTableRecord
100
AcDbLinetypeTableRecord
  2
CONTINUOUS
 70
64
  3
Solid line
 72
65
 73
0
 40
0.0
  0
LTYPE
  5
1F5
100
AcDbSymbolTableRecord
100
AcDbLinetypeTableRecord
  2
CENTER
 70
64
  3
____ _ ____ _ ____ _ ____ _ ____ _ ____ _ ____
 72
65
 73
4
 40
0.6
 49
0.375
 74
0
 49
-0.075
 74
0
 49
0.075
 74
0
 49
-0.075
 74
0
  0
LTYPE
  5
1F6
100
AcDbSymbolTableRecord
100
AcDbLinetypeTableRecord
  2
HIDDEN
 70
64
  3
- - - - - - - - - - - - - - - - - - - -
 72
65
 73
2
 40
0.2
 49
0.1
 74
0
 49
-0.1
 74
0
  0
LTYPE
  5
1F7
100
AcDbSymbolTableRecord
100
AcDbLinetypeTableRecord
  2
PHANTOM
 70
64
  3
_____ _ _ _____ _ _ _____ _ _ _____
 72
65
 73
6
 40
0.8
 49
0.45
 74
0
 49
-0.05
 74
0
 49
0.1
 74
0
 49
-0.05
 74
0
 49
0.1
 74
0
 49
-0.05
 74
0
  0
LTYPE
  5
1F8
100
AcDbSymbolTableRecord
100
AcDbLinetypeTableRecord
  2
DOT
 70
64
  3
. . . . . . . . . . . . . . . . . . . .
 72
65
 73
2
 40
0.2
 49
0.1
 74
0
 49
-0.1
 74
0
  0
LTYPE
  5
1F9
100
AcDbSymbolTableRecord
100
AcDbLinetypeTableRecord
  2
DASHED
 70
64
  3
- - - - - - - - - - - - - - - - - - - -
 72
65
 73
2
 40
0.2
 49
0.1
 74
0
 49
-0.1
 74
0
  0
ENDTAB
  0
TABLE
  2
LAYER
  5
2
100
AcDbSymbolTable
 70
36
  0
LAYER
  5
10
100
AcDbSymbolTableRecord
100
AcDbLayerTableRecord
  2
0
 70
0
 62
7
  6
CONTINUOUS
370
-3
390
F
  0
LAYER
  5
1FA
100
AcDbSymbolTableRecord
100
AcDbLayerTableRecord
  2
DEFAULT_1
 70
0
 62
7
  6
CENTER
370
-3
390
F
  0
LAYER
  5
1FB
100
AcDbSymbolTableRecord
100
AcDbLayerTableRecord
  2
DEFAULT_2
 70
0
 62
7
  6
HIDDEN
370
-3
390
F
  0
LAYER
  5
1FC
100
AcDbSymbolTableRecord
100
AcDbLayerTableRecord
  2
DEFAULT_3
 70
0
 62
7
  6
PHANTOM
370
-3
390
F
  0
LAYER
  5
1FD
100
AcDbSymbolTableRecord
100
AcDbLayerTableRecord
  2
00_COMPONENTS
 70
0
 62
7
  6
CONTINUOUS
370
-3
390
F
  0
LAYER
  5
1FE
100
AcDbSymbolTableRecord
100
AcDbLayerTableRecord
  2
01_1_DEFAULT_DATUMS
 70
0
 62
7
  6
CONTINUOUS
370
-3
390
F
  0
LAYER
  5
1FF
100
AcDbSymbolTableRecord
100
AcDbLayerTableRecord
  2
01_PLANES
 70
0
 62
7
  6
CONTINUOUS
370
-3
390
F
  0
LAYER
  5
200
100
AcDbSymbolTableRecord
100
AcDbLayerTableRecord
  2
02_COORD_SYS
 70
0
 62
7
  6
CONTINUOUS
370
-3
390
F
  0
LAYER
  5
201
100
AcDbSymbolTableRecord
100
AcDbLayerTableRecord
  2
03_AXES
 70
0
 62
7
  6
CONTINUOUS
370
-3
390
F
  0
LAYER
  5
202
100
AcDbSymbolTableRecord
100
AcDbLayerTableRecord
  2
04_POINTS
 70
0
 62
7
  6
CONTINUOUS
370
-3
390
F
  0
LAYER
  5
203
100
AcDbSymbolTableRecord
100
AcDbLayerTableRecord
  2
05_CURVES
 70
0
 62
7
  6
CONTINUOUS
370
-3
390
F
  0
LAYER
  5
204
100
AcDbSymbolTableRecord
100
AcDbLayerTableRecord
  2
06_SURFS
 70
0
 62
7
  6
CONTINUOUS
370
-3
390
F
  0
LAYER
  5
205
100
AcDbSymbolTableRecord
100
AcDbLayerTableRecord
  2
07_COSMETICS
 70
0
 62
7
  6
CONTINUOUS
370
-3
390
F
  0
LAYER
  5
206
100
AcDbSymbolTableRecord
100
AcDbLayerTableRecord
  2
10_NOTES
 70
0
 62
7
  6
CONTINUOUS
370
-3
390
F
  0
LAYER
  5
207
100
AcDbSymbolTableRecord
100
AcDbLayerTableRecord
  2
11_NOTES_PUB
 70
0
 62
7
  6
CONTINUOUS
370
-3
390
F
  0
LAYER
  5
208
100
AcDbSymbolTableRecord
100
AcDbLayerTableRecord
  2
13_REF_GTOL
 70
0
 62
7
  6
CONTINUOUS
370
-3
390
F
  0
LAYER
  5
209
100
AcDbSymbolTableRecord
100
AcDbLayerTableRecord
  2
16_MISC
 70
0
 62
7
  6
CONTINUOUS
370
-3
390
F
  0
LAYER
  5
20A
100
AcDbSymbolTableRecord
100
AcDbLayerTableRecord
  2
17_NO_PRINT
 70
0
 62
7
  6
CONTINUOUS
370
-3
390
F
  0
LAYER
  5
20B
100
AcDbSymbolTableRecord
100
AcDbLayerTableRecord
  2
18_DATUM_CAMS_JOINTS
 70
0
 62
7
  6
CONTINUOUS
370
-3
390
F
  0
LAYER
  5
20C
100
AcDbSymbolTableRecord
100
AcDbLayerTableRecord
  2
19_DATUM_FUNCTIONAL
 70
0
 62
7
  6
CONTINUOUS
370
-3
390
F
  0
LAYER
  5
20D
100
AcDbSymbolTableRecord
100
AcDbLayerTableRecord
  2
20_DATUM_KINEMATIC_SCHEME
 70
0
 62
7
  6
CONTINUOUS
370
-3
390
F
  0
LAYER
  5
20E
100
AcDbSymbolTableRecord
100
AcDbLayerTableRecord
  2
3
 70
0
 62
7
  6
CONTINUOUS
370
-3
390
F
  0
LAYER
  5
20F
100
AcDbSymbolTableRecord
100
AcDbLayerTableRecord
  2
4
 70
0
 62
7
  6
CONTINUOUS
370
-3
390
F
  0
ENDTAB
  0
TABLE
  2
STYLE
  5
3
100
AcDbSymbolTable
 70
1
  0
STYLE
  5
11
100
AcDbSymbolTableRecord
100
AcDbTextStyleTableRecord
  2
STANDARD
 70
0
 40
0.0
 41
1.0
 50
0.0
 71
0
 42
0.2
  3
ARIAL.TTF
  4

  0
STYLE
  5
210
100
AcDbSymbolTableRecord
100
AcDbTextStyleTableRecord
  2
TEXTSTYLE_1
 70
0
 40
0.0
 41
0.8
 50
0.0
 71
0
 42
0.2
  3
gdt
  4

  0
ENDTAB
  0
TABLE
  2
VIEW
  5
6
100
AcDbSymbolTable
 70
0
  0
ENDTAB
  0
TABLE
  2
UCS
  5
7
100
AcDbSymbolTable
 70
0
  0
ENDTAB
  0
TABLE
  2
APPID
  5
9
100
AcDbSymbolTable
 70
1
  0
APPID
  5
211
100
AcDbSymbolTableRecord
100
AcDbRegAppTableRecord
  2
ACAD
 70
0
  0
ENDTAB
  0
TABLE
  2
BLOCK_RECORD
  5
1
100
AcDbSymbolTable
 70
0
  0
BLOCK_RECORD
  5
212
100
AcDbSymbolTableRecord
100
AcDbBlockTableRecord
  2
*Model_Space
  0
BLOCK_RECORD
  5
213
100
AcDbSymbolTableRecord
100
AcDbBlockTableRecord
  2
*Paper_Space
  0
BLOCK_RECORD
  5
214
100
AcDbSymbolTableRecord
100
AcDbBlockTableRecord
  2
_FILLED
  0
ENDTAB
  0
TABLE
  2
DIMSTYLE
  5
A
100
AcDbSymbolTable
 70
1
100
AcDbDimStyleTable
 71
0
  0
DIMSTYLE
105
215
100
AcDbSymbolTableRecord
100
AcDbDimStyleTableRecord
  2
STANDARD
 70
0
  3

  4

 40
1.0
 41
9.7377819097
 42
1.0
 43
0.38
 44
1.0
 45
0.0
 46
0.0
 47
0.01
 48
0.01
140
13.6328946736
141
0.09
142
0.0
143
25.4
144
1.0
145
0.0
146
1.0
147
0.625
 71
1
 72
0
 73
0
 74
0
 75
0
 76
0
 77
1
 78
8
 79
2
170
0
171
1
172
0
173
0
174
0
175
0
176
0
177
0
178
0
270
2
179
2
271
2
272
2
273
2
274
2
275
0
280
0
281
0
282
0
283
1
284
8
285
0
286
0
287
3
288
0
340
11
278
46
341
214
342
214
343
214
344
214
  0
ENDTAB
  0
ENDSEC
  0
SECTION
  2
BLOCKS
  0
BLOCK
  5
20
100
AcDbEntity
  8
0
100
AcDbBlockBegin
  2
*Model_Space
 70
0
 10
0.0
 20
0.0
 30
0.0
  3
*Model_Space
  1

  0
ENDBLK
  5
21
100
AcDbEntity
  8
0
100
AcDbBlockEnd
  0
BLOCK
  5
1C
100
AcDbEntity
  8
0
100
AcDbBlockBegin
  2
*Paper_Space
 70
0
 10
0.0
 20
0.0
 30
0.0
  3
*Paper_Space
  1

  0
ENDBLK
  5
1D
100
AcDbEntity
  8
0
100
AcDbBlockEnd
  0
BLOCK
  5
216
100
AcDbEntity
  8
0
100
AcDbBlockBegin
  2
_FILLED
 70
64
 10
0.0
 20
0.0
  3
_FILLED
  1

  0
SOLID
  5
217
100
AcDbEntity
  8
0
  6
BYBLOCK
 62
0
100
AcDbTrace
 10
0.0
 20
0.0
 11
-1.0
 21
0.25
 12
-1.0
 22
-0.25
 13
-1.0
 23
-0.25
  0
ENDBLK
  5
218
100
AcDbEntity
  8
0
  6
BYBLOCK
 62
0
100
AcDbBlockEnd
  0
ENDSEC
  0
SECTION
  2
ENTITIES
  0
LINE
  5
219
100
AcDbEntity
  8
0
100
AcDbLine
 62
7
  6
BYLAYER
 10
512.1369531098
 20
82.8343166658
 11
506.5365797425
 21
82.8343166658
  0
LINE
  5
21A
100
AcDbEntity
  8
0
100
AcDbLine
 62
7
  6
BYLAYER
 10
470.1364780727
 20
82.8343166658
 11
464.5370547855
 21
82.8343166658
  0
LINE
  5
21B
100
AcDbEntity
  8
0
100
AcDbLine
 62
7
  6
BYLAYER
 10
364.4878222213
 20
82.8343166658
 11
358.887448854
 21
82.8343166658
  0
LINE
  5
21C
100
AcDbEntity
  8
0
100
AcDbLine
 62
7
  6
BYLAYER
 10
322.4873471842
 20
82.8343166658
 11
316.887923897
 21
82.8343166658
  0
LINE
  5
21D
100
AcDbEntity
  8
0
100
AcDbLine
 62
7
  6
BYLAYER
 10
317.1761713269
 20
82.9342065273
 11
364.1987246139
 21
82.9342065273
  0
LINE
  5
21E
100
AcDbEntity
  8
0
100
AcDbLine
 62
7
  6
BYLAYER
 10
464.8253022154
 20
82.9342065273
 11
511.8478555024
 21
82.9342065273
  0
LINE
  5
21F
100
AcDbEntity
  8
0
100
AcDbLine
 62
7
  6
BYLAYER
 10
513.1370545358
 20
83.8343166658
 11
512.8155280919
 21
83.8343166658
  0
LINE
  5
220
100
AcDbEntity
  8
0
100
AcDbLine
 62
7
  6
BYLAYER
 10
463.8576311295
 20
83.8343166658
 11
463.5370545388
 21
83.8343166658
  0
LINE
  5
221
100
AcDbEntity
  8
0
100
AcDbLine
 62
7
  6
BYLAYER
 10
365.4879236473
 20
83.8343166658
 11
365.1663972034
 21
83.8343166658
  0
LINE
  5
222
100
AcDbEntity
  8
0
100
AcDbLine
 62
7
  6
BYLAYER
 10
316.208500241
 20
83.8343166658
 11
315.8879236503
 21
83.8343166658
  0
LINE
  5
223
100
AcDbEntity
  8
0
100
AcDbLine
 62
7
  6
BYLAYER
 10
513.3365794959
 20
83.9342065273
 11
513.1370545358
 21
83.9342065273
  0
LINE
  5
224
100
AcDbEntity
  8
0
100
AcDbLine
 62
7
  6
BYLAYER
 10
463.5370545388
 20
83.9342065273
 11
463.3365794959
 21
83.9342065273
  0
LINE
  5
225
100
AcDbEntity
  8
0
100
AcDbLine
 62
7
  6
BYLAYER
 10
512.8479845196
 20
83.9342065273
 11
463.8251744721
 21
83.9342065273
  0
LINE
  5
226
100
AcDbEntity
  8
0
100
AcDbLine
 62
7
  6
BYLAYER
 10
365.6874486073
 20
83.9342065273
 11
365.4879236473
 21
83.9342065273
  0
LINE
  5
227
100
AcDbEntity
  8
0
100
AcDbLine
 62
7
  6
BYLAYER
 10
365.1988536311
 20
83.9342065273
 11
316.1760435836
 21
83.9342065273
  0
LINE
  5
228
100
AcDbEntity
  8
0
100
AcDbLine
 62
7
  6
BYLAYER
 10
315.8879236503
 20
83.9342065273
 11
315.6874486073
 21
83.9342065273
  0
LINE
  5
229
100
AcDbEntity
  8
0
100
AcDbLine
 62
7
  6
BYLAYER
 10
315.6874486073
 20
84.9342064584
 11
315.8879236503
 21
84.9342064584
  0
LINE
  5
22A
100
AcDbEntity
  8
0
100
AcDbLine
 62
7
  6
BYLAYER
 10
365.4879236473
 20
84.9342064702
 11
365.6874486073
 21
84.9342064702
  0
LINE
  5
22B
100
AcDbEntity
  8
0
100
AcDbLine
 62
7
  6
BYLAYER
 10
463.3365794959
 20
84.9342064584
 11
463.5370545388
 21
84.9342064584
  0
LINE
  5
22C
100
AcDbEntity
  8
0
100
AcDbLine
 62
7
  6
BYLAYER
 10
513.1370545358
 20
84.9342064702
 11
513.3365794959
 21
84.9342064702
  0
LINE
  5
22D
100
AcDbEntity
  8
0
100
AcDbLine
 62
7
  6
BYLAYER
 10
315.8879236503
 20
85.4343166658
 11
316.1760435836
 21
85.4343166658
  0
LINE
  5
22E
100
AcDbEntity
  8
0
100
AcDbLine
 62
7
  6
BYLAYER
 10
365.1988536311
 20
85.4343166658
 11
365.4879236473
 21
85.4343166658
  0
LINE
  5
22F
100
AcDbEntity
  8
0
100
AcDbLine
 62
7
  6
BYLAYER
 10
463.5370545388
 20
85.4343166658
 11
463.8251744721
 21
85.4343166658
  0
LINE
  5
230
100
AcDbEntity
  8
0
100
AcDbLine
 62
7
  6
BYLAYER
 10
512.8479845196
 20
85.4343166658
 11
513.1370545358
 21
85.4343166658
  0
LINE
  5
231
100
AcDbEntity
  8
0
100
AcDbLine
 62
7
  6
BYLAYER
 10
513.3365794959
 20
85.9342065273
 11
512.790270441
 21
85.9342065273
  0
LINE
  5
232
100
AcDbEntity
  8
0
100
AcDbLine
 62
7
  6
BYLAYER
 10
463.8828885507
 20
85.9342065273
 11
463.3365794959
 21
85.9342065273
  0
LINE
  5
233
100
AcDbEntity
  8
0
100
AcDbLine
 62
7
  6
BYLAYER
 10
365.6874486073
 20
85.9342065273
 11
365.1411395525
 21
85.9342065273
  0
LINE
  5
234
100
AcDbEntity
  8
0
100
AcDbLine
 62
7
  6
BYLAYER
 10
316.2337576621
 20
85.9342065273
 11
315.6874486073
 21
85.9342065273
  0
LINE
  5
235
100
AcDbEntity
  8
0
100
AcDbLine
 62
7
  6
BYLAYER
 10
315.6874486073
 20
100.4342065273
 11
365.6874486073
 21
100.4342065273
  0
LINE
  5
236
100
AcDbEntity
  8
0
100
AcDbLine
 62
7
  6
BYLAYER
 10
463.3365794959
 20
100.4342065273
 11
513.3365794959
 21
100.4342065273
  0
LINE
  5
237
100
AcDbEntity
  8
3
100
AcDbLine
 62
7
  6
BYLAYER
 10
315.6879236504
 20
100.4343294743
 11
321.6889042294
 21
100.4343294743
  0
LINE
  5
238
100
AcDbEntity
  8
3
100
AcDbLine
 62
7
  6
BYLAYER
 10
321.8872845017
 20
100.4343459334
 11
359.4872845017
 21
100.4343459334
  0
LINE
  5
239
100
AcDbEntity
  8
3
100
AcDbLine
 62
7
  6
BYLAYER
 10
359.6869430713
 20
100.4343294743
 11
365.6879236504
 21
100.4343294743
  0
LINE
  5
23A
100
AcDbEntity
  8
4
100
AcDbLine
 62
7
  6
BYLAYER
 10
463.3370545389
 20
100.4343294743
 11
469.3380351179
 21
100.4343294743
  0
LINE
  5
23B
100
AcDbEntity
  8
4
100
AcDbLine
 62
7
  6
BYLAYER
 10
469.5364153902
 20
100.4343459334
 11
507.1364153902
 21
100.4343459334
  0
LINE
  5
23C
100
AcDbEntity
  8
4
100
AcDbLine
 62
7
  6
BYLAYER
 10
507.3360739598
 20
100.4343294743
 11
513.3370545389
 21
100.4343294743
  0
LINE
  5
23D
100
AcDbEntity
  8
4
100
AcDbLine
 62
7
  6
BYLAYER
 10
523.5258002224
 20
127.782491789
 11
513.3370545389
 21
127.782491789
  0
LINE
  5
23E
100
AcDbEntity
  8
3
100
AcDbLine
 62
7
  6
BYLAYER
 10
375.8766693338
 20
127.782491789
 11
365.6879236504
 21
127.782491789
  0
LINE
  5
23F
100
AcDbEntity
  8
0
100
AcDbLine
 62
7
  6
BYLAYER
 10
324.4381764184
 20
1062.9343166658
 11
323.9381764184
 21
1062.4343166658
  0
LINE
  5
240
100
AcDbEntity
  8
0
100
AcDbLine
 62
7
  6
BYLAYER
 10
344.1881744397
 20
1066.9343166658
 11
343.6881764184
 21
1066.4343188243
  0
LINE
  5
241
100
AcDbEntity
  8
0
100
AcDbLine
 62
7
  6
BYLAYER
 10
342.4381764184
 20
1062.9343166658
 11
341.9381764184
 21
1062.4343166658
  0
LINE
  5
242
100
AcDbEntity
  8
0
100
AcDbLine
 62
7
  6
BYLAYER
 10
342.4381764184
 20
1057.9343166658
 11
341.9381764184
 21
1057.4343166658
  0
LINE
  5
243
100
AcDbEntity
  8
0
100
AcDbLine
 62
7
  6
BYLAYER
 10
357.2381764184
 20
1056.4343166658
 11
357.4381764184
 21
1056.6343166658
  0
LINE
  5
244
100
AcDbEntity
  8
3
100
AcDbLine
 62
7
  6
BYLAYER
 10
365.6879236504
 20
177.782491789
 11
375.8766693338
 21
177.782491789
  0
LINE
  5
245
100
AcDbEntity
  8
4
100
AcDbLine
 62
7
  6
BYLAYER
 10
513.3370545389
 20
177.782491789
 11
523.5258002224
 21
177.782491789
  0
LINE
  5
246
100
AcDbEntity
  8
0
100
AcDbLine
 62
7
  6
BYLAYER
 10
472.0873073069
 20
1062.9343166658
 11
471.5873073069
 21
1062.4343166658
  0
LINE
  5
247
100
AcDbEntity
  8
0
100
AcDbLine
 62
7
  6
BYLAYER
 10
491.8373053282
 20
1066.9343166658
 11
491.3373073069
 21
1066.4343188243
  0
LINE
  5
248
100
AcDbEntity
  8
0
100
AcDbLine
 62
7
  6
BYLAYER
 10
490.0873073069
 20
1062.9343166658
 11
489.5873073069
 21
1062.4343166658
  0
LINE
  5
249
100
AcDbEntity
  8
0
100
AcDbLine
 62
7
  6
BYLAYER
 10
490.0873073069
 20
1057.9343166658
 11
489.5873073069
 21
1057.4343166658
  0
LINE
  5
24A
100
AcDbEntity
  8
0
100
AcDbLine
 62
7
  6
BYLAYER
 10
504.8873073069
 20
1056.4343166658
 11
505.0873073069
 21
1056.6343166658
  0
LINE
  5
24B
100
AcDbEntity
  8
0
100
AcDbLine
 62
7
  6
BYLAYER
 10
315.6874486073
 20
83.9342065273
 11
315.6874486073
 21
100.4342065273
  0
LINE
  5
24C
100
AcDbEntity
  8
3
100
AcDbLine
 62
7
  6
BYLAYER
 10
315.6879236504
 20
1038.9343294743
 11
315.6879236504
 21
100.4343294743
  0
LINE
  5
24D
100
AcDbEntity
  8
0
100
AcDbLine
 62
7
  6
BYLAYER
 10
315.6881764184
 20
1055.4343166658
 11
315.6881764184
 21
1038.9343166658
  0
LINE
  5
24E
100
AcDbEntity
  8
0
100
AcDbLine
 62
7
  6
BYLAYER
 10
315.8879236503
 20
85.4343166658
 11
315.8879236503
 21
83.8343166658
  0
LINE
  5
24F
100
AcDbEntity
  8
0
100
AcDbLine
 62
7
  6
BYLAYER
 10
315.8881764184
 20
1055.5343166658
 11
315.8881764184
 21
1053.9343166658
  0
LINE
  5
250
100
AcDbEntity
  8
0
100
AcDbLine
 62
7
  6
BYLAYER
 10
316.0722091309
 20
85.9342065273
 11
316.0722091309
 21
100.4342065273
  0
LINE
  5
251
100
AcDbEntity
  8
3
100
AcDbLine
 62
7
  6
BYLAYER
 10
316.072684174
 20
100.4343294743
 11
316.072684174
 21
1038.9343294743
  0
LINE
  5
252
100
AcDbEntity
  8
0
100
AcDbLine
 62
7
  6
BYLAYER
 10
316.072936942
 20
1038.9343166658
 11
316.072936942
 21
1053.4343166658
  0
LINE
  5
253
100
AcDbEntity
  8
0
100
AcDbLine
 62
7
  6
BYLAYER
 10
316.1760435836
 20
85.5495175109
 11
316.1760435836
 21
83.9342065273
  0
LINE
  5
254
100
AcDbEntity
  8
0
100
AcDbLine
 62
7
  6
BYLAYER
 10
316.1767713946
 20
1055.4343166658
 11
316.1767713946
 21
1053.8190056652
  0
LINE
  5
255
100
AcDbEntity
  8
0
100
AcDbLine
 62
7
  6
BYLAYER
 10
316.2337576621
 20
83.9342065273
 11
316.2337576621
 21
85.9342065273
  0
LINE
  5
256
100
AcDbEntity
  8
0
100
AcDbLine
 62
7
  6
BYLAYER
 10
316.2344854732
 20
1053.4343166658
 11
316.2344854732
 21
1055.4343166658
  0
LINE
  5
257
100
AcDbEntity
  8
0
100
AcDbLine
 62
7
  6
BYLAYER
 10
317.2730035376
 20
100.4342065273
 11
317.2730035376
 21
83.9342065273
  0
LINE
  5
258
100
AcDbEntity
  8
3
100
AcDbLine
 62
7
  6
BYLAYER
 10
317.2734785806
 20
1038.9343294743
 11
317.2734785806
 21
100.4343294743
  0
LINE
  5
259
100
AcDbEntity
  8
0
100
AcDbLine
 62
7
  6
BYLAYER
 10
317.2737313486
 20
1055.4343166658
 11
317.2737313486
 21
1038.9343166658
  0
LINE
  5
25A
100
AcDbEntity
  8
0
100
AcDbLine
 62
7
  6
BYLAYER
 10
319.1960514328
 20
82.9342065273
 11
319.1960514328
 21
100.4342065273
  0
LINE
  5
25B
100
AcDbEntity
  8
3
100
AcDbLine
 62
7
  6
BYLAYER
 10
319.1965264759
 20
100.4343294743
 11
319.1965264759
 21
1038.9343294743
  0
LINE
  5
25C
100
AcDbEntity
  8
0
100
AcDbLine
 62
7
  6
BYLAYER
 10
319.1967792439
 20
1038.9343166658
 11
319.1967792439
 21
1056.4343166658
  0
LINE
  5
25D
100
AcDbEntity
  8
0
100
AcDbLine
 62
7
  6
BYLAYER
 10
319.4513806298
 20
100.4342065273
 11
319.4513806298
 21
82.9342065273
  0
LINE
  5
25E
100
AcDbEntity
  8
0
100
AcDbLine
 62
7
  6
BYLAYER
 10
319.4521084409
 20
1056.4343166658
 11
319.4521084409
 21
1038.9343166658
  0
LINE
  5
25F
100
AcDbEntity
  8
3
100
AcDbLine
 62
7
  6
BYLAYER
 10
319.4528362519
 20
1038.9343294743
 11
319.4528362519
 21
100.4343294743
  0
LINE
  5
260
100
AcDbEntity
  8
0
100
AcDbLine
 62
7
  6
BYLAYER
 10
321.2402350118
 20
83.9342065273
 11
321.2402350118
 21
100.4342065273
  0
LINE
  5
261
100
AcDbEntity
  8
0
100
AcDbLine
 62
7
  6
BYLAYER
 10
321.2409628229
 20
1038.9343166658
 11
321.2409628229
 21
1055.4343166658
  0
LINE
  5
262
100
AcDbEntity
  8
3
100
AcDbLine
 62
7
  6
BYLAYER
 10
321.2416906339
 20
100.4343294743
 11
321.2416906339
 21
1038.9343294743
  0
LINE
  5
263
100
AcDbEntity
  8
0
100
AcDbLine
 62
7
  6
BYLAYER
 10
321.6346622028
 20
100.4342065273
 11
321.6346622028
 21
83.9342065273
  0
LINE
  5
264
100
AcDbEntity
  8
0
100
AcDbLine
 62
7
  6
BYLAYER
 10
321.6353900139
 20
1055.4343166658
 11
321.6353900139
 21
1038.9343166658
  0
LINE
  5
265
100
AcDbEntity
  8
3
100
AcDbLine
 62
7
  6
BYLAYER
 10
321.6361178249
 20
1038.9343294743
 11
321.6361178249
 21
100.4343294743
  0
LINE
  5
266
100
AcDbEntity
  8
0
100
AcDbLine
 62
7
  6
BYLAYER
 10
321.6874486073
 20
83.9342065273
 11
321.6874486073
 21
100.4342065273
  0
LINE
  5
267
100
AcDbEntity
  8
0
100
AcDbLine
 62
7
  6
BYLAYER
 10
321.6881764184
 20
1038.9343166658
 11
321.6881764184
 21
1055.4343166658
  0
LINE
  5
268
100
AcDbEntity
  8
3
100
AcDbLine
 62
7
  6
BYLAYER
 10
321.6889042294
 20
100.4343294743
 11
321.6889042294
 21
1038.9343294743
  0
LINE
  5
269
100
AcDbEntity
  8
3
100
AcDbLine
 62
7
  6
BYLAYER
 10
321.8872845017
 20
100.4343459334
 11
321.8872845017
 21
1038.9343459334
  0
LINE
  5
26A
100
AcDbEntity
  8
0
100
AcDbLine
 62
7
  6
BYLAYER
 10
323.9381764184
 20
1056.4343166658
 11
323.9381764184
 21
1062.4343166658
  0
LINE
  5
26B
100
AcDbEntity
  8
0
100
AcDbLine
 62
7
  6
BYLAYER
 10
327.5614164184
 20
1064.1343166658
 11
327.5614164184
 21
1062.9343166658
  0
LINE
  5
26C
100
AcDbEntity
  8
0
100
AcDbLine
 62
7
  6
BYLAYER
 10
330.9864164184
 20
1062.9343166658
 11
330.9864164184
 21
1064.4343166658
  0
LINE
  5
26D
100
AcDbEntity
  8
0
100
AcDbLine
 62
7
  6
BYLAYER
 10
332.3864164184
 20
1062.9343166658
 11
332.3864164184
 21
1064.4343166658
  0
LINE
  5
26E
100
AcDbEntity
  8
0
100
AcDbLine
 62
7
  6
BYLAYER
 10
335.8114164184
 20
1062.9343166658
 11
335.8114164184
 21
1064.1343166658
  0
LINE
  5
26F
100
AcDbEntity
  8
0
100
AcDbLine
 62
7
  6
BYLAYER
 10
339.4381764184
 20
1056.4343166658
 11
339.4381764184
 21
1062.4343166658
  0
LINE
  5
270
100
AcDbEntity
  8
0
100
AcDbLine
 62
7
  6
BYLAYER
 10
341.9381764184
 20
1056.4343166658
 11
341.9381764184
 21
1062.4343166658
  0
LINE
  5
271
100
AcDbEntity
  8
0
100
AcDbLine
 62
7
  6
BYLAYER
 10
343.6881764184
 20
1066.4343157284
 11
343.6881764184
 21
1058.9343166658
  0
LINE
  5
272
100
AcDbEntity
  8
0
100
AcDbLine
 62
7
  6
BYLAYER
 10
344.1881764184
 20
1057.9343166658
 11
344.1881764184
 21
1058.9343166658
  0
LINE
  5
273
100
AcDbEntity
  8
0
100
AcDbLine
 62
7
  6
BYLAYER
 10
355.1881764184
 20
1057.9343166658
 11
355.1881764184
 21
1058.9343166658
  0
LINE
  5
274
100
AcDbEntity
  8
0
100
AcDbLine
 62
7
  6
BYLAYER
 10
355.6881764184
 20
1058.9343166658
 11
355.6881764184
 21
1066.4343157284
  0
LINE
  5
275
100
AcDbEntity
  8
0
100
AcDbLine
 62
7
  6
BYLAYER
 10
357.4381764184
 20
1056.4343166658
 11
357.4381764184
 21
1062.4343166658
  0
LINE
  5
276
100
AcDbEntity
  8
3
100
AcDbLine
 62
7
  6
BYLAYER
 10
359.4872845017
 20
1038.9343459334
 11
359.4872845017
 21
100.4343459334
  0
LINE
  5
277
100
AcDbEntity
  8
3
100
AcDbLine
 62
7
  6
BYLAYER
 10
359.6869430713
 20
1038.9343294743
 11
359.6869430713
 21
100.4343294743
  0
LINE
  5
278
100
AcDbEntity
  8
0
100
AcDbLine
 62
7
  6
BYLAYER
 10
359.6874486073
 20
100.4342065273
 11
359.6874486073
 21
83.9342065273
  0
LINE
  5
279
100
AcDbEntity
  8
0
100
AcDbLine
 62
7
  6
BYLAYER
 10
359.6881764184
 20
1055.4343166658
 11
359.6881764184
 21
1038.9343166658
  0
LINE
  5
27A
100
AcDbEntity
  8
3
100
AcDbLine
 62
7
  6
BYLAYER
 10
359.7397294758
 20
100.4343294743
 11
359.7397294758
 21
1038.9343294743
  0
LINE
  5
27B
100
AcDbEntity
  8
0
100
AcDbLine
 62
7
  6
BYLAYER
 10
359.7402350118
 20
83.9342065273
 11
359.7402350118
 21
100.4342065273
  0
LINE
  5
27C
100
AcDbEntity
  8
0
100
AcDbLine
 62
7
  6
BYLAYER
 10
359.7409628229
 20
1038.9343166658
 11
359.7409628229
 21
1055.4343166658
  0
LINE
  5
27D
100
AcDbEntity
  8
3
100
AcDbLine
 62
7
  6
BYLAYER
 10
360.1341566668
 20
1038.9343294743
 11
360.1341566668
 21
100.4343294743
  0
LINE
  5
27E
100
AcDbEntity
  8
0
100
AcDbLine
 62
7
  6
BYLAYER
 10
360.1346622028
 20
100.4342065273
 11
360.1346622028
 21
83.9342065273
  0
LINE
  5
27F
100
AcDbEntity
  8
0
100
AcDbLine
 62
7
  6
BYLAYER
 10
360.1353900139
 20
1055.4343166658
 11
360.1353900139
 21
1038.9343166658
  0
LINE
  5
280
100
AcDbEntity
  8
3
100
AcDbLine
 62
7
  6
BYLAYER
 10
361.9230110488
 20
100.4343294743
 11
361.9230110488
 21
1038.9343294743
  0
LINE
  5
281
100
AcDbEntity
  8
0
100
AcDbLine
 62
7
  6
BYLAYER
 10
361.9235165848
 20
82.9342065273
 11
361.9235165848
 21
100.4342065273
  0
LINE
  5
282
100
AcDbEntity
  8
0
100
AcDbLine
 62
7
  6
BYLAYER
 10
361.9242443959
 20
1038.9343166658
 11
361.9242443959
 21
1056.4343166658
  0
LINE
  5
283
100
AcDbEntity
  8
0
100
AcDbLine
 62
7
  6
BYLAYER
 10
362.1788457818
 20
100.4342065273
 11
362.1788457818
 21
82.9342065273
  0
LINE
  5
284
100
AcDbEntity
  8
3
100
AcDbLine
 62
7
  6
BYLAYER
 10
362.1793208248
 20
1038.9343294743
 11
362.1793208248
 21
100.4343294743
  0
LINE
  5
285
100
AcDbEntity
  8
0
100
AcDbLine
 62
7
  6
BYLAYER
 10
362.1795735929
 20
1056.4343166658
 11
362.1795735929
 21
1038.9343166658
  0
LINE
  5
286
100
AcDbEntity
  8
0
100
AcDbLine
 62
7
  6
BYLAYER
 10
364.1018936771
 20
83.9342065273
 11
364.1018936771
 21
100.4342065273
  0
LINE
  5
287
100
AcDbEntity
  8
3
100
AcDbLine
 62
7
  6
BYLAYER
 10
364.1023687201
 20
100.4343294743
 11
364.1023687201
 21
1038.9343294743
  0
LINE
  5
288
100
AcDbEntity
  8
0
100
AcDbLine
 62
7
  6
BYLAYER
 10
364.1026214881
 20
1038.9343166658
 11
364.1026214881
 21
1055.4343166658
  0
LINE
  5
289
100
AcDbEntity
  8
0
100
AcDbLine
 62
7
  6
BYLAYER
 10
365.1411395525
 20
85.9342065273
 11
365.1411395525
 21
83.9342065273
  0
LINE
  5
28A
100
AcDbEntity
  8
0
100
AcDbLine
 62
7
  6
BYLAYER
 10
365.1418673635
 20
1055.4343166658
 11
365.1418673635
 21
1053.4343166658
  0
LINE
  5
28B
100
AcDbEntity
  8
0
100
AcDbLine
 62
7
  6
BYLAYER
 10
365.1988536311
 20
83.9342065273
 11
365.1988536311
 21
85.5495175279
  0
LINE
  5
28C
100
AcDbEntity
  8
0
100
AcDbLine
 62
7
  6
BYLAYER
 10
365.1995814421
 20
1053.8190056822
 11
365.1995814421
 21
1055.4343166658
  0
LINE
  5
28D
100
AcDbEntity
  8
0
100
AcDbLine
 62
7
  6
BYLAYER
 10
365.3026880837
 20
100.4342065273
 11
365.3026880837
 21
85.9342065273
  0
LINE
  5
28E
100
AcDbEntity
  8
3
100
AcDbLine
 62
7
  6
BYLAYER
 10
365.3031631268
 20
1038.9343294743
 11
365.3031631268
 21
100.4343294743
  0
LINE
  5
28F
100
AcDbEntity
  8
0
100
AcDbLine
 62
7
  6
BYLAYER
 10
365.3034158948
 20
1053.4343166658
 11
365.3034158948
 21
1038.9343166658
  0
LINE
  5
290
100
AcDbEntity
  8
0
100
AcDbLine
 62
7
  6
BYLAYER
 10
365.4879236473
 20
83.8343166658
 11
365.4879236473
 21
85.4343166658
  0
LINE
  5
291
100
AcDbEntity
  8
0
100
AcDbLine
 62
7
  6
BYLAYER
 10
365.4881764184
 20
1053.9343166658
 11
365.4881764184
 21
1055.5343166658
  0
LINE
  5
292
100
AcDbEntity
  8
0
100
AcDbLine
 62
7
  6
BYLAYER
 10
365.6874486073
 20
83.9342065273
 11
365.6874486073
 21
85.9204777593
  0
LINE
  5
293
100
AcDbEntity
  8
0
100
AcDbLine
 62
7
  6
BYLAYER
 10
365.6874486073
 20
85.9342065273
 11
365.6874486073
 21
100.4342065273
  0
LINE
  5
294
100
AcDbEntity
  8
3
100
AcDbLine
 62
7
  6
BYLAYER
 10
365.6879236504
 20
100.4343294743
 11
365.6879236504
 21
1038.9343294743
  0
LINE
  5
295
100
AcDbEntity
  8
0
100
AcDbLine
 62
7
  6
BYLAYER
 10
365.6881764184
 20
1038.9343166658
 11
365.6881764184
 21
1055.4343166658
  0
LINE
  5
296
100
AcDbEntity
  8
3
100
AcDbLine
 62
7
  6
BYLAYER
 10
368.8766693338
 20
1014.1173942499
 11
368.8766693338
 21
964.1173942499
  0
LINE
  5
297
100
AcDbEntity
  8
3
100
AcDbLine
 62
7
  6
BYLAYER
 10
368.8766693338
 20
177.782491789
 11
368.8766693338
 21
127.782491789
  0
LINE
  5
298
100
AcDbEntity
  8
3
100
AcDbLine
 62
7
  6
BYLAYER
 10
375.8766693338
 20
127.782491789
 11
375.8766693338
 21
177.782491789
  0
LINE
  5
299
100
AcDbEntity
  8
3
100
AcDbLine
 62
7
  6
BYLAYER
 10
375.8766693338
 20
964.1173942499
 11
375.8766693338
 21
1014.1173942499
  0
LINE
  5
29A
100
AcDbEntity
  8
0
100
AcDbLine
 62
7
  6
BYLAYER
 10
463.3365794959
 20
83.9342065273
 11
463.3365794959
 21
100.4342065273
  0
LINE
  5
29B
100
AcDbEntity
  8
4
100
AcDbLine
 62
7
  6
BYLAYER
 10
463.3370545389
 20
1038.9343294743
 11
463.3370545389
 21
100.4343294743
  0
LINE
  5
29C
100
AcDbEntity
  8
0
100
AcDbLine
 62
7
  6
BYLAYER
 10
463.3373073069
 20
1053.4343166658
 11
463.3373073069
 21
1038.9343166658
  0
LINE
  5
29D
100
AcDbEntity
  8
0
100
AcDbLine
 62
7
  6
BYLAYER
 10
463.3373073069
 20
1055.4343166658
 11
463.3373073069
 21
1053.4480494267
  0
LINE
  5
29E
100
AcDbEntity
  8
0
100
AcDbLine
 62
7
  6
BYLAYER
 10
463.5370545388
 20
85.4343166658
 11
463.5370545388
 21
83.8343166658
  0
LINE
  5
29F
100
AcDbEntity
  8
0
100
AcDbLine
 62
7
  6
BYLAYER
 10
463.5373073069
 20
1055.5343166658
 11
463.5373073069
 21
1053.9343166658
  0
LINE
  5
2A0
100
AcDbEntity
  8
0
100
AcDbLine
 62
7
  6
BYLAYER
 10
463.7213400194
 20
85.9342065273
 11
463.7213400194
 21
100.4342065273
  0
LINE
  5
2A1
100
AcDbEntity
  8
4
100
AcDbLine
 62
7
  6
BYLAYER
 10
463.7218150625
 20
100.4343294743
 11
463.7218150625
 21
1038.9343294743
  0
LINE
  5
2A2
100
AcDbEntity
  8
0
100
AcDbLine
 62
7
  6
BYLAYER
 10
463.7220678305
 20
1038.9343166658
 11
463.7220678305
 21
1053.4343166658
  0
LINE
  5
2A3
100
AcDbEntity
  8
0
100
AcDbLine
 62
7
  6
BYLAYER
 10
463.8251744721
 20
85.5495175109
 11
463.8251744721
 21
83.9342065273
  0
LINE
  5
2A4
100
AcDbEntity
  8
0
100
AcDbLine
 62
7
  6
BYLAYER
 10
463.8259022831
 20
1055.4343166658
 11
463.8259022831
 21
1053.8190056652
  0
LINE
  5
2A5
100
AcDbEntity
  8
0
100
AcDbLine
 62
7
  6
BYLAYER
 10
463.8828885507
 20
83.9342065273
 11
463.8828885507
 21
85.9342065273
  0
LINE
  5
2A6
100
AcDbEntity
  8
0
100
AcDbLine
 62
7
  6
BYLAYER
 10
463.8836163617
 20
1053.4343166658
 11
463.8836163617
 21
1055.4343166658
  0
LINE
  5
2A7
100
AcDbEntity
  8
0
100
AcDbLine
 62
7
  6
BYLAYER
 10
464.9221344261
 20
100.4342065273
 11
464.9221344261
 21
83.9342065273
  0
LINE
  5
2A8
100
AcDbEntity
  8
4
100
AcDbLine
 62
7
  6
BYLAYER
 10
464.9226094691
 20
1038.9343294743
 11
464.9226094691
 21
100.4343294743
  0
LINE
  5
2A9
100
AcDbEntity
  8
0
100
AcDbLine
 62
7
  6
BYLAYER
 10
464.9228622371
 20
1055.4343166658
 11
464.9228622371
 21
1038.9343166658
  0
LINE
  5
2AA
100
AcDbEntity
  8
0
100
AcDbLine
 62
7
  6
BYLAYER
 10
466.8451823214
 20
82.9342065273
 11
466.8451823214
 21
100.4342065273
  0
LINE
  5
2AB
100
AcDbEntity
  8
4
100
AcDbLine
 62
7
  6
BYLAYER
 10
466.8456573644
 20
100.4343294743
 11
466.8456573644
 21
1038.9343294743
  0
LINE
  5
2AC
100
AcDbEntity
  8
0
100
AcDbLine
 62
7
  6
BYLAYER
 10
466.8459101324
 20
1038.9343166658
 11
466.8459101324
 21
1056.4343166658
  0
LINE
  5
2AD
100
AcDbEntity
  8
0
100
AcDbLine
 62
7
  6
BYLAYER
 10
467.1005115184
 20
100.4342065273
 11
467.1005115184
 21
82.9342065273
  0
LINE
  5
2AE
100
AcDbEntity
  8
0
100
AcDbLine
 62
7
  6
BYLAYER
 10
467.1012393294
 20
1056.4343166658
 11
467.1012393294
 21
1038.9343166658
  0
LINE
  5
2AF
100
AcDbEntity
  8
4
100
AcDbLine
 62
7
  6
BYLAYER
 10
467.1019671404
 20
1038.9343294743
 11
467.1019671404
 21
100.4343294743
  0
LINE
  5
2B0
100
AcDbEntity
  8
0
100
AcDbLine
 62
7
  6
BYLAYER
 10
468.8893659004
 20
83.9342065273
 11
468.8893659004
 21
100.4342065273
  0
LINE
  5
2B1
100
AcDbEntity
  8
0
100
AcDbLine
 62
7
  6
BYLAYER
 10
468.8900937114
 20
1038.9343166658
 11
468.8900937114
 21
1055.4343166658
  0
LINE
  5
2B2
100
AcDbEntity
  8
4
100
AcDbLine
 62
7
  6
BYLAYER
 10
468.8908215224
 20
100.4343294743
 11
468.8908215224
 21
1038.9343294743
  0
LINE
  5
2B3
100
AcDbEntity
  8
0
100
AcDbLine
 62
7
  6
BYLAYER
 10
469.2837930914
 20
100.4342065273
 11
469.2837930914
 21
83.9342065273
  0
LINE
  5
2B4
100
AcDbEntity
  8
0
100
AcDbLine
 62
7
  6
BYLAYER
 10
469.2845209024
 20
1055.4343166658
 11
469.2845209024
 21
1038.9343166658
  0
LINE
  5
2B5
100
AcDbEntity
  8
4
100
AcDbLine
 62
7
  6
BYLAYER
 10
469.2852487134
 20
1038.9343294743
 11
469.2852487134
 21
100.4343294743
  0
LINE
  5
2B6
100
AcDbEntity
  8
0
100
AcDbLine
 62
7
  6
BYLAYER
 10
469.3365794959
 20
83.9342065273
 11
469.3365794959
 21
100.4342065273
  0
LINE
  5
2B7
100
AcDbEntity
  8
0
100
AcDbLine
 62
7
  6
BYLAYER
 10
469.3373073069
 20
1038.9343166658
 11
469.3373073069
 21
1055.4343166658
  0
LINE
  5
2B8
100
AcDbEntity
  8
4
100
AcDbLine
 62
7
  6
BYLAYER
 10
469.3380351179
 20
100.4343294743
 11
469.3380351179
 21
1038.9343294743
  0
LINE
  5
2B9
100
AcDbEntity
  8
4
100
AcDbLine
 62
7
  6
BYLAYER
 10
469.5364153902
 20
100.4343459334
 11
469.5364153902
 21
1038.9343459334
  0
LINE
  5
2BA
100
AcDbEntity
  8
0
100
AcDbLine
 62
7
  6
BYLAYER
 10
471.5873073069
 20
1056.4343166658
 11
471.5873073069
 21
1062.4343166658
  0
LINE
  5
2BB
100
AcDbEntity
  8
0
100
AcDbLine
 62
7
  6
BYLAYER
 10
475.2105473069
 20
1064.1343166658
 11
475.2105473069
 21
1062.9343166658
  0
LINE
  5
2BC
100
AcDbEntity
  8
0
100
AcDbLine
 62
7
  6
BYLAYER
 10
481.715083388
 20
1062.9343166658
 11
481.715083388
 21
1064.1343166658
  0
LINE
  5
2BD
100
AcDbEntity
  8
0
100
AcDbLine
 62
7
  6
BYLAYER
 10
482.2700404488
 20
1062.9343166658
 11
482.2700404488
 21
1064.4343166658
  0
LINE
  5
2BE
100
AcDbEntity
  8
0
100
AcDbLine
 62
7
  6
BYLAYER
 10
482.7050328817
 20
1064.1343166658
 11
482.7050328817
 21
1062.9343166658
  0
LINE
  5
2BF
100
AcDbEntity
  8
0
100
AcDbLine
 62
7
  6
BYLAYER
 10
483.4605473069
 20
1064.1343166658
 11
483.4605473069
 21
1062.9343166658
  0
LINE
  5
2C0
100
AcDbEntity
  8
0
100
AcDbLine
 62
7
  6
BYLAYER
 10
487.0873073069
 20
1056.4343166658
 11
487.0873073069
 21
1062.4343166658
  0
LINE
  5
2C1
100
AcDbEntity
  8
0
100
AcDbLine
 62
7
  6
BYLAYER
 10
489.5873073069
 20
1056.4343166658
 11
489.5873073069
 21
1062.4343166658
  0
LINE
  5
2C2
100
AcDbEntity
  8
0
100
AcDbLine
 62
7
  6
BYLAYER
 10
491.3373073069
 20
1066.4343157284
 11
491.3373073069
 21
1058.9343166658
  0
LINE
  5
2C3
100
AcDbEntity
  8
0
100
AcDbLine
 62
7
  6
BYLAYER
 10
491.8373073069
 20
1057.9343166658
 11
491.8373073069
 21
1058.9343166658
  0
LINE
  5
2C4
100
AcDbEntity
  8
0
100
AcDbLine
 62
7
  6
BYLAYER
 10
502.8373073069
 20
1057.9343166658
 11
502.8373073069
 21
1058.9343166658
  0
LINE
  5
2C5
100
AcDbEntity
  8
0
100
AcDbLine
 62
7
  6
BYLAYER
 10
503.3373073069
 20
1058.9343166658
 11
503.3373073069
 21
1066.4343157284
  0
LINE
  5
2C6
100
AcDbEntity
  8
0
100
AcDbLine
 62
7
  6
BYLAYER
 10
505.0873073069
 20
1056.4343166658
 11
505.0873073069
 21
1062.4343166658
  0
LINE
  5
2C7
100
AcDbEntity
  8
4
100
AcDbLine
 62
7
  6
BYLAYER
 10
507.1364153902
 20
1038.9343459334
 11
507.1364153902
 21
100.4343459334
  0
LINE
  5
2C8
100
AcDbEntity
  8
4
100
AcDbLine
 62
7
  6
BYLAYER
 10
507.3360739598
 20
1038.9343294743
 11
507.3360739598
 21
100.4343294743
  0
LINE
  5
2C9
100
AcDbEntity
  8
0
100
AcDbLine
 62
7
  6
BYLAYER
 10
507.3365794959
 20
100.4342065273
 11
507.3365794959
 21
83.9342065273
  0
LINE
  5
2CA
100
AcDbEntity
  8
0
100
AcDbLine
 62
7
  6
BYLAYER
 10
507.3373073069
 20
1055.4343166658
 11
507.3373073069
 21
1038.9343166658
  0
LINE
  5
2CB
100
AcDbEntity
  8
4
100
AcDbLine
 62
7
  6
BYLAYER
 10
507.3888603643
 20
100.4343294743
 11
507.3888603643
 21
1038.9343294743
  0
LINE
  5
2CC
100
AcDbEntity
  8
0
100
AcDbLine
 62
7
  6
BYLAYER
 10
507.3893659004
 20
83.9342065273
 11
507.3893659004
 21
100.4342065273
  0
LINE
  5
2CD
100
AcDbEntity
  8
0
100
AcDbLine
 62
7
  6
BYLAYER
 10
507.3900937114
 20
1038.9343166658
 11
507.3900937114
 21
1055.4343166658
  0
LINE
  5
2CE
100
AcDbEntity
  8
4
100
AcDbLine
 62
7
  6
BYLAYER
 10
507.7832875553
 20
1038.9343294743
 11
507.7832875553
 21
100.4343294743
  0
LINE
  5
2CF
100
AcDbEntity
  8
0
100
AcDbLine
 62
7
  6
BYLAYER
 10
507.7837930914
 20
100.4342065273
 11
507.7837930914
 21
83.9342065273
  0
LINE
  5
2D0
100
AcDbEntity
  8
0
100
AcDbLine
 62
7
  6
BYLAYER
 10
507.7845209024
 20
1055.4343166658
 11
507.7845209024
 21
1038.9343166658
  0
LINE
  5
2D1
100
AcDbEntity
  8
4
100
AcDbLine
 62
7
  6
BYLAYER
 10
509.5721419373
 20
100.4343294743
 11
509.5721419373
 21
1038.9343294743
  0
LINE
  5
2D2
100
AcDbEntity
  8
0
100
AcDbLine
 62
7
  6
BYLAYER
 10
509.5726474734
 20
82.9342065273
 11
509.5726474734
 21
100.4342065273
  0
LINE
  5
2D3
100
AcDbEntity
  8
0
100
AcDbLine
 62
7
  6
BYLAYER
 10
509.5733752844
 20
1038.9343166658
 11
509.5733752844
 21
1056.4343166658
  0
LINE
  5
2D4
100
AcDbEntity
  8
0
100
AcDbLine
 62
7
  6
BYLAYER
 10
509.8279766703
 20
100.4342065273
 11
509.8279766703
 21
82.9342065273
  0
LINE
  5
2D5
100
AcDbEntity
  8
4
100
AcDbLine
 62
7
  6
BYLAYER
 10
509.8284517133
 20
1038.9343294743
 11
509.8284517133
 21
100.4343294743
  0
LINE
  5
2D6
100
AcDbEntity
  8
0
100
AcDbLine
 62
7
  6
BYLAYER
 10
509.8287044814
 20
1056.4343166658
 11
509.8287044814
 21
1038.9343166658
  0
LINE
  5
2D7
100
AcDbEntity
  8
0
100
AcDbLine
 62
7
  6
BYLAYER
 10
511.7510245656
 20
83.9342065273
 11
511.7510245656
 21
100.4342065273
  0
LINE
  5
2D8
100
AcDbEntity
  8
4
100
AcDbLine
 62
7
  6
BYLAYER
 10
511.7514996086
 20
100.4343294743
 11
511.7514996086
 21
1038.9343294743
  0
LINE
  5
2D9
100
AcDbEntity
  8
0
100
AcDbLine
 62
7
  6
BYLAYER
 10
511.7517523767
 20
1038.9343166658
 11
511.7517523767
 21
1055.4343166658
  0
LINE
  5
2DA
100
AcDbEntity
  8
0
100
AcDbLine
 62
7
  6
BYLAYER
 10
512.790270441
 20
85.9342065273
 11
512.790270441
 21
83.9342065273
  0
LINE
  5
2DB
100
AcDbEntity
  8
0
100
AcDbLine
 62
7
  6
BYLAYER
 10
512.7909982521
 20
1055.4343166658
 11
512.7909982521
 21
1053.4343166658
  0
LINE
  5
2DC
100
AcDbEntity
  8
0
100
AcDbLine
 62
7
  6
BYLAYER
 10
512.8479845196
 20
83.9342065273
 11
512.8479845196
 21
85.5495175279
  0
LINE
  5
2DD
100
AcDbEntity
  8
0
100
AcDbLine
 62
7
  6
BYLAYER
 10
512.8487123306
 20
1053.8190056822
 11
512.8487123306
 21
1055.4343166658
  0
LINE
  5
2DE
100
AcDbEntity
  8
0
100
AcDbLine
 62
7
  6
BYLAYER
 10
512.9518189723
 20
100.4342065273
 11
512.9518189723
 21
85.9342065273
  0
LINE
  5
2DF
100
AcDbEntity
  8
4
100
AcDbLine
 62
7
  6
BYLAYER
 10
512.9522940153
 20
1038.9343294743
 11
512.9522940153
 21
100.4343294743
  0
LINE
  5
2E0
100
AcDbEntity
  8
0
100
AcDbLine
 62
7
  6
BYLAYER
 10
512.9525467833
 20
1053.4343166658
 11
512.9525467833
 21
1038.9343166658
  0
LINE
  5
2E1
100
AcDbEntity
  8
0
100
AcDbLine
 62
7
  6
BYLAYER
 10
513.1370545358
 20
83.8343166658
 11
513.1370545358
 21
85.4343166658
  0
LINE
  5
2E2
100
AcDbEntity
  8
0
100
AcDbLine
 62
7
  6
BYLAYER
 10
513.1373073069
 20
1053.9343166658
 11
513.1373073069
 21
1055.5343166658
  0
LINE
  5
2E3
100
AcDbEntity
  8
0
100
AcDbLine
 62
7
  6
BYLAYER
 10
513.3365794959
 20
83.9342065273
 11
513.3365794959
 21
85.9204728942
  0
LINE
  5
2E4
100
AcDbEntity
  8
0
100
AcDbLine
 62
7
  6
BYLAYER
 10
513.3365794959
 20
85.9342065273
 11
513.3365794959
 21
100.4342065273
  0
LINE
  5
2E5
100
AcDbEntity
  8
4
100
AcDbLine
 62
7
  6
BYLAYER
 10
513.3370545389
 20
100.4343294743
 11
513.3370545389
 21
1038.9343294743
  0
LINE
  5
2E6
100
AcDbEntity
  8
0
100
AcDbLine
 62
7
  6
BYLAYER
 10
513.3373073069
 20
1038.9343166658
 11
513.3373073069
 21
1055.4343166658
  0
LINE
  5
2E7
100
AcDbEntity
  8
4
100
AcDbLine
 62
7
  6
BYLAYER
 10
516.5258002224
 20
1014.1173942499
 11
516.5258002224
 21
964.1173942499
  0
LINE
  5
2E8
100
AcDbEntity
  8
4
100
AcDbLine
 62
7
  6
BYLAYER
 10
516.5258002224
 20
177.782491789
 11
516.5258002224
 21
127.782491789
  0
LINE
  5
2E9
100
AcDbEntity
  8
4
100
AcDbLine
 62
7
  6
BYLAYER
 10
523.5258002224
 20
127.782491789
 11
523.5258002224
 21
177.782491789
  0
LINE
  5
2EA
100
AcDbEntity
  8
4
100
AcDbLine
 62
7
  6
BYLAYER
 10
523.5258002224
 20
964.1173942499
 11
523.5258002224
 21
1014.1173942499
  0
LINE
  5
2EB
100
AcDbEntity
  8
0
100
AcDbLine
 62
7
  6
BYLAYER
 10
342.1381764184
 20
1056.4343166658
 11
341.9381764184
 21
1056.6343166658
  0
LINE
  5
2EC
100
AcDbEntity
  8
0
100
AcDbLine
 62
7
  6
BYLAYER
 10
338.9381764184
 20
1062.9343166658
 11
339.4381764184
 21
1062.4343166658
  0
LINE
  5
2ED
100
AcDbEntity
  8
0
100
AcDbLine
 62
7
  6
BYLAYER
 10
356.9381764184
 20
1057.9343166658
 11
357.4381764184
 21
1057.4343166658
  0
LINE
  5
2EE
100
AcDbEntity
  8
0
100
AcDbLine
 62
7
  6
BYLAYER
 10
356.9381764184
 20
1062.9343166658
 11
357.4381764184
 21
1062.4343166658
  0
LINE
  5
2EF
100
AcDbEntity
  8
0
100
AcDbLine
 62
7
  6
BYLAYER
 10
355.188178397
 20
1066.9343166658
 11
355.6881764184
 21
1066.4343188243
  0
LINE
  5
2F0
100
AcDbEntity
  8
4
100
AcDbLine
 62
7
  6
BYLAYER
 10
523.5258002224
 20
964.1173942499
 11
513.3370545389
 21
964.1173942499
  0
LINE
  5
2F1
100
AcDbEntity
  8
3
100
AcDbLine
 62
7
  6
BYLAYER
 10
375.8766693338
 20
964.1173942499
 11
365.6879236504
 21
964.1173942499
  0
LINE
  5
2F2
100
AcDbEntity
  8
0
100
AcDbLine
 62
7
  6
BYLAYER
 10
489.7873073069
 20
1056.4343166658
 11
489.5873073069
 21
1056.6343166658
  0
LINE
  5
2F3
100
AcDbEntity
  8
0
100
AcDbLine
 62
7
  6
BYLAYER
 10
486.5873073069
 20
1062.9343166658
 11
487.0873073069
 21
1062.4343166658
  0
LINE
  5
2F4
100
AcDbEntity
  8
0
100
AcDbLine
 62
7
  6
BYLAYER
 10
504.5873073069
 20
1057.9343166658
 11
505.0873073069
 21
1057.4343166658
  0
LINE
  5
2F5
100
AcDbEntity
  8
0
100
AcDbLine
 62
7
  6
BYLAYER
 10
504.5873073069
 20
1062.9343166658
 11
505.0873073069
 21
1062.4343166658
  0
LINE
  5
2F6
100
AcDbEntity
  8
0
100
AcDbLine
 62
7
  6
BYLAYER
 10
502.8373092855
 20
1066.9343166658
 11
503.3373073069
 21
1066.4343188243
  0
LINE
  5
2F7
100
AcDbEntity
  8
3
100
AcDbLine
 62
7
  6
BYLAYER
 10
365.6879236504
 20
1014.1173942499
 11
375.8766693338
 21
1014.1173942499
  0
LINE
  5
2F8
100
AcDbEntity
  8
4
100
AcDbLine
 62
7
  6
BYLAYER
 10
513.3370545389
 20
1014.1173942499
 11
523.5258002224
 21
1014.1173942499
  0
LINE
  5
2F9
100
AcDbEntity
  8
4
100
AcDbLine
 62
7
  6
BYLAYER
 10
507.1364153902
 20
1038.9343459334
 11
469.5364153902
 21
1038.9343459334
  0
LINE
  5
2FA
100
AcDbEntity
  8
0
100
AcDbLine
 62
7
  6
BYLAYER
 10
513.3373073069
 20
1038.9343166658
 11
463.3373073069
 21
1038.9343166658
  0
LINE
  5
2FB
100
AcDbEntity
  8
3
100
AcDbLine
 62
7
  6
BYLAYER
 10
359.4872845017
 20
1038.9343459334
 11
321.8872845017
 21
1038.9343459334
  0
LINE
  5
2FC
100
AcDbEntity
  8
0
100
AcDbLine
 62
7
  6
BYLAYER
 10
365.6881764184
 20
1038.9343166658
 11
315.6881764184
 21
1038.9343166658
  0
LINE
  5
2FD
100
AcDbEntity
  8
3
100
AcDbLine
 62
7
  6
BYLAYER
 10
315.6879236504
 20
1038.9343294743
 11
321.6889042294
 21
1038.9343294743
  0
LINE
  5
2FE
100
AcDbEntity
  8
3
100
AcDbLine
 62
7
  6
BYLAYER
 10
359.6869430713
 20
1038.9343294743
 11
365.6879236504
 21
1038.9343294743
  0
LINE
  5
2FF
100
AcDbEntity
  8
4
100
AcDbLine
 62
7
  6
BYLAYER
 10
463.3370545389
 20
1038.9343294743
 11
469.3380351179
 21
1038.9343294743
  0
LINE
  5
300
100
AcDbEntity
  8
4
100
AcDbLine
 62
7
  6
BYLAYER
 10
507.3360739598
 20
1038.9343294743
 11
513.3370545389
 21
1038.9343294743
  0
LINE
  5
301
100
AcDbEntity
  8
0
100
AcDbLine
 62
7
  6
BYLAYER
 10
505.3373073069
 20
1052.4343166658
 11
489.3373241208
 21
1052.4343166658
  0
LINE
  5
302
100
AcDbEntity
  8
0
100
AcDbLine
 62
7
  6
BYLAYER
 10
487.3373073069
 20
1052.4343166658
 11
471.3373241208
 21
1052.4343166658
  0
LINE
  5
303
100
AcDbEntity
  8
0
100
AcDbLine
 62
7
  6
BYLAYER
 10
357.6881764184
 20
1052.4343166658
 11
341.6881932323
 21
1052.4343166658
  0
LINE
  5
304
100
AcDbEntity
  8
0
100
AcDbLine
 62
7
  6
BYLAYER
 10
339.6881764184
 20
1052.4343166658
 11
323.6881932323
 21
1052.4343166658
  0
LINE
  5
305
100
AcDbEntity
  8
0
100
AcDbLine
 62
7
  6
BYLAYER
 10
323.7933854472
 20
1052.4455109168
 11
339.5829507967
 21
1052.4455109168
  0
LINE
  5
306
100
AcDbEntity
  8
0
100
AcDbLine
 62
7
  6
BYLAYER
 10
341.7933854472
 20
1052.4455109168
 11
357.5829507967
 21
1052.4455109168
  0
LINE
  5
307
100
AcDbEntity
  8
0
100
AcDbLine
 62
7
  6
BYLAYER
 10
471.4425163358
 20
1052.4455109168
 11
487.2320816852
 21
1052.4455109168
  0
LINE
  5
308
100
AcDbEntity
  8
0
100
AcDbLine
 62
7
  6
BYLAYER
 10
489.4425163358
 20
1052.4455109168
 11
505.2320816852
 21
1052.4455109168
  0
LINE
  5
309
100
AcDbEntity
  8
0
100
AcDbLine
 62
7
  6
BYLAYER
 10
505.4428019671
 20
1053.4230608491
 11
489.2318296823
 21
1053.4230608491
  0
LINE
  5
30A
100
AcDbEntity
  8
0
100
AcDbLine
 62
7
  6
BYLAYER
 10
357.7936710786
 20
1053.4230608491
 11
341.5826987938
 21
1053.4230608491
  0
LINE
  5
30B
100
AcDbEntity
  8
0
100
AcDbLine
 62
7
  6
BYLAYER
 10
487.4426037915
 20
1053.4231035829
 11
471.2320278575
 21
1053.4231035829
  0
LINE
  5
30C
100
AcDbEntity
  8
0
100
AcDbLine
 62
7
  6
BYLAYER
 10
339.793472903
 20
1053.4231035829
 11
323.5828969689
 21
1053.4231035829
  0
LINE
  5
30D
100
AcDbEntity
  8
0
100
AcDbLine
 62
7
  6
BYLAYER
 10
315.6881764184
 20
1053.4343166658
 11
316.2344854732
 21
1053.4343166658
  0
LINE
  5
30E
100
AcDbEntity
  8
0
100
AcDbLine
 62
7
  6
BYLAYER
 10
365.1418673635
 20
1053.4343166658
 11
365.6881764184
 21
1053.4343166658
  0
LINE
  5
30F
100
AcDbEntity
  8
0
100
AcDbLine
 62
7
  6
BYLAYER
 10
463.3373073069
 20
1053.4343166658
 11
463.8836163617
 21
1053.4343166658
  0
LINE
  5
310
100
AcDbEntity
  8
0
100
AcDbLine
 62
7
  6
BYLAYER
 10
512.7909982521
 20
1053.4343166658
 11
513.3373073069
 21
1053.4343166658
  0
LINE
  5
311
100
AcDbEntity
  8
0
100
AcDbLine
 62
7
  6
BYLAYER
 10
513.1373073069
 20
1053.9343166658
 11
512.8487123306
 21
1053.9343166658
  0
LINE
  5
312
100
AcDbEntity
  8
0
100
AcDbLine
 62
7
  6
BYLAYER
 10
463.8259022831
 20
1053.9343166658
 11
463.5373073069
 21
1053.9343166658
  0
LINE
  5
313
100
AcDbEntity
  8
0
100
AcDbLine
 62
7
  6
BYLAYER
 10
365.4881764184
 20
1053.9343166658
 11
365.1995814421
 21
1053.9343166658
  0
LINE
  5
314
100
AcDbEntity
  8
0
100
AcDbLine
 62
7
  6
BYLAYER
 10
316.1767713946
 20
1053.9343166658
 11
315.8881764184
 21
1053.9343166658
  0
LINE
  5
315
100
AcDbEntity
  8
0
100
AcDbLine
 62
7
  6
BYLAYER
 10
513.3373073069
 20
1054.4343167347
 11
513.1373073069
 21
1054.4343167347
  0
LINE
  5
316
100
AcDbEntity
  8
0
100
AcDbLine
 62
7
  6
BYLAYER
 10
463.5373073069
 20
1054.434316723
 11
463.3373073069
 21
1054.434316723
  0
LINE
  5
317
100
AcDbEntity
  8
0
100
AcDbLine
 62
7
  6
BYLAYER
 10
365.6881764184
 20
1054.4343167347
 11
365.4881764184
 21
1054.4343167347
  0
LINE
  5
318
100
AcDbEntity
  8
0
100
AcDbLine
 62
7
  6
BYLAYER
 10
315.8881764184
 20
1054.434316723
 11
315.6881764184
 21
1054.434316723
  0
LINE
  5
319
100
AcDbEntity
  8
0
100
AcDbLine
 62
7
  6
BYLAYER
 10
315.6881764184
 20
1055.4343166658
 11
315.8881764184
 21
1055.4343166658
  0
LINE
  5
31A
100
AcDbEntity
  8
0
100
AcDbLine
 62
7
  6
BYLAYER
 10
365.4881764184
 20
1055.4343166658
 11
365.6881764184
 21
1055.4343166658
  0
LINE
  5
31B
100
AcDbEntity
  8
0
100
AcDbLine
 62
7
  6
BYLAYER
 10
316.1767713946
 20
1055.4343166658
 11
365.1995814421
 21
1055.4343166658
  0
LINE
  5
31C
100
AcDbEntity
  8
0
100
AcDbLine
 62
7
  6
BYLAYER
 10
463.3373073069
 20
1055.4343166658
 11
463.5373073069
 21
1055.4343166658
  0
LINE
  5
31D
100
AcDbEntity
  8
0
100
AcDbLine
 62
7
  6
BYLAYER
 10
513.1373073069
 20
1055.4343166658
 11
513.3373073069
 21
1055.4343166658
  0
LINE
  5
31E
100
AcDbEntity
  8
0
100
AcDbLine
 62
7
  6
BYLAYER
 10
463.8259022831
 20
1055.4343166658
 11
512.8487123306
 21
1055.4343166658
  0
LINE
  5
31F
100
AcDbEntity
  8
0
100
AcDbLine
 62
7
  6
BYLAYER
 10
315.8881764184
 20
1055.5343166658
 11
316.2092636087
 21
1055.5343166658
  0
LINE
  5
320
100
AcDbEntity
  8
0
100
AcDbLine
 62
7
  6
BYLAYER
 10
365.1670889981
 20
1055.5343166658
 11
365.4881764184
 21
1055.5343166658
  0
LINE
  5
321
100
AcDbEntity
  8
0
100
AcDbLine
 62
7
  6
BYLAYER
 10
463.5373073069
 20
1055.5343166658
 11
463.8583944972
 21
1055.5343166658
  0
LINE
  5
322
100
AcDbEntity
  8
0
100
AcDbLine
 62
7
  6
BYLAYER
 10
512.8162198866
 20
1055.5343166658
 11
513.1373073069
 21
1055.5343166658
  0
LINE
  5
323
100
AcDbEntity
  8
0
100
AcDbLine
 62
7
  6
BYLAYER
 10
317.1769933094
 20
1056.4343166658
 11
364.1993579463
 21
1056.4343166658
  0
LINE
  5
324
100
AcDbEntity
  8
0
100
AcDbLine
 62
7
  6
BYLAYER
 10
464.8261241979
 20
1056.4343166658
 11
511.8484888348
 21
1056.4343166658
  0
LINE
  5
325
100
AcDbEntity
  8
0
100
AcDbLine
 62
7
  6
BYLAYER
 10
316.8882778444
 20
1056.5343166658
 11
322.4881761717
 21
1056.5343166658
  0
LINE
  5
326
100
AcDbEntity
  8
0
100
AcDbLine
 62
7
  6
BYLAYER
 10
358.8882778444
 20
1056.5343166658
 11
364.4881761717
 21
1056.5343166658
  0
LINE
  5
327
100
AcDbEntity
  8
0
100
AcDbLine
 62
7
  6
BYLAYER
 10
464.5374087329
 20
1056.5343166658
 11
470.1373070602
 21
1056.5343166658
  0
LINE
  5
328
100
AcDbEntity
  8
0
100
AcDbLine
 62
7
  6
BYLAYER
 10
506.5374087329
 20
1056.5343166658
 11
512.1373070602
 21
1056.5343166658
  0
LINE
  5
329
100
AcDbEntity
  8
0
100
AcDbLine
 62
7
  6
BYLAYER
 10
505.0873073069
 20
1056.6343166658
 11
489.5873073069
 21
1056.6343166658
  0
LINE
  5
32A
100
AcDbEntity
  8
0
100
AcDbLine
 62
7
  6
BYLAYER
 10
357.4381764184
 20
1056.6343166658
 11
341.9381764184
 21
1056.6343166658
  0
LINE
  5
32B
100
AcDbEntity
  8
0
100
AcDbLine
 62
7
  6
BYLAYER
 10
341.9381764184
 20
1057.4343166658
 11
357.4381764184
 21
1057.4343166658
  0
LINE
  5
32C
100
AcDbEntity
  8
0
100
AcDbLine
 62
7
  6
BYLAYER
 10
489.5873073069
 20
1057.4343166658
 11
505.0873073069
 21
1057.4343166658
  0
LINE
  5
32D
100
AcDbEntity
  8
0
100
AcDbLine
 62
7
  6
BYLAYER
 10
487.0873073069
 20
1057.9343166658
 11
471.5873073069
 21
1057.9343166658
  0
LINE
  5
32E
100
AcDbEntity
  8
0
100
AcDbLine
 62
7
  6
BYLAYER
 10
339.4381764184
 20
1057.9343166658
 11
323.9381764184
 21
1057.9343166658
  0
LINE
  5
32F
100
AcDbEntity
  8
0
100
AcDbLine
 62
7
  6
BYLAYER
 10
341.9381764184
 20
1057.9343166658
 11
357.4381764184
 21
1057.9343166658
  0
LINE
  5
330
100
AcDbEntity
  8
0
100
AcDbLine
 62
7
  6
BYLAYER
 10
489.5873073069
 20
1057.9343166658
 11
505.0873073069
 21
1057.9343166658
  0
LINE
  5
331
100
AcDbEntity
  8
0
100
AcDbLine
 62
7
  6
BYLAYER
 10
503.3373073069
 20
1058.9343166658
 11
491.3373073069
 21
1058.9343166658
  0
LINE
  5
332
100
AcDbEntity
  8
0
100
AcDbLine
 62
7
  6
BYLAYER
 10
355.6881764184
 20
1058.9343166658
 11
343.6881764184
 21
1058.9343166658
  0
LINE
  5
333
100
AcDbEntity
  8
0
100
AcDbLine
 62
7
  6
BYLAYER
 10
505.0873030241
 20
1060.9343166658
 11
503.3373073069
 21
1060.9343166658
  0
LINE
  5
334
100
AcDbEntity
  8
0
100
AcDbLine
 62
7
  6
BYLAYER
 10
491.3373073069
 20
1060.9343166658
 11
489.5873115897
 21
1060.9343166658
  0
LINE
  5
335
100
AcDbEntity
  8
0
100
AcDbLine
 62
7
  6
BYLAYER
 10
487.0873030241
 20
1060.9343166658
 11
471.5873115897
 21
1060.9343166658
  0
LINE
  5
336
100
AcDbEntity
  8
0
100
AcDbLine
 62
7
  6
BYLAYER
 10
357.4381721355
 20
1060.9343166658
 11
355.6881764184
 21
1060.9343166658
  0
LINE
  5
337
100
AcDbEntity
  8
0
100
AcDbLine
 62
7
  6
BYLAYER
 10
343.6881764184
 20
1060.9343166658
 11
341.9381807012
 21
1060.9343166658
  0
LINE
  5
338
100
AcDbEntity
  8
0
100
AcDbLine
 62
7
  6
BYLAYER
 10
339.4381721355
 20
1060.9343166658
 11
323.9381807012
 21
1060.9343166658
  0
LINE
  5
339
100
AcDbEntity
  8
0
100
AcDbLine
 62
7
  6
BYLAYER
 10
323.9381764184
 20
1062.4343166658
 11
339.4381764184
 21
1062.4343166658
  0
LINE
  5
33A
100
AcDbEntity
  8
0
100
AcDbLine
 62
7
  6
BYLAYER
 10
341.9381764184
 20
1062.4343166658
 11
343.6881764184
 21
1062.4343166658
  0
LINE
  5
33B
100
AcDbEntity
  8
0
100
AcDbLine
 62
7
  6
BYLAYER
 10
355.6881764184
 20
1062.4343166658
 11
357.4381764184
 21
1062.4343166658
  0
LINE
  5
33C
100
AcDbEntity
  8
0
100
AcDbLine
 62
7
  6
BYLAYER
 10
471.5873073069
 20
1062.4343166658
 11
487.0873073069
 21
1062.4343166658
  0
LINE
  5
33D
100
AcDbEntity
  8
0
100
AcDbLine
 62
7
  6
BYLAYER
 10
489.5873073069
 20
1062.4343166658
 11
491.3373073069
 21
1062.4343166658
  0
LINE
  5
33E
100
AcDbEntity
  8
0
100
AcDbLine
 62
7
  6
BYLAYER
 10
503.3373073069
 20
1062.4343166658
 11
505.0873073069
 21
1062.4343166658
  0
LINE
  5
33F
100
AcDbEntity
  8
0
100
AcDbLine
 62
7
  6
BYLAYER
 10
324.4381804212
 20
1062.9343166658
 11
338.9381724156
 21
1062.9343166658
  0
LINE
  5
340
100
AcDbEntity
  8
0
100
AcDbLine
 62
7
  6
BYLAYER
 10
342.4381804212
 20
1062.9343166658
 11
343.6881764184
 21
1062.9343166658
  0
LINE
  5
341
100
AcDbEntity
  8
0
100
AcDbLine
 62
7
  6
BYLAYER
 10
355.6881764184
 20
1062.9343166658
 11
356.9381724156
 21
1062.9343166658
  0
LINE
  5
342
100
AcDbEntity
  8
0
100
AcDbLine
 62
7
  6
BYLAYER
 10
472.0873113097
 20
1062.9343166658
 11
486.5873033041
 21
1062.9343166658
  0
LINE
  5
343
100
AcDbEntity
  8
0
100
AcDbLine
 62
7
  6
BYLAYER
 10
490.0873113097
 20
1062.9343166658
 11
491.3373073069
 21
1062.9343166658
  0
LINE
  5
344
100
AcDbEntity
  8
0
100
AcDbLine
 62
7
  6
BYLAYER
 10
503.3373073069
 20
1062.9343166658
 11
504.5873033041
 21
1062.9343166658
  0
LINE
  5
345
100
AcDbEntity
  8
0
100
AcDbLine
 62
7
  6
BYLAYER
 10
327.5614164184
 20
1064.1343166658
 11
330.9864164184
 21
1064.1343166658
  0
LINE
  5
346
100
AcDbEntity
  8
0
100
AcDbLine
 62
7
  6
BYLAYER
 10
332.3864164184
 20
1064.1343166658
 11
335.8114164184
 21
1064.1343166658
  0
LINE
  5
347
100
AcDbEntity
  8
0
100
AcDbLine
 62
7
  6
BYLAYER
 10
475.2105473069
 20
1064.1343166658
 11
481.715083388
 21
1064.1343166658
  0
LINE
  5
348
100
AcDbEntity
  8
0
100
AcDbLine
 62
7
  6
BYLAYER
 10
482.7050328817
 20
1064.1343166658
 11
483.4605473069
 21
1064.1343166658
  0
LINE
  5
349
100
AcDbEntity
  8
0
100
AcDbLine
 62
7
  6
BYLAYER
 10
327.8614279442
 20
1064.4343166658
 11
335.5113856536
 21
1064.4343166658
  0
LINE
  5
34A
100
AcDbEntity
  8
0
100
AcDbLine
 62
7
  6
BYLAYER
 10
475.5105254156
 20
1064.4343166658
 11
483.1606076748
 21
1064.4343166658
  0
LINE
  5
34B
100
AcDbEntity
  8
0
100
AcDbLine
 62
7
  6
BYLAYER
 10
343.6881764184
 20
1066.4343157284
 11
355.6881764184
 21
1066.4343157284
  0
LINE
  5
34C
100
AcDbEntity
  8
0
100
AcDbLine
 62
7
  6
BYLAYER
 10
491.3373073069
 20
1066.4343157284
 11
503.3373073069
 21
1066.4343157284
  0
LINE
  5
34D
100
AcDbEntity
  8
0
100
AcDbLine
 62
7
  6
BYLAYER
 10
344.1881758541
 20
1066.9343166658
 11
355.188171117
 21
1066.9343166658
  0
LINE
  5
34E
100
AcDbEntity
  8
0
100
AcDbLine
 62
7
  6
BYLAYER
 10
491.8373067426
 20
1066.9343166658
 11
502.8373020055
 21
1066.9343166658
  0
ARC
  5
34F
100
AcDbEntity
  8
0
100
AcDbCircle
 62
7
  6
BYLAYER
 10
322.4874486102
 20
83.8343166658
 40
1.0
100
AcDbArc
 50
270.0
 51
292.3676490044
  0
ARC
  5
350
100
AcDbEntity
  8
0
100
AcDbCircle
 62
7
  6
BYLAYER
 10
316.8879236503
 20
83.8343166658
 40
1.0
100
AcDbArc
 50
180.0
 51
270.0
  0
ARC
  5
351
100
AcDbEntity
  8
0
100
AcDbCircle
 62
7
  6
BYLAYER
 10
321.4879236503
 20
83.8343166658
 40
1.0
100
AcDbArc
 50
270.0
 51
292.3676490044
  0
ARC
  5
352
100
AcDbEntity
  8
0
100
AcDbCircle
 62
7
  6
BYLAYER
 10
317.1760435836
 20
83.9342065273
 40
1.0
100
AcDbArc
 50
180.0
 51
270.0
  0
ARC
  5
353
100
AcDbEntity
  8
0
100
AcDbCircle
 62
7
  6
BYLAYER
 10
320.6874486073
 20
83.9342065273
 40
1.0
100
AcDbArc
 50
270.0
 51
360.0
  0
ARC
  5
354
100
AcDbEntity
  8
0
100
AcDbCircle
 62
7
  6
BYLAYER
 10
316.6874486073
 20
83.9342065273
 40
1.0
100
AcDbArc
 50
180.0
 51
249.9315512353
  0
ARC
  5
355
100
AcDbEntity
  8
0
100
AcDbCircle
 62
7
  6
BYLAYER
 10
317.1952893704
 20
83.8455309593
 40
0.911324432
100
AcDbArc
 50
268.9031685192
 51
269.9995120839
  0
ARC
  5
356
100
AcDbEntity
  8
0
100
AcDbCircle
 62
7
  6
BYLAYER
 10
316.1874486073
 20
85.9342065273
 40
0.5
100
AcDbArc
 50
180.0
 51
268.8357968818
  0
ARC
  5
357
100
AcDbEntity
  8
0
100
AcDbCircle
 62
7
  6
BYLAYER
 10
358.8874486073
 20
83.8343166658
 40
1.0
100
AcDbArc
 50
247.6323509956
 51
270.0
  0
ARC
  5
358
100
AcDbEntity
  8
0
100
AcDbCircle
 62
7
  6
BYLAYER
 10
359.8879236473
 20
83.8343166658
 40
1.0
100
AcDbArc
 50
247.6323509956
 51
270.0
  0
ARC
  5
359
100
AcDbEntity
  8
0
100
AcDbCircle
 62
7
  6
BYLAYER
 10
364.4879236473
 20
83.8343166658
 40
1.0
100
AcDbArc
 50
270.0
 51
360.0
  0
ARC
  5
35A
100
AcDbEntity
  8
0
100
AcDbCircle
 62
7
  6
BYLAYER
 10
364.1988536311
 20
83.9342065273
 40
1.0
100
AcDbArc
 50
270.0
 51
360.0
  0
ARC
  5
35B
100
AcDbEntity
  8
0
100
AcDbCircle
 62
7
  6
BYLAYER
 10
364.6874486073
 20
83.9342065273
 40
1.0
100
AcDbArc
 50
290.1402792355
 51
360.0
  0
ARC
  5
35C
100
AcDbEntity
  8
0
100
AcDbCircle
 62
7
  6
BYLAYER
 10
360.6874486073
 20
83.9342065273
 40
1.0
100
AcDbArc
 50
180.0
 51
270.0
  0
ARC
  5
35D
100
AcDbEntity
  8
0
100
AcDbCircle
 62
7
  6
BYLAYER
 10
364.1796079176
 20
83.8446746964
 40
0.9104681691
100
AcDbArc
 50
270.0004837626
 51
271.0800850327
  0
ARC
  5
35E
100
AcDbEntity
  8
0
100
AcDbCircle
 62
7
  6
BYLAYER
 10
365.1874486073
 20
85.9342065273
 40
0.5
100
AcDbArc
 50
271.1642031186
 51
360.0
  0
ARC
  5
35F
100
AcDbEntity
  8
0
100
AcDbCircle
 62
7
  6
BYLAYER
 10
365.5496947371
 20
85.5265222253
 40
0.351195612
100
AcDbArc
 50
168.8863826966
 51
177.9822951798
  0
ARC
  5
360
100
AcDbEntity
  8
0
100
AcDbCircle
 62
7
  6
BYLAYER
 10
322.4881764184
 20
1055.5343166658
 40
1.0
100
AcDbArc
 50
67.6076884452
 51
90.0
  0
ARC
  5
361
100
AcDbEntity
  8
0
100
AcDbCircle
 62
7
  6
BYLAYER
 10
321.4881764184
 20
1055.5343166658
 40
1.0
100
AcDbArc
 50
67.6076884452
 51
90.0
  0
ARC
  5
362
100
AcDbEntity
  8
0
100
AcDbCircle
 62
7
  6
BYLAYER
 10
316.8881764184
 20
1055.5343166658
 40
1.0
100
AcDbArc
 50
90.0
 51
180.0
  0
ARC
  5
363
100
AcDbEntity
  8
0
100
AcDbCircle
 62
7
  6
BYLAYER
 10
317.1767713946
 20
1055.4343166658
 40
1.0
100
AcDbArc
 50
90.0
 51
180.0
  0
ARC
  5
364
100
AcDbEntity
  8
0
100
AcDbCircle
 62
7
  6
BYLAYER
 10
316.6881764184
 20
1055.4343166658
 40
1.0
100
AcDbArc
 50
110.1126910722
 51
179.9999999999
  0
ARC
  5
365
100
AcDbEntity
  8
0
100
AcDbCircle
 62
7
  6
BYLAYER
 10
320.6881764184
 20
1055.4343166658
 40
1.0
100
AcDbArc
 50
0.0
 51
90.0
  0
ARC
  5
366
100
AcDbEntity
  8
0
100
AcDbCircle
 62
7
  6
BYLAYER
 10
317.1960171081
 20
1055.5238484979
 40
0.910468168
100
AcDbArc
 50
90.0004837622
 51
91.0800850336
  0
ARC
  5
367
100
AcDbEntity
  8
0
100
AcDbCircle
 62
7
  6
BYLAYER
 10
316.1881764184
 20
1053.4343166658
 40
0.5
100
AcDbArc
 50
91.1642031186
 51
180.0
  0
ARC
  5
368
100
AcDbEntity
  8
0
100
AcDbCircle
 62
7
  6
BYLAYER
 10
323.6881940808
 20
1052.9343168486
 40
0.4999999534
100
AcDbArc
 50
102.1571786862
 51
282.1569797606
  0
ARC
  5
369
100
AcDbEntity
  8
0
100
AcDbCircle
 62
7
  6
BYLAYER
 10
339.6881587559
 20
1052.9343168486
 40
0.4999999534
100
AcDbArc
 50
257.8430202394
 51
77.8428213138
  0
ARC
  5
36A
100
AcDbEntity
  8
0
100
AcDbCircle
 62
7
  6
BYLAYER
 10
315.8259302883
 20
1053.8420009679
 40
0.3511956123
100
AcDbArc
 50
348.8863826993
 51
357.9822949638
  0
ARC
  5
36B
100
AcDbEntity
  8
0
100
AcDbCircle
 62
7
  6
BYLAYER
 10
335.5114164184
 20
1064.1343166658
 40
0.3
100
AcDbArc
 50
0.0
 51
90.0
  0
ARC
  5
36C
100
AcDbEntity
  8
0
100
AcDbCircle
 62
7
  6
BYLAYER
 10
327.8614164184
 20
1064.1343166658
 40
0.3
100
AcDbArc
 50
90.0
 51
180.0
  0
ARC
  5
36D
100
AcDbEntity
  8
0
100
AcDbCircle
 62
7
  6
BYLAYER
 10
358.8881764184
 20
1055.5343166658
 40
1.0
100
AcDbArc
 50
90.0
 51
112.3923115548
  0
ARC
  5
36E
100
AcDbEntity
  8
0
100
AcDbCircle
 62
7
  6
BYLAYER
 10
364.4881764184
 20
1055.5343166658
 40
1.0
100
AcDbArc
 50
0.0
 51
90.0
  0
ARC
  5
36F
100
AcDbEntity
  8
0
100
AcDbCircle
 62
7
  6
BYLAYER
 10
359.8881764184
 20
1055.5343166658
 40
1.0
100
AcDbArc
 50
90.0
 51
112.3923115548
  0
ARC
  5
370
100
AcDbEntity
  8
0
100
AcDbCircle
 62
7
  6
BYLAYER
 10
364.1995814421
 20
1055.4343166658
 40
1.0
100
AcDbArc
 50
0.0
 51
90.0
  0
ARC
  5
371
100
AcDbEntity
  8
0
100
AcDbCircle
 62
7
  6
BYLAYER
 10
364.6881764184
 20
1055.4343166658
 40
1.0
100
AcDbArc
 50
0.0000000001
 51
69.8873089279
  0
ARC
  5
372
100
AcDbEntity
  8
0
100
AcDbCircle
 62
7
  6
BYLAYER
 10
360.6881764184
 20
1055.4343166658
 40
1.0
100
AcDbArc
 50
90.0
 51
180.0
  0
ARC
  5
373
100
AcDbEntity
  8
0
100
AcDbCircle
 62
7
  6
BYLAYER
 10
364.1803356553
 20
1055.5229922317
 40
0.9113244342
100
AcDbArc
 50
88.9031685204
 51
89.9995120824
  0
ARC
  5
374
100
AcDbEntity
  8
0
100
AcDbCircle
 62
7
  6
BYLAYER
 10
365.1881764184
 20
1053.4343166658
 40
0.5
100
AcDbArc
 50
0.0
 51
88.8357968818
  0
ARC
  5
375
100
AcDbEntity
  8
0
100
AcDbCircle
 62
7
  6
BYLAYER
 10
341.6881940803
 20
1052.9343168488
 40
0.4999999532
100
AcDbArc
 50
102.1804098124
 51
282.180210997
  0
ARC
  5
376
100
AcDbEntity
  8
0
100
AcDbCircle
 62
7
  6
BYLAYER
 10
357.6881587565
 20
1052.9343168488
 40
0.4999999532
100
AcDbArc
 50
257.819789003
 51
77.8195901876
  0
ARC
  5
377
100
AcDbEntity
  8
0
100
AcDbCircle
 62
7
  6
BYLAYER
 10
470.1365794987
 20
83.8343166658
 40
1.0
100
AcDbArc
 50
270.0
 51
292.3676490041
  0
ARC
  5
378
100
AcDbEntity
  8
0
100
AcDbCircle
 62
7
  6
BYLAYER
 10
464.5370545388
 20
83.8343166658
 40
1.0
100
AcDbArc
 50
180.0
 51
270.0
  0
ARC
  5
379
100
AcDbEntity
  8
0
100
AcDbCircle
 62
7
  6
BYLAYER
 10
469.1370545388
 20
83.8343166658
 40
1.0
100
AcDbArc
 50
270.0
 51
292.3676490044
  0
ARC
  5
37A
100
AcDbEntity
  8
0
100
AcDbCircle
 62
7
  6
BYLAYER
 10
464.8251744721
 20
83.9342065273
 40
1.0
100
AcDbArc
 50
180.0
 51
270.0
  0
ARC
  5
37B
100
AcDbEntity
  8
0
100
AcDbCircle
 62
7
  6
BYLAYER
 10
468.3365794959
 20
83.9342065273
 40
1.0
100
AcDbArc
 50
270.0
 51
360.0
  0
ARC
  5
37C
100
AcDbEntity
  8
0
100
AcDbCircle
 62
7
  6
BYLAYER
 10
464.3365794959
 20
83.9342065273
 40
1.0
100
AcDbArc
 50
180.0
 51
249.9315512352
  0
ARC
  5
37D
100
AcDbEntity
  8
0
100
AcDbCircle
 62
7
  6
BYLAYER
 10
464.8444202589
 20
83.8455309593
 40
0.911324432
100
AcDbArc
 50
268.9031685192
 51
269.9995120839
  0
ARC
  5
37E
100
AcDbEntity
  8
0
100
AcDbCircle
 62
7
  6
BYLAYER
 10
463.8365794959
 20
85.9342065273
 40
0.5
100
AcDbArc
 50
180.0
 51
268.8357968818
  0
ARC
  5
37F
100
AcDbEntity
  8
0
100
AcDbCircle
 62
7
  6
BYLAYER
 10
506.5365794959
 20
83.8343166658
 40
1.0
100
AcDbArc
 50
247.6323509959
 51
270.0
  0
ARC
  5
380
100
AcDbEntity
  8
0
100
AcDbCircle
 62
7
  6
BYLAYER
 10
507.5370545358
 20
83.8343166658
 40
1.0
100
AcDbArc
 50
247.6323509956
 51
270.0
  0
ARC
  5
381
100
AcDbEntity
  8
0
100
AcDbCircle
 62
7
  6
BYLAYER
 10
512.1370545358
 20
83.8343166658
 40
1.0
100
AcDbArc
 50
270.0
 51
360.0
  0
ARC
  5
382
100
AcDbEntity
  8
0
100
AcDbCircle
 62
7
  6
BYLAYER
 10
511.8479845196
 20
83.9342065273
 40
1.0
100
AcDbArc
 50
270.0
 51
360.0
  0
ARC
  5
383
100
AcDbEntity
  8
0
100
AcDbCircle
 62
7
  6
BYLAYER
 10
512.3365794959
 20
83.9342065273
 40
1.0
100
AcDbArc
 50
290.1402792356
 51
360.0
  0
ARC
  5
384
100
AcDbEntity
  8
0
100
AcDbCircle
 62
7
  6
BYLAYER
 10
508.3365794959
 20
83.9342065273
 40
1.0
100
AcDbArc
 50
180.0
 51
270.0
  0
ARC
  5
385
100
AcDbEntity
  8
0
100
AcDbCircle
 62
7
  6
BYLAYER
 10
511.8287388061
 20
83.8446746965
 40
0.9104681692
100
AcDbArc
 50
270.0004837627
 51
271.0800850326
  0
ARC
  5
386
100
AcDbEntity
  8
0
100
AcDbCircle
 62
7
  6
BYLAYER
 10
512.8365794959
 20
85.9342065273
 40
0.5
100
AcDbArc
 50
271.1642031186
 51
360.0
  0
ARC
  5
387
100
AcDbEntity
  8
0
100
AcDbCircle
 62
7
  6
BYLAYER
 10
513.1988256256
 20
85.5265222253
 40
0.351195612
100
AcDbArc
 50
168.8863826959
 51
177.9822951969
  0
ARC
  5
388
100
AcDbEntity
  8
0
100
AcDbCircle
 62
7
  6
BYLAYER
 10
470.1373073069
 20
1055.5343166658
 40
1.0
100
AcDbArc
 50
67.6076884452
 51
90.0
  0
ARC
  5
389
100
AcDbEntity
  8
0
100
AcDbCircle
 62
7
  6
BYLAYER
 10
469.1373073069
 20
1055.5343166658
 40
1.0
100
AcDbArc
 50
67.6076884452
 51
90.0
  0
ARC
  5
38A
100
AcDbEntity
  8
0
100
AcDbCircle
 62
7
  6
BYLAYER
 10
464.5373073069
 20
1055.5343166658
 40
1.0
100
AcDbArc
 50
90.0
 51
180.0
  0
ARC
  5
38B
100
AcDbEntity
  8
0
100
AcDbCircle
 62
7
  6
BYLAYER
 10
464.8259022832
 20
1055.4343166658
 40
1.0
100
AcDbArc
 50
90.0
 51
180.0
  0
ARC
  5
38C
100
AcDbEntity
  8
0
100
AcDbCircle
 62
7
  6
BYLAYER
 10
464.3373073069
 20
1055.4343166658
 40
1.0
100
AcDbArc
 50
110.1126910722
 51
179.9999999999
  0
ARC
  5
38D
100
AcDbEntity
  8
0
100
AcDbCircle
 62
7
  6
BYLAYER
 10
468.3373073069
 20
1055.4343166658
 40
1.0
100
AcDbArc
 50
0.0
 51
90.0
  0
ARC
  5
38E
100
AcDbEntity
  8
0
100
AcDbCircle
 62
7
  6
BYLAYER
 10
464.8451479966
 20
1055.5238484979
 40
0.910468168
100
AcDbArc
 50
90.0004837622
 51
91.0800850336
  0
ARC
  5
38F
100
AcDbEntity
  8
0
100
AcDbCircle
 62
7
  6
BYLAYER
 10
463.8373073069
 20
1053.4343166658
 40
0.5
100
AcDbArc
 50
91.1642031186
 51
180.0
  0
ARC
  5
390
100
AcDbEntity
  8
0
100
AcDbCircle
 62
7
  6
BYLAYER
 10
471.3373249693
 20
1052.9343168486
 40
0.4999999534
100
AcDbArc
 50
102.1571786862
 51
282.1569797606
  0
ARC
  5
391
100
AcDbEntity
  8
0
100
AcDbCircle
 62
7
  6
BYLAYER
 10
487.3372896444
 20
1052.9343168486
 40
0.4999999534
100
AcDbArc
 50
257.8430202394
 51
77.8428213138
  0
ARC
  5
392
100
AcDbEntity
  8
0
100
AcDbCircle
 62
7
  6
BYLAYER
 10
463.4750611768
 20
1053.8420009679
 40
0.3511956123
100
AcDbArc
 50
348.8863826992
 51
357.9822949895
  0
ARC
  5
393
100
AcDbEntity
  8
0
100
AcDbCircle
 62
7
  6
BYLAYER
 10
483.1605473069
 20
1064.1343166658
 40
0.3
100
AcDbArc
 50
0.0000000001
 51
90.0
  0
ARC
  5
394
100
AcDbEntity
  8
0
100
AcDbCircle
 62
7
  6
BYLAYER
 10
475.5105473069
 20
1064.1343166658
 40
0.3
100
AcDbArc
 50
90.0
 51
180.0
  0
ARC
  5
395
100
AcDbEntity
  8
0
100
AcDbCircle
 62
7
  6
BYLAYER
 10
506.5373073069
 20
1055.5343166658
 40
1.0
100
AcDbArc
 50
90.0
 51
112.3923115548
  0
ARC
  5
396
100
AcDbEntity
  8
0
100
AcDbCircle
 62
7
  6
BYLAYER
 10
512.1373073069
 20
1055.5343166658
 40
1.0
100
AcDbArc
 50
0.0
 51
90.0
  0
ARC
  5
397
100
AcDbEntity
  8
0
100
AcDbCircle
 62
7
  6
BYLAYER
 10
507.5373073069
 20
1055.5343166658
 40
1.0
100
AcDbArc
 50
90.0
 51
112.3923115548
  0
ARC
  5
398
100
AcDbEntity
  8
0
100
AcDbCircle
 62
7
  6
BYLAYER
 10
511.8487123306
 20
1055.4343166658
 40
1.0
100
AcDbArc
 50
0.0
 51
90.0
  0
ARC
  5
399
100
AcDbEntity
  8
0
100
AcDbCircle
 62
7
  6
BYLAYER
 10
512.3373073069
 20
1055.4343166658
 40
1.0
100
AcDbArc
 50
0.0000000001
 51
69.8873089278
  0
ARC
  5
39A
100
AcDbEntity
  8
0
100
AcDbCircle
 62
7
  6
BYLAYER
 10
508.3373073069
 20
1055.4343166658
 40
1.0
100
AcDbArc
 50
90.0
 51
180.0
  0
ARC
  5
39B
100
AcDbEntity
  8
0
100
AcDbCircle
 62
7
  6
BYLAYER
 10
511.8294665438
 20
1055.5229922334
 40
0.9113244325
100
AcDbArc
 50
88.9031685198
 51
89.9995120839
  0
ARC
  5
39C
100
AcDbEntity
  8
0
100
AcDbCircle
 62
7
  6
BYLAYER
 10
512.8373073069
 20
1053.4343166658
 40
0.5
100
AcDbArc
 50
0.0
 51
88.8357968818
  0
ARC
  5
39D
100
AcDbEntity
  8
0
100
AcDbCircle
 62
7
  6
BYLAYER
 10
489.3373249688
 20
1052.9343168488
 40
0.4999999532
100
AcDbArc
 50
102.1804098123
 51
282.180210997
  0
ARC
  5
39E
100
AcDbEntity
  8
0
100
AcDbCircle
 62
7
  6
BYLAYER
 10
505.337289645
 20
1052.9343168488
 40
0.4999999532
100
AcDbArc
 50
257.819789003
 51
77.8195901876
  0
SPLINE
  5
39F
100
AcDbEntity
  8
0
100
AcDbSpline
 62
7
  6
BYLAYER
 70
0
 71
3
 72
11
 73
7
 74
0
 42
0.0000001
 43
0.0000001
 44
0.0000000001
 40
0.0
 40
0.0
 40
0.0
 40
0.0
 40
0.288432907
 40
0.5554725908
 40
0.7902209526
 40
1.0
 40
1.0
 40
1.0
 40
1.0
 10
481.715083388
 20
1064.1343166658
 30
0.0
 10
481.715083388
 20
1064.173258332
 30
0.0
 10
481.7046859045
 20
1064.2487487012
 30
0.0
 10
481.6591019138
 20
1064.3471476547
 30
0.0
 10
481.5886528329
 20
1064.4165132064
 30
0.0
 10
481.5278957104
 20
1064.4343176312
 30
0.0
 10
481.4995731944
 20
1064.4343166658
 30
0.0
  0
SPLINE
  5
3A0
100
AcDbEntity
  8
0
100
AcDbSpline
 62
7
  6
BYLAYER
 70
0
 71
3
 72
11
 73
7
 74
0
 42
0.0000001
 43
0.0000001
 44
0.0000000001
 40
0.0
 40
0.0
 40
0.0
 40
0.0
 40
0.2883671583
 40
0.5553852791
 40
0.7902445524
 40
1.0
 40
1.0
 40
1.0
 40
1.0
 10
482.7050328817
 20
1064.1343166658
 30
0.0
 10
482.7050328817
 20
1064.1732373719
 30
0.0
 10
482.6945932216
 20
1064.248695696
 30
0.0
 10
482.64892091
 20
1064.3470114787
 30
0.0
 10
482.5785603641
 20
1064.4163886174
 30
0.0
 10
482.5178332285
 20
1064.4343176308
 30
0.0
 10
482.489522688
 20
1064.4343166658
 30
0.0
  0
SPLINE
  5
3A1
100
AcDbEntity
  8
0
100
AcDbSpline
 62
7
  6
BYLAYER
 70
0
 71
3
 72
8
 73
4
 74
0
 42
0.0000001
 43
0.0000001
 44
0.0000000001
 40
0.0
 40
0.0
 40
0.0
 40
0.0
 40
1.0
 40
1.0
 40
1.0
 40
1.0
 10
512.854216027
 20
85.5942169993
 30
0.0
 10
512.8635128788
 20
85.6417497984
 30
0.0
 10
512.8826638915
 20
85.6882243368
 30
0.0
 10
512.9093180916
 20
85.7286638232
 30
0.0
  0
SPLINE
  5
3A2
100
AcDbEntity
  8
0
100
AcDbSpline
 62
7
  6
BYLAYER
 70
0
 71
3
 72
9
 73
5
 74
0
 42
0.0000001
 43
0.0000001
 44
0.0000000001
 40
0.0
 40
0.0
 40
0.0
 40
0.0
 40
0.2423551149
 40
1.0
 40
1.0
 40
1.0
 40
1.0
 10
512.847988531
 20
85.5495190295
 30
0.0
 10
512.8479975496
 20
85.581004699
 30
0.0
 10
512.8427925493
 20
85.710905979
 30
0.0
 10
512.8178033976
 20
85.839705874
 30
0.0
 10
512.7902704141
 20
85.9342064233
 30
0.0
  0
SPLINE
  5
3A3
100
AcDbEntity
  8
0
100
AcDbSpline
 62
7
  6
BYLAYER
 70
0
 71
3
 72
11
 73
7
 74
0
 42
0.0000001
 43
0.0000001
 44
0.0000000001
 40
0.0
 40
0.0
 40
0.0
 40
0.0
 40
0.2455000837
 40
0.4935877931
 40
0.7454492783
 40
1.0
 40
1.0
 40
1.0
 40
1.0
 10
464.8269755486
 20
82.9343735072
 30
0.0
 10
464.7031236537
 20
82.9367437326
 30
0.0
 10
464.4522712048
 20
82.9929701962
 30
0.0
 10
464.139095961
 20
83.2180383245
 30
0.0
 10
463.9311227184
 20
83.5476321724
 30
0.0
 10
463.8828885507
 20
83.8057651782
 30
0.0
 10
463.8828885507
 20
83.9342065273
 30
0.0
  0
SPLINE
  5
3A4
100
AcDbEntity
  8
0
100
AcDbSpline
 62
7
  6
BYLAYER
 70
0
 71
3
 72
11
 73
7
 74
0
 42
0.0000001
 43
0.0000001
 44
0.0000000001
 40
0.0
 40
0.0
 40
0.0
 40
0.0
 40
0.2370154222
 40
0.4817461593
 40
0.7371748139
 40
1.0
 40
1.0
 40
1.0
 40
1.0
 10
467.9949387093
 20
82.9342065273
 30
0.0
 10
468.1118249921
 20
82.9342065273
 30
0.0
 10
468.3523664417
 20
82.9884752626
 30
0.0
 10
468.6491549967
 20
83.2151222816
 30
0.0
 10
468.8444385771
 20
83.5466246351
 30
0.0
 10
468.8893659003
 20
83.8045919279
 30
0.0
 10
468.8893659003
 20
83.9342065273
 30
0.0
  0
SPLINE
  5
3A5
100
AcDbEntity
  8
0
100
AcDbSpline
 62
7
  6
BYLAYER
 70
0
 71
3
 72
11
 73
7
 74
0
 42
0.0000001
 43
0.0000001
 44
0.0000000001
 40
0.0
 40
0.0
 40
0.0
 40
0.0
 40
0.2429770416
 40
0.4900484521
 40
0.7429376142
 40
1.0
 40
1.0
 40
1.0
 40
1.0
 10
468.336578619
 20
82.9342065273
 30
0.0
 10
468.4596710881
 20
82.9342136755
 30
0.0
 10
468.7108367813
 20
82.9869619142
 30
0.0
 10
469.025533774
 20
83.210886027
 30
0.0
 10
469.235131353
 20
83.5429876727
 30
0.0
 10
469.2838111138
 20
83.8039784053
 30
0.0
 10
469.2838119331
 20
83.9342065273
 30
0.0
  0
SPLINE
  5
3A6
100
AcDbEntity
  8
0
100
AcDbSpline
 62
7
  6
BYLAYER
 70
0
 71
3
 72
11
 73
7
 74
0
 42
0.0000001
 43
0.0000001
 44
0.0000000001
 40
0.0
 40
0.0
 40
0.0
 40
0.0
 40
0.2570642536
 40
0.5099515937
 40
0.7570212812
 40
1.0
 40
1.0
 40
1.0
 40
1.0
 10
507.3893469705
 20
83.9342065273
 30
0.0
 10
507.3893478018
 20
83.803977444
 30
0.0
 10
507.4380277648
 20
83.5429865391
 30
0.0
 10
507.6476255769
 20
83.2108862034
 30
0.0
 10
507.9623211948
 20
82.9869620875
 30
0.0
 10
508.2134870289
 20
82.9342135873
 30
0.0
 10
508.3365803618
 20
82.9342065273
 30
0.0
  0
SPLINE
  5
3A7
100
AcDbEntity
  8
0
100
AcDbSpline
 62
7
  6
BYLAYER
 70
0
 71
3
 72
11
 73
7
 74
0
 42
0.0000001
 43
0.0000001
 44
0.0000000001
 40
0.0
 40
0.0
 40
0.0
 40
0.0
 40
0.2627344212
 40
0.5180975916
 40
0.762900959
 40
1.0
 40
1.0
 40
1.0
 40
1.0
 10
507.7837930913
 20
83.9342065273
 30
0.0
 10
507.7837930913
 20
83.8046367598
 30
0.0
 10
507.8286891933
 20
83.546748736
 30
0.0
 10
508.0238898931
 20
83.2152535989
 30
0.0
 10
508.3206722369
 20
82.9885156477
 30
0.0
 10
508.5612928258
 20
82.9342065273
 30
0.0
 10
508.6782202823
 20
82.9342065273
 30
0.0
  0
SPLINE
  5
3A8
100
AcDbEntity
  8
0
100
AcDbSpline
 62
7
  6
BYLAYER
 70
0
 71
3
 72
11
 73
7
 74
0
 42
0.0000001
 43
0.0000001
 44
0.0000000001
 40
0.0
 40
0.0
 40
0.0
 40
0.0
 40
0.2544641196
 40
0.5062554122
 40
0.7544085347
 40
1.0
 40
1.0
 40
1.0
 40
1.0
 10
512.790270441
 20
83.9342065273
 30
0.0
 10
512.790270441
 20
83.8057854748
 30
0.0
 10
512.7420528602
 20
83.5476852538
 30
0.0
 10
512.5340904965
 20
83.2180594108
 30
0.0
 10
512.2208199969
 20
82.9929114367
 30
0.0
 10
511.9698223261
 20
82.9367036219
 30
0.0
 10
511.8459010615
 20
82.9343682953
 30
0.0
  0
SPLINE
  5
3A9
100
AcDbEntity
  8
0
100
AcDbSpline
 62
7
  6
BYLAYER
 70
0
 71
3
 72
9
 73
5
 74
0
 42
0.0000001
 43
0.0000001
 44
0.0000000001
 40
0.0
 40
0.0
 40
0.0
 40
0.0
 40
0.2703934266
 40
1.0
 40
1.0
 40
1.0
 40
1.0
 10
512.790270441
 20
85.9342065273
 30
0.0
 10
512.8034347575
 20
85.9172691964
 30
0.0
 10
512.8501336372
 20
85.8531909965
 30
0.0
 10
512.8891381444
 20
85.7829154609
 30
0.0
 10
512.9093180916
 20
85.7286638233
 30
0.0
  0
SPLINE
  5
3AA
100
AcDbEntity
  8
0
100
AcDbSpline
 62
7
  6
BYLAYER
 70
0
 71
3
 72
11
 73
7
 74
0
 42
0.0000001
 43
0.0000001
 44
0.0000000001
 40
0.0
 40
0.0
 40
0.0
 40
0.0
 40
0.2454646712
 40
0.49351694
 40
0.7453862235
 40
1.0
 40
1.0
 40
1.0
 40
1.0
 10
510.789500618
 20
82.9342065273
 30
0.0
 10
510.9147559349
 20
82.9342065273
 30
0.0
 10
511.1695059776
 20
82.9869436422
 30
0.0
 10
511.4889825166
 20
83.211015749
 30
0.0
 10
511.7016521432
 20
83.5431364432
 30
0.0
 10
511.7510245656
 20
83.8042826197
 30
0.0
 10
511.7510245656
 20
83.9342065273
 30
0.0
  0
SPLINE
  5
3AB
100
AcDbEntity
  8
0
100
AcDbSpline
 62
7
  6
BYLAYER
 70
0
 71
3
 72
9
 73
5
 74
0
 42
0.0000001
 43
0.0000001
 44
0.0000000001
 40
0.0
 40
0.0
 40
0.0
 40
0.0
 40
0.2799425407
 40
1.0
 40
1.0
 40
1.0
 40
1.0
 10
512.9093179781
 20
85.7286636176
 30
0.0
 10
512.9143441194
 20
85.7137315917
 30
0.0
 10
512.9298094457
 20
85.659873577
 30
0.0
 10
512.9329217318
 20
85.6004455077
 30
0.0
 10
512.9214877633
 20
85.5615669623
 30
0.0
  0
SPLINE
  5
3AC
100
AcDbEntity
  8
0
100
AcDbSpline
 62
7
  6
BYLAYER
 70
0
 71
3
 72
8
 73
4
 74
0
 42
0.0000001
 43
0.0000001
 44
0.0000000001
 40
0.0
 40
0.0
 40
0.0
 40
0.0
 40
1.0
 40
1.0
 40
1.0
 40
1.0
 10
512.9214877633
 20
85.5615669623
 30
0.0
 10
512.9164936593
 20
85.5445856756
 30
0.0
 10
512.9088077047
 20
85.5281514679
 30
0.0
 10
512.8987782589
 20
85.5135667024
 30
0.0
  0
SPLINE
  5
3AD
100
AcDbEntity
  8
0
100
AcDbSpline
 62
7
  6
BYLAYER
 70
0
 71
3
 72
8
 73
4
 74
0
 42
0.0000001
 43
0.0000001
 44
0.0000000001
 40
0.0
 40
0.0
 40
0.0
 40
0.0
 40
1.0
 40
1.0
 40
1.0
 40
1.0
 10
512.8987782589
 20
85.5135667024
 30
0.0
 10
512.8857383278
 20
85.4946041056
 30
0.0
 10
512.8681638092
 20
85.4782605225
 30
0.0
 10
512.848591406
 20
85.4661551142
 30
0.0
  0
SPLINE
  5
3AE
100
AcDbEntity
  8
0
100
AcDbSpline
 62
7
  6
BYLAYER
 70
0
 71
3
 72
8
 73
4
 74
0
 42
0.0000001
 43
0.0000001
 44
0.0000000001
 40
0.0
 40
0.0
 40
0.0
 40
0.0
 40
1.0
 40
1.0
 40
1.0
 40
1.0
 10
512.9518189723
 20
85.9342065273
 30
0.0
 10
512.9518189723
 20
85.8642429431
 30
0.0
 10
512.9371505479
 20
85.7928530552
 30
0.0
 10
512.9093180916
 20
85.7286638233
 30
0.0
  0
SPLINE
  5
3AF
100
AcDbEntity
  8
0
100
AcDbSpline
 62
7
  6
BYLAYER
 70
0
 71
3
 72
9
 73
5
 74
0
 42
0.0000001
 43
0.0000001
 44
0.0000000001
 40
0.0
 40
0.0
 40
0.0
 40
0.0
 40
0.2581441243
 40
1.0
 40
1.0
 40
1.0
 40
1.0
 10
463.8828885884
 20
85.9342063815
 30
0.0
 10
463.8735089812
 20
85.9020130591
 30
0.0
 10
463.8411276123
 20
85.7762260952
 30
0.0
 10
463.8251439959
 20
85.6458966882
 30
0.0
 10
463.8251704591
 20
85.5495326045
 30
0.0
  0
SPLINE
  5
3B0
100
AcDbEntity
  8
0
100
AcDbSpline
 62
7
  6
BYLAYER
 70
0
 71
3
 72
8
 73
4
 74
0
 42
0.0000001
 43
0.0000001
 44
0.0000000001
 40
0.0
 40
0.0
 40
0.0
 40
0.0
 40
1.0
 40
1.0
 40
1.0
 40
1.0
 10
463.7638409001
 20
85.7286638232
 30
0.0
 10
463.7985505207
 20
85.6760027332
 30
0.0
 10
463.8206543125
 20
85.6124686405
 30
0.0
 10
463.824780169
 20
85.5495327566
 30
0.0
  0
SPLINE
  5
3B1
100
AcDbEntity
  8
0
100
AcDbSpline
 62
7
  6
BYLAYER
 70
0
 71
3
 72
9
 73
5
 74
0
 42
0.0000001
 43
0.0000001
 44
0.0000000001
 40
0.0
 40
0.0
 40
0.0
 40
0.0
 40
0.27038548
 40
1.0
 40
1.0
 40
1.0
 40
1.0
 10
463.8828885507
 20
85.9342065273
 30
0.0
 10
463.869724602
 20
85.9172696769
 30
0.0
 10
463.823021401
 20
85.8531944421
 30
0.0
 10
463.7840210983
 20
85.782916113
 30
0.0
 10
463.7638409001
 20
85.7286638233
 30
0.0
  0
SPLINE
  5
3B2
100
AcDbEntity
  8
0
100
AcDbSpline
 62
7
  6
BYLAYER
 70
0
 71
3
 72
8
 73
4
 74
0
 42
0.0000001
 43
0.0000001
 44
0.0000000001
 40
0.0
 40
0.0
 40
0.0
 40
0.0
 40
1.0
 40
1.0
 40
1.0
 40
1.0
 10
463.7638409001
 20
85.7286638233
 30
0.0
 10
463.7360084438
 20
85.7928530552
 30
0.0
 10
463.7213400194
 20
85.8642429431
 30
0.0
 10
463.7213400194
 20
85.9342065273
 30
0.0
  0
SPLINE
  5
3B3
100
AcDbEntity
  8
0
100
AcDbSpline
 62
7
  6
BYLAYER
 70
0
 71
3
 72
9
 73
5
 74
0
 42
0.0000001
 43
0.0000001
 44
0.0000000001
 40
0.0
 40
0.0
 40
0.0
 40
0.0
 40
0.2666839678
 40
1.0
 40
1.0
 40
1.0
 40
1.0
 10
463.8251234379
 20
85.4658126912
 30
0.0
 10
463.8158920733
 20
85.4714769614
 30
0.0
 10
463.7830877515
 20
85.4956602129
 30
0.0
 10
463.7602993349
 20
85.5325321059
 30
0.0
 10
463.7518153108
 20
85.56107963
 30
0.0
  0
SPLINE
  5
3B4
100
AcDbEntity
  8
0
100
AcDbSpline
 62
7
  6
BYLAYER
 70
0
 71
3
 72
9
 73
5
 74
0
 42
0.0000001
 43
0.0000001
 44
0.0000000001
 40
0.0
 40
0.0
 40
0.0
 40
0.0
 40
0.2268944865
 40
1.0
 40
1.0
 40
1.0
 40
1.0
 10
463.7518153108
 20
85.56107963
 30
0.0
 10
463.7481599352
 20
85.5733794441
 30
0.0
 10
463.737987305
 20
85.6294374808
 30
0.0
 10
463.7498933478
 20
85.6872268461
 30
0.0
 10
463.7638410195
 20
85.7286636069
 30
0.0
  0
SPLINE
  5
3B5
100
AcDbEntity
  8
0
100
AcDbSpline
 62
7
  6
BYLAYER
 70
0
 71
3
 72
11
 73
7
 74
0
 42
0.0000001
 43
0.0000001
 44
0.0000000001
 40
0.0
 40
0.0
 40
0.0
 40
0.0
 40
0.2545253123
 40
0.5063269197
 40
0.7544493833
 40
1.0
 40
1.0
 40
1.0
 40
1.0
 10
464.9221344261
 20
83.9342065273
 30
0.0
 10
464.9221344261
 20
83.804327786
 30
0.0
 10
464.9714718177
 20
83.5432636699
 30
0.0
 10
465.1840523407
 20
83.2111461733
 30
0.0
 10
465.5035271511
 20
82.9869820046
 30
0.0
 10
465.7583592247
 20
82.9342065273
 30
0.0
 10
465.8836583737
 20
82.9342065273
 30
0.0
  0
SPLINE
  5
3B6
100
AcDbEntity
  8
0
100
AcDbSpline
 62
7
  6
BYLAYER
 70
0
 71
3
 72
8
 73
4
 74
0
 42
0.0000001
 43
0.0000001
 44
0.0000000001
 40
0.0
 40
0.0
 40
0.0
 40
0.0
 40
1.0
 40
1.0
 40
1.0
 40
1.0
 10
365.2050851385
 20
85.5942169993
 30
0.0
 10
365.2143819902
 20
85.6417497984
 30
0.0
 10
365.233533003
 20
85.6882243368
 30
0.0
 10
365.2601872031
 20
85.7286638232
 30
0.0
  0
SPLINE
  5
3B7
100
AcDbEntity
  8
0
100
AcDbSpline
 62
7
  6
BYLAYER
 70
0
 71
3
 72
9
 73
5
 74
0
 42
0.0000001
 43
0.0000001
 44
0.0000000001
 40
0.0
 40
0.0
 40
0.0
 40
0.0
 40
0.2423551149
 40
1.0
 40
1.0
 40
1.0
 40
1.0
 10
365.1988576425
 20
85.5495190291
 30
0.0
 10
365.1988666611
 20
85.5810046987
 30
0.0
 10
365.1936616609
 20
85.7109059788
 30
0.0
 10
365.1686725091
 20
85.839705874
 30
0.0
 10
365.1411395256
 20
85.9342064233
 30
0.0
  0
SPLINE
  5
3B8
100
AcDbEntity
  8
0
100
AcDbSpline
 62
7
  6
BYLAYER
 70
0
 71
3
 72
11
 73
7
 74
0
 42
0.0000001
 43
0.0000001
 44
0.0000000001
 40
0.0
 40
0.0
 40
0.0
 40
0.0
 40
0.2455000837
 40
0.4935877931
 40
0.7454492783
 40
1.0
 40
1.0
 40
1.0
 40
1.0
 10
317.1778446601
 20
82.9343735072
 30
0.0
 10
317.0539927652
 20
82.9367437326
 30
0.0
 10
316.8031403163
 20
82.9929701962
 30
0.0
 10
316.4899650724
 20
83.2180383245
 30
0.0
 10
316.2819918299
 20
83.5476321724
 30
0.0
 10
316.2337576621
 20
83.8057651782
 30
0.0
 10
316.2337576621
 20
83.9342065273
 30
0.0
  0
SPLINE
  5
3B9
100
AcDbEntity
  8
0
100
AcDbSpline
 62
7
  6
BYLAYER
 70
0
 71
3
 72
11
 73
7
 74
0
 42
0.0000001
 43
0.0000001
 44
0.0000000001
 40
0.0
 40
0.0
 40
0.0
 40
0.0
 40
0.2370154222
 40
0.4817461593
 40
0.7371748139
 40
1.0
 40
1.0
 40
1.0
 40
1.0
 10
320.3458078208
 20
82.9342065273
 30
0.0
 10
320.4626941035
 20
82.9342065273
 30
0.0
 10
320.7032355532
 20
82.9884752626
 30
0.0
 10
321.0000241082
 20
83.2151222816
 30
0.0
 10
321.1953076886
 20
83.5466246351
 30
0.0
 10
321.2402350118
 20
83.8045919279
 30
0.0
 10
321.2402350118
 20
83.9342065273
 30
0.0
  0
SPLINE
  5
3BA
100
AcDbEntity
  8
0
100
AcDbSpline
 62
7
  6
BYLAYER
 70
0
 71
3
 72
11
 73
7
 74
0
 42
0.0000001
 43
0.0000001
 44
0.0000000001
 40
0.0
 40
0.0
 40
0.0
 40
0.0
 40
0.2429770416
 40
0.4900484521
 40
0.7429376142
 40
1.0
 40
1.0
 40
1.0
 40
1.0
 10
320.6874477305
 20
82.9342065273
 30
0.0
 10
320.8105401996
 20
82.9342136755
 30
0.0
 10
321.0617058928
 20
82.9869619142
 30
0.0
 10
321.3764028854
 20
83.210886027
 30
0.0
 10
321.5860004644
 20
83.5429876727
 30
0.0
 10
321.6346802253
 20
83.8039784053
 30
0.0
 10
321.6346810446
 20
83.9342065273
 30
0.0
  0
SPLINE
  5
3BB
100
AcDbEntity
  8
0
100
AcDbSpline
 62
7
  6
BYLAYER
 70
0
 71
3
 72
11
 73
7
 74
0
 42
0.0000001
 43
0.0000001
 44
0.0000000001
 40
0.0
 40
0.0
 40
0.0
 40
0.0
 40
0.2570642536
 40
0.5099515937
 40
0.7570212812
 40
1.0
 40
1.0
 40
1.0
 40
1.0
 10
359.740216082
 20
83.9342065273
 30
0.0
 10
359.7402169133
 20
83.803977444
 30
0.0
 10
359.7888968763
 20
83.5429865391
 30
0.0
 10
359.9984946884
 20
83.2108862034
 30
0.0
 10
360.3131903063
 20
82.9869620875
 30
0.0
 10
360.5643561403
 20
82.9342135873
 30
0.0
 10
360.6874494733
 20
82.9342065273
 30
0.0
  0
SPLINE
  5
3BC
100
AcDbEntity
  8
0
100
AcDbSpline
 62
7
  6
BYLAYER
 70
0
 71
3
 72
11
 73
7
 74
0
 42
0.0000001
 43
0.0000001
 44
0.0000000001
 40
0.0
 40
0.0
 40
0.0
 40
0.0
 40
0.2627344212
 40
0.5180975916
 40
0.762900959
 40
1.0
 40
1.0
 40
1.0
 40
1.0
 10
360.1346622028
 20
83.9342065273
 30
0.0
 10
360.1346622028
 20
83.8046367598
 30
0.0
 10
360.1795583047
 20
83.546748736
 30
0.0
 10
360.3747590046
 20
83.2152535989
 30
0.0
 10
360.6715413483
 20
82.9885156477
 30
0.0
 10
360.9121619373
 20
82.9342065273
 30
0.0
 10
361.0290893938
 20
82.9342065273
 30
0.0
  0
SPLINE
  5
3BD
100
AcDbEntity
  8
0
100
AcDbSpline
 62
7
  6
BYLAYER
 70
0
 71
3
 72
11
 73
7
 74
0
 42
0.0000001
 43
0.0000001
 44
0.0000000001
 40
0.0
 40
0.0
 40
0.0
 40
0.0
 40
0.2544641196
 40
0.5062554122
 40
0.7544085347
 40
1.0
 40
1.0
 40
1.0
 40
1.0
 10
365.1411395525
 20
83.9342065273
 30
0.0
 10
365.1411395525
 20
83.8057854748
 30
0.0
 10
365.0929219717
 20
83.5476852538
 30
0.0
 10
364.884959608
 20
83.2180594108
 30
0.0
 10
364.5716891084
 20
82.9929114367
 30
0.0
 10
364.3206914376
 20
82.9367036219
 30
0.0
 10
364.196770173
 20
82.9343682953
 30
0.0
  0
SPLINE
  5
3BE
100
AcDbEntity
  8
0
100
AcDbSpline
 62
7
  6
BYLAYER
 70
0
 71
3
 72
9
 73
5
 74
0
 42
0.0000001
 43
0.0000001
 44
0.0000000001
 40
0.0
 40
0.0
 40
0.0
 40
0.0
 40
0.2703934266
 40
1.0
 40
1.0
 40
1.0
 40
1.0
 10
365.1411395525
 20
85.9342065273
 30
0.0
 10
365.1543038689
 20
85.9172691964
 30
0.0
 10
365.2010027487
 20
85.8531909965
 30
0.0
 10
365.2400072559
 20
85.7829154609
 30
0.0
 10
365.260187203
 20
85.7286638233
 30
0.0
  0
SPLINE
  5
3BF
100
AcDbEntity
  8
0
100
AcDbSpline
 62
7
  6
BYLAYER
 70
0
 71
3
 72
9
 73
5
 74
0
 42
0.0000001
 43
0.0000001
 44
0.0000000001
 40
0.0
 40
0.0
 40
0.0
 40
0.0
 40
0.2799425407
 40
1.0
 40
1.0
 40
1.0
 40
1.0
 10
365.2601870896
 20
85.7286636176
 30
0.0
 10
365.2652132309
 20
85.7137315917
 30
0.0
 10
365.2806785572
 20
85.659873577
 30
0.0
 10
365.2837908433
 20
85.6004455077
 30
0.0
 10
365.2723568747
 20
85.5615669623
 30
0.0
  0
SPLINE
  5
3C0
100
AcDbEntity
  8
0
100
AcDbSpline
 62
7
  6
BYLAYER
 70
0
 71
3
 72
8
 73
4
 74
0
 42
0.0000001
 43
0.0000001
 44
0.0000000001
 40
0.0
 40
0.0
 40
0.0
 40
0.0
 40
1.0
 40
1.0
 40
1.0
 40
1.0
 10
365.2723568747
 20
85.5615669623
 30
0.0
 10
365.2673627708
 20
85.5445856756
 30
0.0
 10
365.2596768162
 20
85.5281514679
 30
0.0
 10
365.2496473704
 20
85.5135667023
 30
0.0
  0
SPLINE
  5
3C1
100
AcDbEntity
  8
0
100
AcDbSpline
 62
7
  6
BYLAYER
 70
0
 71
3
 72
8
 73
4
 74
0
 42
0.0000001
 43
0.0000001
 44
0.0000000001
 40
0.0
 40
0.0
 40
0.0
 40
0.0
 40
1.0
 40
1.0
 40
1.0
 40
1.0
 10
365.2496473704
 20
85.5135667023
 30
0.0
 10
365.2366074393
 20
85.4946041056
 30
0.0
 10
365.2190329207
 20
85.4782605225
 30
0.0
 10
365.1994605174
 20
85.4661551142
 30
0.0
  0
SPLINE
  5
3C2
100
AcDbEntity
  8
0
100
AcDbSpline
 62
7
  6
BYLAYER
 70
0
 71
3
 72
11
 73
7
 74
0
 42
0.0000001
 43
0.0000001
 44
0.0000000001
 40
0.0
 40
0.0
 40
0.0
 40
0.0
 40
0.2454646712
 40
0.49351694
 40
0.7453862235
 40
1.0
 40
1.0
 40
1.0
 40
1.0
 10
363.1403697295
 20
82.9342065273
 30
0.0
 10
363.2656250464
 20
82.9342065273
 30
0.0
 10
363.5203750891
 20
82.9869436422
 30
0.0
 10
363.8398516281
 20
83.211015749
 30
0.0
 10
364.0525212547
 20
83.5431364432
 30
0.0
 10
364.1018936771
 20
83.8042826197
 30
0.0
 10
364.1018936771
 20
83.9342065273
 30
0.0
  0
SPLINE
  5
3C3
100
AcDbEntity
  8
0
100
AcDbSpline
 62
7
  6
BYLAYER
 70
0
 71
3
 72
8
 73
4
 74
0
 42
0.0000001
 43
0.0000001
 44
0.0000000001
 40
0.0
 40
0.0
 40
0.0
 40
0.0
 40
1.0
 40
1.0
 40
1.0
 40
1.0
 10
365.3026880837
 20
85.9342065273
 30
0.0
 10
365.3026880837
 20
85.8642429431
 30
0.0
 10
365.2880196594
 20
85.7928530552
 30
0.0
 10
365.260187203
 20
85.7286638233
 30
0.0
  0
SPLINE
  5
3C4
100
AcDbEntity
  8
0
100
AcDbSpline
 62
7
  6
BYLAYER
 70
0
 71
3
 72
9
 73
5
 74
0
 42
0.0000001
 43
0.0000001
 44
0.0000000001
 40
0.0
 40
0.0
 40
0.0
 40
0.0
 40
0.2581441243
 40
1.0
 40
1.0
 40
1.0
 40
1.0
 10
316.2337576999
 20
85.9342063815
 30
0.0
 10
316.2243780926
 20
85.902013059
 30
0.0
 10
316.1919967237
 20
85.776226095
 30
0.0
 10
316.1760131073
 20
85.645896688
 30
0.0
 10
316.1760395706
 20
85.5495326042
 30
0.0
  0
SPLINE
  5
3C5
100
AcDbEntity
  8
0
100
AcDbSpline
 62
7
  6
BYLAYER
 70
0
 71
3
 72
8
 73
4
 74
0
 42
0.0000001
 43
0.0000001
 44
0.0000000001
 40
0.0
 40
0.0
 40
0.0
 40
0.0
 40
1.0
 40
1.0
 40
1.0
 40
1.0
 10
316.1147100116
 20
85.7286638232
 30
0.0
 10
316.1494196323
 20
85.6760027331
 30
0.0
 10
316.171523424
 20
85.6124686403
 30
0.0
 10
316.1756492805
 20
85.5495327563
 30
0.0
  0
SPLINE
  5
3C6
100
AcDbEntity
  8
0
100
AcDbSpline
 62
7
  6
BYLAYER
 70
0
 71
3
 72
9
 73
5
 74
0
 42
0.0000001
 43
0.0000001
 44
0.0000000001
 40
0.0
 40
0.0
 40
0.0
 40
0.0
 40
0.27038548
 40
1.0
 40
1.0
 40
1.0
 40
1.0
 10
316.2337576622
 20
85.9342065273
 30
0.0
 10
316.2205937135
 20
85.9172696769
 30
0.0
 10
316.1738905124
 20
85.8531944421
 30
0.0
 10
316.1348902097
 20
85.782916113
 30
0.0
 10
316.1147100116
 20
85.7286638233
 30
0.0
  0
SPLINE
  5
3C7
100
AcDbEntity
  8
0
100
AcDbSpline
 62
7
  6
BYLAYER
 70
0
 71
3
 72
8
 73
4
 74
0
 42
0.0000001
 43
0.0000001
 44
0.0000000001
 40
0.0
 40
0.0
 40
0.0
 40
0.0
 40
1.0
 40
1.0
 40
1.0
 40
1.0
 10
316.1147100116
 20
85.7286638233
 30
0.0
 10
316.0868775553
 20
85.7928530552
 30
0.0
 10
316.0722091309
 20
85.8642429431
 30
0.0
 10
316.0722091309
 20
85.9342065273
 30
0.0
  0
SPLINE
  5
3C8
100
AcDbEntity
  8
0
100
AcDbSpline
 62
7
  6
BYLAYER
 70
0
 71
3
 72
9
 73
5
 74
0
 42
0.0000001
 43
0.0000001
 44
0.0000000001
 40
0.0
 40
0.0
 40
0.0
 40
0.0
 40
0.2666839678
 40
1.0
 40
1.0
 40
1.0
 40
1.0
 10
316.1759925493
 20
85.4658126912
 30
0.0
 10
316.1667611848
 20
85.4714769614
 30
0.0
 10
316.133956863
 20
85.4956602129
 30
0.0
 10
316.1111684464
 20
85.5325321059
 30
0.0
 10
316.1026844222
 20
85.56107963
 30
0.0
  0
SPLINE
  5
3C9
100
AcDbEntity
  8
0
100
AcDbSpline
 62
7
  6
BYLAYER
 70
0
 71
3
 72
9
 73
5
 74
0
 42
0.0000001
 43
0.0000001
 44
0.0000000001
 40
0.0
 40
0.0
 40
0.0
 40
0.0
 40
0.2268944865
 40
1.0
 40
1.0
 40
1.0
 40
1.0
 10
316.1026844222
 20
85.56107963
 30
0.0
 10
316.0990290467
 20
85.5733794441
 30
0.0
 10
316.0888564165
 20
85.6294374808
 30
0.0
 10
316.1007624592
 20
85.6872268461
 30
0.0
 10
316.114710131
 20
85.7286636069
 30
0.0
  0
SPLINE
  5
3CA
100
AcDbEntity
  8
0
100
AcDbSpline
 62
7
  6
BYLAYER
 70
0
 71
3
 72
11
 73
7
 74
0
 42
0.0000001
 43
0.0000001
 44
0.0000000001
 40
0.0
 40
0.0
 40
0.0
 40
0.0
 40
0.2545253123
 40
0.5063269197
 40
0.7544493833
 40
1.0
 40
1.0
 40
1.0
 40
1.0
 10
317.2730035376
 20
83.9342065273
 30
0.0
 10
317.2730035376
 20
83.804327786
 30
0.0
 10
317.3223409292
 20
83.5432636699
 30
0.0
 10
317.5349214522
 20
83.2111461733
 30
0.0
 10
317.8543962626
 20
82.9869820046
 30
0.0
 10
318.1092283362
 20
82.9342065273
 30
0.0
 10
318.2345274852
 20
82.9342065273
 30
0.0
  0
SPLINE
  5
3CB
100
AcDbEntity
  8
0
100
AcDbSpline
 62
7
  6
BYLAYER
 70
0
 71
3
 72
8
 73
4
 74
0
 42
0.0000001
 43
0.0000001
 44
0.0000000001
 40
0.0
 40
0.0
 40
0.0
 40
0.0
 40
1.0
 40
1.0
 40
1.0
 40
1.0
 10
316.1705398872
 20
1053.7743061938
 30
0.0
 10
316.1612430355
 20
1053.7267733948
 30
0.0
 10
316.1420920227
 20
1053.6802988564
 30
0.0
 10
316.1154378226
 20
1053.63985937
 30
0.0
  0
SPLINE
  5
3CC
100
AcDbEntity
  8
0
100
AcDbSpline
 62
7
  6
BYLAYER
 70
0
 71
3
 72
9
 73
5
 74
0
 42
0.0000001
 43
0.0000001
 44
0.0000000001
 40
0.0
 40
0.0
 40
0.0
 40
0.0
 40
0.2581441241
 40
1.0
 40
1.0
 40
1.0
 40
1.0
 10
365.1418673258
 20
1053.4343168116
 30
0.0
 10
365.1512469328
 20
1053.4665101333
 30
0.0
 10
365.183628301
 20
1053.5922970941
 30
0.0
 10
365.1996119176
 20
1053.7226264978
 30
0.0
 10
365.1995854551
 20
1053.8189905793
 30
0.0
  0
SPLINE
  5
3CD
100
AcDbEntity
  8
0
100
AcDbSpline
 62
7
  6
BYLAYER
 70
0
 71
3
 72
8
 73
4
 74
0
 42
0.0000001
 43
0.0000001
 44
0.0000000001
 40
0.0
 40
0.0
 40
0.0
 40
0.0
 40
1.0
 40
1.0
 40
1.0
 40
1.0
 10
365.2609150141
 20
1053.6398593699
 30
0.0
 10
365.2262053951
 20
1053.6925204575
 30
0.0
 10
365.2041016039
 20
1053.7560545465
 30
0.0
 10
365.1999757458
 20
1053.8189904272
 30
0.0
  0
SPLINE
  5
3CE
100
AcDbEntity
  8
0
100
AcDbSpline
 62
7
  6
BYLAYER
 70
0
 71
3
 72
9
 73
5
 74
0
 42
0.0000001
 43
0.0000001
 44
0.0000000001
 40
0.0
 40
0.0
 40
0.0
 40
0.0
 40
0.27038548
 40
1.0
 40
1.0
 40
1.0
 40
1.0
 10
365.1418673635
 20
1053.4343166658
 30
0.0
 10
365.1550313122
 20
1053.4512535162
 30
0.0
 10
365.2017345133
 20
1053.515328751
 30
0.0
 10
365.2407348159
 20
1053.5856070801
 30
0.0
 10
365.2609150141
 20
1053.6398593698
 30
0.0
  0
SPLINE
  5
3CF
100
AcDbEntity
  8
0
100
AcDbSpline
 62
7
  6
BYLAYER
 70
0
 71
3
 72
9
 73
5
 74
0
 42
0.0000001
 43
0.0000001
 44
0.0000000001
 40
0.0
 40
0.0
 40
0.0
 40
0.0
 40
0.2666839678
 40
1.0
 40
1.0
 40
1.0
 40
1.0
 10
365.1996324764
 20
1053.902710502
 30
0.0
 10
365.2088638409
 20
1053.8970462317
 30
0.0
 10
365.2416681627
 20
1053.8728629803
 30
0.0
 10
365.2644565793
 20
1053.8359910872
 30
0.0
 10
365.2729406035
 20
1053.8074435632
 30
0.0
  0
SPLINE
  5
3D0
100
AcDbEntity
  8
0
100
AcDbSpline
 62
7
  6
BYLAYER
 70
0
 71
3
 72
9
 73
5
 74
0
 42
0.0000001
 43
0.0000001
 44
0.0000000001
 40
0.0
 40
0.0
 40
0.0
 40
0.0
 40
0.2268944865
 40
1.0
 40
1.0
 40
1.0
 40
1.0
 10
365.2729406035
 20
1053.8074435632
 30
0.0
 10
365.276595979
 20
1053.795143749
 30
0.0
 10
365.2867686092
 20
1053.7390857123
 30
0.0
 10
365.2748625665
 20
1053.6812963471
 30
0.0
 10
365.2609148947
 20
1053.6398595863
 30
0.0
  0
SPLINE
  5
3D1
100
AcDbEntity
  8
0
100
AcDbSpline
 62
7
  6
BYLAYER
 70
0
 71
3
 72
8
 73
4
 74
0
 42
0.0000001
 43
0.0000001
 44
0.0000000001
 40
0.0
 40
0.0
 40
0.0
 40
0.0
 40
1.0
 40
1.0
 40
1.0
 40
1.0
 10
365.2609150141
 20
1053.6398593698
 30
0.0
 10
365.2887474704
 20
1053.575670138
 30
0.0
 10
365.3034158948
 20
1053.50428025
 30
0.0
 10
365.3034158948
 20
1053.4343166658
 30
0.0
  0
SPLINE
  5
3D2
100
AcDbEntity
  8
0
100
AcDbSpline
 62
7
  6
BYLAYER
 70
0
 71
3
 72
9
 73
5
 74
0
 42
0.0000001
 43
0.0000001
 44
0.0000000001
 40
0.0
 40
0.0
 40
0.0
 40
0.0
 40
0.242355115
 40
1.0
 40
1.0
 40
1.0
 40
1.0
 10
316.1767673832
 20
1053.8190041633
 30
0.0
 10
316.1767583646
 20
1053.7875184938
 30
0.0
 10
316.1819633649
 20
1053.6576172139
 30
0.0
 10
316.2069525167
 20
1053.528817319
 30
0.0
 10
316.2344855001
 20
1053.4343167699
 30
0.0
  0
SPLINE
  5
3D3
100
AcDbEntity
  8
0
100
AcDbSpline
 62
7
  6
BYLAYER
 70
0
 71
3
 72
11
 73
7
 74
0
 42
0.0000001
 43
0.0000001
 44
0.0000000001
 40
0.0
 40
0.0
 40
0.0
 40
0.0
 40
0.2545253123
 40
0.5063269197
 40
0.7544493833
 40
1.0
 40
1.0
 40
1.0
 40
1.0
 10
364.1026214881
 20
1055.4343166658
 30
0.0
 10
364.1026214881
 20
1055.5641954072
 30
0.0
 10
364.0532840965
 20
1055.8252595233
 30
0.0
 10
363.8407035735
 20
1056.1573770199
 30
0.0
 10
363.5212287631
 20
1056.3815411885
 30
0.0
 10
363.2663966895
 20
1056.4343166658
 30
0.0
 10
363.1410975405
 20
1056.4343166658
 30
0.0
  0
SPLINE
  5
3D4
100
AcDbEntity
  8
0
100
AcDbSpline
 62
7
  6
BYLAYER
 70
0
 71
3
 72
9
 73
5
 74
0
 42
0.0000001
 43
0.0000001
 44
0.0000000001
 40
0.0
 40
0.0
 40
0.0
 40
0.0
 40
0.2799425408
 40
1.0
 40
1.0
 40
1.0
 40
1.0
 10
316.1154379361
 20
1053.6398595755
 30
0.0
 10
316.1104117948
 20
1053.6547916015
 30
0.0
 10
316.0949464685
 20
1053.7086496162
 30
0.0
 10
316.0918341824
 20
1053.7680776854
 30
0.0
 10
316.1032681509
 20
1053.8069562308
 30
0.0
  0
SPLINE
  5
3D5
100
AcDbEntity
  8
0
100
AcDbSpline
 62
7
  6
BYLAYER
 70
0
 71
3
 72
8
 73
4
 74
0
 42
0.0000001
 43
0.0000001
 44
0.0000000001
 40
0.0
 40
0.0
 40
0.0
 40
0.0
 40
1.0
 40
1.0
 40
1.0
 40
1.0
 10
316.1032681509
 20
1053.8069562308
 30
0.0
 10
316.1082622549
 20
1053.8239375175
 30
0.0
 10
316.1159482095
 20
1053.8403717252
 30
0.0
 10
316.1259776553
 20
1053.8549564908
 30
0.0
  0
SPLINE
  5
3D6
100
AcDbEntity
  8
0
100
AcDbSpline
 62
7
  6
BYLAYER
 70
0
 71
3
 72
8
 73
4
 74
0
 42
0.0000001
 43
0.0000001
 44
0.0000000001
 40
0.0
 40
0.0
 40
0.0
 40
0.0
 40
1.0
 40
1.0
 40
1.0
 40
1.0
 10
316.1259776553
 20
1053.8549564908
 30
0.0
 10
316.1390175864
 20
1053.8739190875
 30
0.0
 10
316.156592105
 20
1053.8902626707
 30
0.0
 10
316.1761645082
 20
1053.9023680789
 30
0.0
  0
SPLINE
  5
3D7
100
AcDbEntity
  8
0
100
AcDbSpline
 62
7
  6
BYLAYER
 70
0
 71
3
 72
11
 73
7
 74
0
 42
0.0000001
 43
0.0000001
 44
0.0000000001
 40
0.0
 40
0.0
 40
0.0
 40
0.0
 40
0.2454646712
 40
0.49351694
 40
0.7453862235
 40
1.0
 40
1.0
 40
1.0
 40
1.0
 10
318.2352552962
 20
1056.4343166658
 30
0.0
 10
318.1099999793
 20
1056.4343166658
 30
0.0
 10
317.8552499366
 20
1056.3815795509
 30
0.0
 10
317.5357733976
 20
1056.1575074442
 30
0.0
 10
317.323103771
 20
1055.82538675
 30
0.0
 10
317.2737313486
 20
1055.5642405734
 30
0.0
 10
317.2737313486
 20
1055.4343166658
 30
0.0
  0
SPLINE
  5
3D8
100
AcDbEntity
  8
0
100
AcDbSpline
 62
7
  6
BYLAYER
 70
0
 71
3
 72
9
 73
5
 74
0
 42
0.0000001
 43
0.0000001
 44
0.0000000001
 40
0.0
 40
0.0
 40
0.0
 40
0.0
 40
0.2703934266
 40
1.0
 40
1.0
 40
1.0
 40
1.0
 10
316.2344854732
 20
1053.4343166658
 30
0.0
 10
316.2213211567
 20
1053.4512539968
 30
0.0
 10
316.174622277
 20
1053.5153321966
 30
0.0
 10
316.1356177698
 20
1053.5856077322
 30
0.0
 10
316.1154378227
 20
1053.6398593698
 30
0.0
  0
SPLINE
  5
3D9
100
AcDbEntity
  8
0
100
AcDbSpline
 62
7
  6
BYLAYER
 70
0
 71
3
 72
11
 73
7
 74
0
 42
0.0000001
 43
0.0000001
 44
0.0000000001
 40
0.0
 40
0.0
 40
0.0
 40
0.0
 40
0.2544641196
 40
0.5062554122
 40
0.7544085347
 40
1.0
 40
1.0
 40
1.0
 40
1.0
 10
316.2344854732
 20
1055.4343166658
 30
0.0
 10
316.2344854732
 20
1055.5627377184
 30
0.0
 10
316.282703054
 20
1055.8208379394
 30
0.0
 10
316.4906654177
 20
1056.1504637824
 30
0.0
 10
316.8039359173
 20
1056.3756117564
 30
0.0
 10
317.0549335881
 20
1056.4318195712
 30
0.0
 10
317.1788548527
 20
1056.4341548979
 30
0.0
  0
SPLINE
  5
3DA
100
AcDbEntity
  8
0
100
AcDbSpline
 62
7
  6
BYLAYER
 70
0
 71
3
 72
11
 73
7
 74
0
 42
0.0000001
 43
0.0000001
 44
0.0000000001
 40
0.0
 40
0.0
 40
0.0
 40
0.0
 40
0.2627344212
 40
0.5180975916
 40
0.762900959
 40
1.0
 40
1.0
 40
1.0
 40
1.0
 10
321.2409628229
 20
1055.4343166658
 30
0.0
 10
321.2409628229
 20
1055.5638864334
 30
0.0
 10
321.196066721
 20
1055.8217744571
 30
0.0
 10
321.0008660211
 20
1056.1532695942
 30
0.0
 10
320.7040836774
 20
1056.3800075455
 30
0.0
 10
320.4634630884
 20
1056.4343166658
 30
0.0
 10
320.3465356319
 20
1056.4343166658
 30
0.0
  0
SPLINE
  5
3DB
100
AcDbEntity
  8
0
100
AcDbSpline
 62
7
  6
BYLAYER
 70
0
 71
3
 72
11
 73
7
 74
0
 42
0.0000001
 43
0.0000001
 44
0.0000000001
 40
0.0
 40
0.0
 40
0.0
 40
0.0
 40
0.2570642536
 40
0.5099515937
 40
0.7570212812
 40
1.0
 40
1.0
 40
1.0
 40
1.0
 10
321.6354089437
 20
1055.4343166658
 30
0.0
 10
321.6354081124
 20
1055.5645457491
 30
0.0
 10
321.5867281494
 20
1055.8255366541
 30
0.0
 10
321.3771303373
 20
1056.1576369898
 30
0.0
 10
321.0624347194
 20
1056.3815611056
 30
0.0
 10
320.8112688854
 20
1056.4343096059
 30
0.0
 10
320.6881755524
 20
1056.4343166658
 30
0.0
  0
SPLINE
  5
3DC
100
AcDbEntity
  8
0
100
AcDbSpline
 62
7
  6
BYLAYER
 70
0
 71
3
 72
11
 73
7
 74
0
 42
0.0000001
 43
0.0000001
 44
0.0000000001
 40
0.0
 40
0.0
 40
0.0
 40
0.0
 40
0.2429770416
 40
0.4900484521
 40
0.7429376142
 40
1.0
 40
1.0
 40
1.0
 40
1.0
 10
360.6881772952
 20
1056.4343166658
 30
0.0
 10
360.5650848261
 20
1056.4343095176
 30
0.0
 10
360.3139191329
 20
1056.3815612789
 30
0.0
 10
359.9992221403
 20
1056.1576371662
 30
0.0
 10
359.7896245613
 20
1055.8255355205
 30
0.0
 10
359.7409448004
 20
1055.5645447879
 30
0.0
 10
359.7409439811
 20
1055.4343166658
 30
0.0
  0
SPLINE
  5
3DD
100
AcDbEntity
  8
0
100
AcDbSpline
 62
7
  6
BYLAYER
 70
0
 71
3
 72
11
 73
7
 74
0
 42
0.0000001
 43
0.0000001
 44
0.0000000001
 40
0.0
 40
0.0
 40
0.0
 40
0.0
 40
0.2370154222
 40
0.4817461593
 40
0.7371748139
 40
1.0
 40
1.0
 40
1.0
 40
1.0
 10
361.0298172049
 20
1056.4343166658
 30
0.0
 10
360.9129309222
 20
1056.4343166658
 30
0.0
 10
360.6723894725
 20
1056.3800479306
 30
0.0
 10
360.3756009175
 20
1056.1534009116
 30
0.0
 10
360.1803173371
 20
1055.8218985581
 30
0.0
 10
360.1353900139
 20
1055.5639312653
 30
0.0
 10
360.1353900139
 20
1055.4343166658
 30
0.0
  0
SPLINE
  5
3DE
100
AcDbEntity
  8
0
100
AcDbSpline
 62
7
  6
BYLAYER
 70
0
 71
3
 72
11
 73
7
 74
0
 42
0.0000001
 43
0.0000001
 44
0.0000000001
 40
0.0
 40
0.0
 40
0.0
 40
0.0
 40
0.2455000837
 40
0.4935877931
 40
0.7454492783
 40
1.0
 40
1.0
 40
1.0
 40
1.0
 10
364.1977803656
 20
1056.4341496859
 30
0.0
 10
364.3216322605
 20
1056.4317794605
 30
0.0
 10
364.5724847094
 20
1056.3755529969
 30
0.0
 10
364.8856599533
 20
1056.1504848687
 30
0.0
 10
365.0936331958
 20
1055.8208910208
 30
0.0
 10
365.1418673635
 20
1055.562758015
 30
0.0
 10
365.1418673635
 20
1055.4343166658
 30
0.0
  0
SPLINE
  5
3DF
100
AcDbEntity
  8
0
100
AcDbSpline
 62
7
  6
BYLAYER
 70
0
 71
3
 72
8
 73
4
 74
0
 42
0.0000001
 43
0.0000001
 44
0.0000000001
 40
0.0
 40
0.0
 40
0.0
 40
0.0
 40
1.0
 40
1.0
 40
1.0
 40
1.0
 10
316.072936942
 20
1053.4343166658
 30
0.0
 10
316.072936942
 20
1053.50428025
 30
0.0
 10
316.0876053663
 20
1053.575670138
 30
0.0
 10
316.1154378227
 20
1053.6398593698
 30
0.0
  0
SPLINE
  5
3E0
100
AcDbEntity
  8
0
100
AcDbSpline
 62
7
  6
BYLAYER
 70
0
 71
3
 72
8
 73
4
 74
0
 42
0.0000001
 43
0.0000001
 44
0.0000000001
 40
0.0
 40
0.0
 40
0.0
 40
0.0
 40
1.0
 40
1.0
 40
1.0
 40
1.0
 10
463.8196707757
 20
1053.7743061938
 30
0.0
 10
463.810373924
 20
1053.7267733948
 30
0.0
 10
463.7912229112
 20
1053.6802988564
 30
0.0
 10
463.7645687111
 20
1053.63985937
 30
0.0
  0
SPLINE
  5
3E1
100
AcDbEntity
  8
0
100
AcDbSpline
 62
7
  6
BYLAYER
 70
0
 71
3
 72
9
 73
5
 74
0
 42
0.0000001
 43
0.0000001
 44
0.0000000001
 40
0.0
 40
0.0
 40
0.0
 40
0.0
 40
0.2581441241
 40
1.0
 40
1.0
 40
1.0
 40
1.0
 10
512.7909982143
 20
1053.4343168116
 30
0.0
 10
512.8003778214
 20
1053.4665101334
 30
0.0
 10
512.8327591897
 20
1053.5922970946
 30
0.0
 10
512.8487428062
 20
1053.7226264985
 30
0.0
 10
512.8487163436
 20
1053.8189905803
 30
0.0
  0
SPLINE
  5
3E2
100
AcDbEntity
  8
0
100
AcDbSpline
 62
7
  6
BYLAYER
 70
0
 71
3
 72
8
 73
4
 74
0
 42
0.0000001
 43
0.0000001
 44
0.0000000001
 40
0.0
 40
0.0
 40
0.0
 40
0.0
 40
1.0
 40
1.0
 40
1.0
 40
1.0
 10
512.9100459026
 20
1053.6398593699
 30
0.0
 10
512.8753362835
 20
1053.6925204577
 30
0.0
 10
512.8532324922
 20
1053.7560545471
 30
0.0
 10
512.8491066343
 20
1053.8189904282
 30
0.0
  0
SPLINE
  5
3E3
100
AcDbEntity
  8
0
100
AcDbSpline
 62
7
  6
BYLAYER
 70
0
 71
3
 72
9
 73
5
 74
0
 42
0.0000001
 43
0.0000001
 44
0.0000000001
 40
0.0
 40
0.0
 40
0.0
 40
0.0
 40
0.27038548
 40
1.0
 40
1.0
 40
1.0
 40
1.0
 10
512.7909982521
 20
1053.4343166658
 30
0.0
 10
512.8041622007
 20
1053.4512535162
 30
0.0
 10
512.8508654018
 20
1053.515328751
 30
0.0
 10
512.8898657045
 20
1053.5856070801
 30
0.0
 10
512.9100459026
 20
1053.6398593698
 30
0.0
  0
SPLINE
  5
3E4
100
AcDbEntity
  8
0
100
AcDbSpline
 62
7
  6
BYLAYER
 70
0
 71
3
 72
9
 73
5
 74
0
 42
0.0000001
 43
0.0000001
 44
0.0000000001
 40
0.0
 40
0.0
 40
0.0
 40
0.0
 40
0.2666839678
 40
1.0
 40
1.0
 40
1.0
 40
1.0
 10
512.8487633649
 20
1053.902710502
 30
0.0
 10
512.8579947294
 20
1053.8970462317
 30
0.0
 10
512.8907990513
 20
1053.8728629803
 30
0.0
 10
512.9135874678
 20
1053.8359910872
 30
0.0
 10
512.922071492
 20
1053.8074435632
 30
0.0
  0
SPLINE
  5
3E5
100
AcDbEntity
  8
0
100
AcDbSpline
 62
7
  6
BYLAYER
 70
0
 71
3
 72
9
 73
5
 74
0
 42
0.0000001
 43
0.0000001
 44
0.0000000001
 40
0.0
 40
0.0
 40
0.0
 40
0.0
 40
0.2268944865
 40
1.0
 40
1.0
 40
1.0
 40
1.0
 10
512.922071492
 20
1053.8074435632
 30
0.0
 10
512.9257268675
 20
1053.795143749
 30
0.0
 10
512.9358994977
 20
1053.7390857123
 30
0.0
 10
512.923993455
 20
1053.6812963471
 30
0.0
 10
512.9100457832
 20
1053.6398595863
 30
0.0
  0
SPLINE
  5
3E6
100
AcDbEntity
  8
0
100
AcDbSpline
 62
7
  6
BYLAYER
 70
0
 71
3
 72
8
 73
4
 74
0
 42
0.0000001
 43
0.0000001
 44
0.0000000001
 40
0.0
 40
0.0
 40
0.0
 40
0.0
 40
1.0
 40
1.0
 40
1.0
 40
1.0
 10
512.9100459026
 20
1053.6398593698
 30
0.0
 10
512.937878359
 20
1053.575670138
 30
0.0
 10
512.9525467833
 20
1053.50428025
 30
0.0
 10
512.9525467833
 20
1053.4343166658
 30
0.0
  0
SPLINE
  5
3E7
100
AcDbEntity
  8
0
100
AcDbSpline
 62
7
  6
BYLAYER
 70
0
 71
3
 72
9
 73
5
 74
0
 42
0.0000001
 43
0.0000001
 44
0.0000000001
 40
0.0
 40
0.0
 40
0.0
 40
0.0
 40
0.242355115
 40
1.0
 40
1.0
 40
1.0
 40
1.0
 10
463.8258982717
 20
1053.8190041635
 30
0.0
 10
463.8258892531
 20
1053.787518494
 30
0.0
 10
463.8310942534
 20
1053.657617214
 30
0.0
 10
463.8560834052
 20
1053.5288173191
 30
0.0
 10
463.8836163886
 20
1053.4343167699
 30
0.0
  0
SPLINE
  5
3E8
100
AcDbEntity
  8
0
100
AcDbSpline
 62
7
  6
BYLAYER
 70
0
 71
3
 72
11
 73
7
 74
0
 42
0.0000001
 43
0.0000001
 44
0.0000000001
 40
0.0
 40
0.0
 40
0.0
 40
0.0
 40
0.2545253123
 40
0.5063269197
 40
0.7544493833
 40
1.0
 40
1.0
 40
1.0
 40
1.0
 10
511.7517523766
 20
1055.4343166658
 30
0.0
 10
511.7517523766
 20
1055.5641954072
 30
0.0
 10
511.702414985
 20
1055.8252595233
 30
0.0
 10
511.489834462
 20
1056.1573770199
 30
0.0
 10
511.1703596516
 20
1056.3815411885
 30
0.0
 10
510.915527578
 20
1056.4343166658
 30
0.0
 10
510.790228429
 20
1056.4343166658
 30
0.0
  0
SPLINE
  5
3E9
100
AcDbEntity
  8
0
100
AcDbSpline
 62
7
  6
BYLAYER
 70
0
 71
3
 72
11
 73
7
 74
0
 42
0.0000001
 43
0.0000001
 44
0.0000000001
 40
0.0
 40
0.0
 40
0.0
 40
0.0
 40
0.2454646712
 40
0.49351694
 40
0.7453862235
 40
1.0
 40
1.0
 40
1.0
 40
1.0
 10
465.8843861847
 20
1056.4343166658
 30
0.0
 10
465.7591308679
 20
1056.4343166658
 30
0.0
 10
465.5043808251
 20
1056.3815795509
 30
0.0
 10
465.1849042861
 20
1056.1575074442
 30
0.0
 10
464.9722346595
 20
1055.82538675
 30
0.0
 10
464.9228622371
 20
1055.5642405734
 30
0.0
 10
464.9228622371
 20
1055.4343166658
 30
0.0
  0
SPLINE
  5
3EA
100
AcDbEntity
  8
0
100
AcDbSpline
 62
7
  6
BYLAYER
 70
0
 71
3
 72
9
 73
5
 74
0
 42
0.0000001
 43
0.0000001
 44
0.0000000001
 40
0.0
 40
0.0
 40
0.0
 40
0.0
 40
0.2703934266
 40
1.0
 40
1.0
 40
1.0
 40
1.0
 10
463.8836163617
 20
1053.4343166658
 30
0.0
 10
463.8704520453
 20
1053.4512539968
 30
0.0
 10
463.8237531655
 20
1053.5153321966
 30
0.0
 10
463.7847486583
 20
1053.5856077322
 30
0.0
 10
463.7645687112
 20
1053.6398593698
 30
0.0
  0
SPLINE
  5
3EB
100
AcDbEntity
  8
0
100
AcDbSpline
 62
7
  6
BYLAYER
 70
0
 71
3
 72
11
 73
7
 74
0
 42
0.0000001
 43
0.0000001
 44
0.0000000001
 40
0.0
 40
0.0
 40
0.0
 40
0.0
 40
0.2544641196
 40
0.5062554122
 40
0.7544085347
 40
1.0
 40
1.0
 40
1.0
 40
1.0
 10
463.8836163617
 20
1055.4343166658
 30
0.0
 10
463.8836163617
 20
1055.5627377184
 30
0.0
 10
463.9318339425
 20
1055.8208379394
 30
0.0
 10
464.1397963062
 20
1056.1504637824
 30
0.0
 10
464.4530668058
 20
1056.3756117564
 30
0.0
 10
464.7040644766
 20
1056.4318195712
 30
0.0
 10
464.8279857413
 20
1056.4341548979
 30
0.0
  0
SPLINE
  5
3EC
100
AcDbEntity
  8
0
100
AcDbSpline
 62
7
  6
BYLAYER
 70
0
 71
3
 72
11
 73
7
 74
0
 42
0.0000001
 43
0.0000001
 44
0.0000000001
 40
0.0
 40
0.0
 40
0.0
 40
0.0
 40
0.2627344212
 40
0.5180975916
 40
0.762900959
 40
1.0
 40
1.0
 40
1.0
 40
1.0
 10
468.8900937114
 20
1055.4343166658
 30
0.0
 10
468.8900937114
 20
1055.5638864334
 30
0.0
 10
468.8451976095
 20
1055.8217744571
 30
0.0
 10
468.6499969096
 20
1056.1532695942
 30
0.0
 10
468.3532145659
 20
1056.3800075455
 30
0.0
 10
468.112593977
 20
1056.4343166658
 30
0.0
 10
467.9956665204
 20
1056.4343166658
 30
0.0
  0
SPLINE
  5
3ED
100
AcDbEntity
  8
0
100
AcDbSpline
 62
7
  6
BYLAYER
 70
0
 71
3
 72
11
 73
7
 74
0
 42
0.0000001
 43
0.0000001
 44
0.0000000001
 40
0.0
 40
0.0
 40
0.0
 40
0.0
 40
0.2570642536
 40
0.5099515937
 40
0.7570212812
 40
1.0
 40
1.0
 40
1.0
 40
1.0
 10
469.2845398322
 20
1055.4343166658
 30
0.0
 10
469.2845390009
 20
1055.5645457491
 30
0.0
 10
469.2358590379
 20
1055.8255366541
 30
0.0
 10
469.0262612258
 20
1056.1576369898
 30
0.0
 10
468.7115656079
 20
1056.3815611056
 30
0.0
 10
468.4603997739
 20
1056.4343096059
 30
0.0
 10
468.3373064409
 20
1056.4343166658
 30
0.0
  0
SPLINE
  5
3EE
100
AcDbEntity
  8
0
100
AcDbSpline
 62
7
  6
BYLAYER
 70
0
 71
3
 72
11
 73
7
 74
0
 42
0.0000001
 43
0.0000001
 44
0.0000000001
 40
0.0
 40
0.0
 40
0.0
 40
0.0
 40
0.2429770416
 40
0.4900484521
 40
0.7429376142
 40
1.0
 40
1.0
 40
1.0
 40
1.0
 10
508.3373081837
 20
1056.4343166658
 30
0.0
 10
508.2142157146
 20
1056.4343095176
 30
0.0
 10
507.9630500214
 20
1056.3815612789
 30
0.0
 10
507.6483530288
 20
1056.1576371662
 30
0.0
 10
507.4387554498
 20
1055.8255355205
 30
0.0
 10
507.3900756889
 20
1055.5645447879
 30
0.0
 10
507.3900748697
 20
1055.4343166658
 30
0.0
  0
SPLINE
  5
3EF
100
AcDbEntity
  8
0
100
AcDbSpline
 62
7
  6
BYLAYER
 70
0
 71
3
 72
11
 73
7
 74
0
 42
0.0000001
 43
0.0000001
 44
0.0000000001
 40
0.0
 40
0.0
 40
0.0
 40
0.0
 40
0.2370154222
 40
0.4817461593
 40
0.7371748139
 40
1.0
 40
1.0
 40
1.0
 40
1.0
 10
508.6789480934
 20
1056.4343166658
 30
0.0
 10
508.5620618107
 20
1056.4343166658
 30
0.0
 10
508.321520361
 20
1056.3800479306
 30
0.0
 10
508.024731806
 20
1056.1534009116
 30
0.0
 10
507.8294482257
 20
1055.8218985581
 30
0.0
 10
507.7845209024
 20
1055.5639312653
 30
0.0
 10
507.7845209024
 20
1055.4343166658
 30
0.0
  0
SPLINE
  5
3F0
100
AcDbEntity
  8
0
100
AcDbSpline
 62
7
  6
BYLAYER
 70
0
 71
3
 72
11
 73
7
 74
0
 42
0.0000001
 43
0.0000001
 44
0.0000000001
 40
0.0
 40
0.0
 40
0.0
 40
0.0
 40
0.2455000837
 40
0.4935877931
 40
0.7454492783
 40
1.0
 40
1.0
 40
1.0
 40
1.0
 10
511.8469112541
 20
1056.4341496859
 30
0.0
 10
511.9707631491
 20
1056.4317794605
 30
0.0
 10
512.2216155979
 20
1056.3755529969
 30
0.0
 10
512.5347908418
 20
1056.1504848687
 30
0.0
 10
512.7427640843
 20
1055.8208910208
 30
0.0
 10
512.7909982521
 20
1055.562758015
 30
0.0
 10
512.7909982521
 20
1055.4343166658
 30
0.0
  0
SPLINE
  5
3F1
100
AcDbEntity
  8
0
100
AcDbSpline
 62
7
  6
BYLAYER
 70
0
 71
3
 72
9
 73
5
 74
0
 42
0.0000001
 43
0.0000001
 44
0.0000000001
 40
0.0
 40
0.0
 40
0.0
 40
0.0
 40
0.2799425408
 40
1.0
 40
1.0
 40
1.0
 40
1.0
 10
463.7645688246
 20
1053.6398595755
 30
0.0
 10
463.7595426833
 20
1053.6547916015
 30
0.0
 10
463.744077357
 20
1053.7086496162
 30
0.0
 10
463.7409650709
 20
1053.7680776854
 30
0.0
 10
463.7523990395
 20
1053.8069562308
 30
0.0
  0
SPLINE
  5
3F2
100
AcDbEntity
  8
0
100
AcDbSpline
 62
7
  6
BYLAYER
 70
0
 71
3
 72
8
 73
4
 74
0
 42
0.0000001
 43
0.0000001
 44
0.0000000001
 40
0.0
 40
0.0
 40
0.0
 40
0.0
 40
1.0
 40
1.0
 40
1.0
 40
1.0
 10
463.7523990395
 20
1053.8069562308
 30
0.0
 10
463.7573931434
 20
1053.8239375175
 30
0.0
 10
463.765079098
 20
1053.8403717252
 30
0.0
 10
463.7751085439
 20
1053.8549564908
 30
0.0
  0
SPLINE
  5
3F3
100
AcDbEntity
  8
0
100
AcDbSpline
 62
7
  6
BYLAYER
 70
0
 71
3
 72
8
 73
4
 74
0
 42
0.0000001
 43
0.0000001
 44
0.0000000001
 40
0.0
 40
0.0
 40
0.0
 40
0.0
 40
1.0
 40
1.0
 40
1.0
 40
1.0
 10
463.7751085439
 20
1053.8549564908
 30
0.0
 10
463.7881484749
 20
1053.8739190875
 30
0.0
 10
463.8057229935
 20
1053.8902626707
 30
0.0
 10
463.8252953968
 20
1053.9023680789
 30
0.0
  0
SPLINE
  5
3F4
100
AcDbEntity
  8
0
100
AcDbSpline
 62
7
  6
BYLAYER
 70
0
 71
3
 72
8
 73
4
 74
0
 42
0.0000001
 43
0.0000001
 44
0.0000000001
 40
0.0
 40
0.0
 40
0.0
 40
0.0
 40
1.0
 40
1.0
 40
1.0
 40
1.0
 10
463.7220678305
 20
1053.4343166658
 30
0.0
 10
463.7220678305
 20
1053.50428025
 30
0.0
 10
463.7367362548
 20
1053.575670138
 30
0.0
 10
463.7645687112
 20
1053.6398593698
 30
0.0
  0
ENDSEC
  0
SECTION
  2
OBJECTS
  0
DICTIONARY
  5
C
100
AcDbDictionary
280
0
281
1
  3
ACAD_GROUP
350
D
  3
ACAD_MLINESTYLE
350
17
  3
ACAD_LAYOUT
350
1A
  3
ACAD_PLOTSETTINGS
350
19
  3
ACAD_PLOTSTYLENAME
350
E
  0
DICTIONARY
  5
D
102
{ACAD_REACTORS
330
C
102
}
100
AcDbDictionary
280
0
281
1
  0
ACDBDICTIONARYWDFLT
  5
E
102
{ACAD_REACTORS
330
C
102
}
100
AcDbDictionary
281
1
  3
Normal
350
F
100
AcDbDictionaryWithDefault
340
F
  0
DICTIONARY
  5
17
102
{ACAD_REACTORS
330
C
102
}
100
AcDbDictionary
280
0
281
1
  3
Standard
350
18
  0
DICTIONARY
  5
19
102
{ACAD_REACTORS
330
C
102
}
100
AcDbDictionary
281
1
  0
DICTIONARY
  5
1A
102
{ACAD_REACTORS
330
C
102
}
100
AcDbDictionary
281
1
  3
Model
350
3F5
  3
Layout1
350
3F6
  0
ACDBPLACEHOLDER
  5
F
102
{ACAD_REACTORS
330
E
102
}
  0
MLINESTYLE
  5
18
102
{ACAD_REACTORS
330
17
102
}
100
AcDbMlineStyle
  2
STANDARD
 70
0
  3

 62
256
 51
90.0
 52
90.0
 71
2
 49
0.5
 62
256
  6
BYLAYER
 49
-0.5
 62
256
  6
BYLAYER
  0
LAYOUT
  5
3F5
102
{ACAD_REACTORS
330
1A
102
}
100
AcDbPlotSettings
  1

  2
none_device
  4

  6

 40
0.0
 41
0.0
 42
0.0
 43
0.0
 44
210.0
 45
297.0
 46
0.0
 47
0.0
 48
0.0
 49
0.0
140
0.0
141
0.0
142
1.0
143
1.0
 70
1024
 72
1
 73
0
 74
0
  7

 75
0
147
1.0
148
0.0
149
0.0
100
AcDbLayout
  1
Model
 70
0
 71
0
 10
0.0
 20
0.0
 11
210.0
 21
297.0
 12
0.0
 22
0.0
 32
0.0
 14
0.0
 24
0.0
 34
0.0
 15
0.0
 25
0.0
 35
0.0
146
0.0
 13
0.0
 23
0.0
 33
0.0
 16
1.0
 26
0.0
 36
0.0
 17
0.0
 27
1.0
 37
0.0
 76
0
330
212
345
0
346
0
  0
LAYOUT
  5
3F6
102
{ACAD_REACTORS
330
1A
102
}
100
AcDbPlotSettings
  1

  2
none_device
  4

  6

 40
0.0
 41
0.0
 42
0.0
 43
0.0
 44
210.0
 45
297.0
 46
0.0
 47
0.0
 48
0.0
 49
0.0
140
0.0
141
0.0
142
1.0
143
1.0
 70
0
 72
1
 73
0
 74
0
  7

 75
0
147
1.0
148
0.0
149
0.0
100
AcDbLayout
  1
Layout1
 70
0
 71
1
 10
0.0
 20
0.0
 11
210.0
 21
297.0
 12
0.0
 22
0.0
 32
0.0
 14
0.0
 24
0.0
 34
0.0
 15
0.0
 25
0.0
 35
0.0
146
0.0
 13
0.0
 23
0.0
 33
0.0
 16
1.0
 26
0.0
 36
0.0
 17
0.0
 27
1.0
 37
0.0
 76
0
330
213
345
0
346
0
  0
ENDSEC
  0
EOF
