999
DXF file: C:\Users\sesa63760\Dev\_Creo\CAD\MCADID0004006_3D-CAD\drw0001_5.dxf
999
Pro/ENGINEER 2019471 by Parametric Technology Corporation
  0
SECTION
  2
HEADER
  9
$ACADVER
  1
AC1024
  9
$DWGCODEPAGE
  3
ANSI_1252
  9
$EXTMAX
 10
63.5570299949
 20
89.8877995643
 30
0.0
  9
$EXTMIN
 10
0.0
 20
0.0
 30
0.0
  9
$LIMMIN
 10
0.0
 20
0.0
  9
$LIMMAX
 10
63.5570299949
 20
89.8877995643
  9
$VIEWCTR
 10
31.7785149975
 20
44.9438997821
  9
$VIEWSIZE
 40
89.8877995643
  9
$CLAYER
  8
0
  9
$LTSCALE
 40
5.8593528605
  9
$CELTYPE
  6
BYLAYER
  9
$DIMSCALE
 40
1.0
  9
$DIMASZ
 40
0.7566313095
  9
$DIMEXO
 40
1.0
  9
$DIMDLI
 40
4.0482801582
  9
$DIMEXE
 40
1.0
  9
$DIMCEN
 40
0.9588031954
  9
$DIMLFAC
 40
1.0
  9
$DIMBLK
  1
_FILLED
  9
$DIMALT
 70
0
  9
$DIMALTF
 40
0.0393700787
  9
$DIMTXT
 40
1.0592838332
  9
$DIMTOL
 70
1
  9
$DIMLIM
 70
0
  9
$DIMTFAC
 40
1.0
  9
$DIMTP
 40
0.01
  9
$DIMTM
 40
0.01
  9
$DIMGAP
 40
0.625
  9
$DIMDSEP
 70
46
  9
$AUNITS
 70
0
  9
$PDMODE
 70
3
  9
$PDSIZE
 40
0.3125
  9
$HANDSEED
  5
352
  9
$TILEMODE
 70
1
  9
$MEASUREMENT
 70
1
  9
$INSUNITS
 70
4
  0
ENDSEC
  0
SECTION
  2
CLASSES
  0
CLASS
  1
ACDBDICTIONARYWDFLT
  2
AcDbDictionaryWithDefault
  3
AutoCAD 2000
 90
0
 91
1
280
0
281
0
  0
CLASS
  1
ACDBPLACEHOLDER
  2
AcDbPlaceHolder
  3
AutoCAD 2000
 90
0
 91
1
280
0
281
0
  0
CLASS
  1
LAYOUT
  2
AcDbLayout
  3
AutoCAD 2000
 90
0
 91
0
280
0
281
0
  0
ENDSEC
  0
SECTION
  2
TABLES
  0
TABLE
  2
VPORT
  5
8
100
AcDbSymbolTable
 70
2
  0
VPORT
  5
1F4
100
AcDbSymbolTableRecord
100
AcDbViewportTableRecord
  2
*ACTIVE
 70
0
 10
0.0
 20
0.0
 11
1.0
 21
1.0
 12
31.7785149975
 22
44.9438997821
 13
0.0
 23
0.0
 14
1.0
 24
1.0
 15
0.0
 25
0.0
 16
0.0
 26
0.0
 36
1.0
 17
0.0
 27
0.0
 37
0.0
 40
89.8877995643
 41
0.7070707071
 42
50.0
 43
0.0
 44
0.0
 50
0.0
 51
0.0
 71
0
 72
100
 73
1
 74
1
 75
0
 76
0
 77
0
 78
0
  0
ENDTAB
  0
TABLE
  2
LTYPE
  5
5
100
AcDbSymbolTable
 70
6
  0
LTYPE
  5
14
100
AcDbSymbolTableRecord
100
AcDbLinetypeTableRecord
  2
BYBLOCK
 70
0
  3

 72
65
 73
0
 40
0.0
  0
LTYPE
  5
15
100
AcDbSymbolTableRecord
100
AcDbLinetypeTableRecord
  2
BYLAYER
 70
0
  3

 72
65
 73
0
 40
0.0
  0
LTYPE
  5
16
100
AcDbSymbolTableRecord
100
AcDbLinetypeTableRecord
  2
CONTINUOUS
 70
64
  3
Solid line
 72
65
 73
0
 40
0.0
  0
LTYPE
  5
1F5
100
AcDbSymbolTableRecord
100
AcDbLinetypeTableRecord
  2
CENTER
 70
64
  3
____ _ ____ _ ____ _ ____ _ ____ _ ____ _ ____
 72
65
 73
4
 40
0.6
 49
0.375
 74
0
 49
-0.075
 74
0
 49
0.075
 74
0
 49
-0.075
 74
0
  0
LTYPE
  5
1F6
100
AcDbSymbolTableRecord
100
AcDbLinetypeTableRecord
  2
HIDDEN
 70
64
  3
- - - - - - - - - - - - - - - - - - - -
 72
65
 73
2
 40
0.2
 49
0.1
 74
0
 49
-0.1
 74
0
  0
LTYPE
  5
1F7
100
AcDbSymbolTableRecord
100
AcDbLinetypeTableRecord
  2
PHANTOM
 70
64
  3
_____ _ _ _____ _ _ _____ _ _ _____
 72
65
 73
6
 40
0.8
 49
0.45
 74
0
 49
-0.05
 74
0
 49
0.1
 74
0
 49
-0.05
 74
0
 49
0.1
 74
0
 49
-0.05
 74
0
  0
LTYPE
  5
1F8
100
AcDbSymbolTableRecord
100
AcDbLinetypeTableRecord
  2
DOT
 70
64
  3
. . . . . . . . . . . . . . . . . . . .
 72
65
 73
2
 40
0.2
 49
0.1
 74
0
 49
-0.1
 74
0
  0
LTYPE
  5
1F9
100
AcDbSymbolTableRecord
100
AcDbLinetypeTableRecord
  2
DASHED
 70
64
  3
- - - - - - - - - - - - - - - - - - - -
 72
65
 73
2
 40
0.2
 49
0.1
 74
0
 49
-0.1
 74
0
  0
ENDTAB
  0
TABLE
  2
LAYER
  5
2
100
AcDbSymbolTable
 70
36
  0
LAYER
  5
10
100
AcDbSymbolTableRecord
100
AcDbLayerTableRecord
  2
0
 70
0
 62
7
  6
CONTINUOUS
370
-3
390
F
  0
LAYER
  5
1FA
100
AcDbSymbolTableRecord
100
AcDbLayerTableRecord
  2
DEFAULT_1
 70
0
 62
7
  6
CENTER
370
-3
390
F
  0
LAYER
  5
1FB
100
AcDbSymbolTableRecord
100
AcDbLayerTableRecord
  2
DEFAULT_2
 70
0
 62
7
  6
HIDDEN
370
-3
390
F
  0
LAYER
  5
1FC
100
AcDbSymbolTableRecord
100
AcDbLayerTableRecord
  2
DEFAULT_3
 70
0
 62
7
  6
PHANTOM
370
-3
390
F
  0
LAYER
  5
1FD
100
AcDbSymbolTableRecord
100
AcDbLayerTableRecord
  2
00_COMPONENTS
 70
0
 62
7
  6
CONTINUOUS
370
-3
390
F
  0
LAYER
  5
1FE
100
AcDbSymbolTableRecord
100
AcDbLayerTableRecord
  2
01_1_DEFAULT_DATUMS
 70
0
 62
7
  6
CONTINUOUS
370
-3
390
F
  0
LAYER
  5
1FF
100
AcDbSymbolTableRecord
100
AcDbLayerTableRecord
  2
01_PLANES
 70
0
 62
7
  6
CONTINUOUS
370
-3
390
F
  0
LAYER
  5
200
100
AcDbSymbolTableRecord
100
AcDbLayerTableRecord
  2
02_COORD_SYS
 70
0
 62
7
  6
CONTINUOUS
370
-3
390
F
  0
LAYER
  5
201
100
AcDbSymbolTableRecord
100
AcDbLayerTableRecord
  2
03_AXES
 70
0
 62
7
  6
CONTINUOUS
370
-3
390
F
  0
LAYER
  5
202
100
AcDbSymbolTableRecord
100
AcDbLayerTableRecord
  2
04_POINTS
 70
0
 62
7
  6
CONTINUOUS
370
-3
390
F
  0
LAYER
  5
203
100
AcDbSymbolTableRecord
100
AcDbLayerTableRecord
  2
05_CURVES
 70
0
 62
7
  6
CONTINUOUS
370
-3
390
F
  0
LAYER
  5
204
100
AcDbSymbolTableRecord
100
AcDbLayerTableRecord
  2
06_SURFS
 70
0
 62
7
  6
CONTINUOUS
370
-3
390
F
  0
LAYER
  5
205
100
AcDbSymbolTableRecord
100
AcDbLayerTableRecord
  2
07_COSMETICS
 70
0
 62
7
  6
CONTINUOUS
370
-3
390
F
  0
LAYER
  5
206
100
AcDbSymbolTableRecord
100
AcDbLayerTableRecord
  2
10_NOTES
 70
0
 62
7
  6
CONTINUOUS
370
-3
390
F
  0
LAYER
  5
207
100
AcDbSymbolTableRecord
100
AcDbLayerTableRecord
  2
11_NOTES_PUB
 70
0
 62
7
  6
CONTINUOUS
370
-3
390
F
  0
LAYER
  5
208
100
AcDbSymbolTableRecord
100
AcDbLayerTableRecord
  2
13_REF_GTOL
 70
0
 62
7
  6
CONTINUOUS
370
-3
390
F
  0
LAYER
  5
209
100
AcDbSymbolTableRecord
100
AcDbLayerTableRecord
  2
16_MISC
 70
0
 62
7
  6
CONTINUOUS
370
-3
390
F
  0
LAYER
  5
20A
100
AcDbSymbolTableRecord
100
AcDbLayerTableRecord
  2
17_NO_PRINT
 70
0
 62
7
  6
CONTINUOUS
370
-3
390
F
  0
LAYER
  5
20B
100
AcDbSymbolTableRecord
100
AcDbLayerTableRecord
  2
18_DATUM_CAMS_JOINTS
 70
0
 62
7
  6
CONTINUOUS
370
-3
390
F
  0
LAYER
  5
20C
100
AcDbSymbolTableRecord
100
AcDbLayerTableRecord
  2
19_DATUM_FUNCTIONAL
 70
0
 62
7
  6
CONTINUOUS
370
-3
390
F
  0
LAYER
  5
20D
100
AcDbSymbolTableRecord
100
AcDbLayerTableRecord
  2
20_DATUM_KINEMATIC_SCHEME
 70
0
 62
7
  6
CONTINUOUS
370
-3
390
F
  0
ENDTAB
  0
TABLE
  2
STYLE
  5
3
100
AcDbSymbolTable
 70
1
  0
STYLE
  5
11
100
AcDbSymbolTableRecord
100
AcDbTextStyleTableRecord
  2
STANDARD
 70
0
 40
0.0
 41
1.0
 50
0.0
 71
0
 42
0.2
  3
ARIAL.TTF
  4

  0
STYLE
  5
20E
100
AcDbSymbolTableRecord
100
AcDbTextStyleTableRecord
  2
TEXTSTYLE_1
 70
0
 40
0.0
 41
0.8
 50
0.0
 71
0
 42
0.2
  3
gdt
  4

  0
ENDTAB
  0
TABLE
  2
VIEW
  5
6
100
AcDbSymbolTable
 70
0
  0
ENDTAB
  0
TABLE
  2
UCS
  5
7
100
AcDbSymbolTable
 70
0
  0
ENDTAB
  0
TABLE
  2
APPID
  5
9
100
AcDbSymbolTable
 70
1
  0
APPID
  5
20F
100
AcDbSymbolTableRecord
100
AcDbRegAppTableRecord
  2
ACAD
 70
0
  0
ENDTAB
  0
TABLE
  2
BLOCK_RECORD
  5
1
100
AcDbSymbolTable
 70
0
  0
BLOCK_RECORD
  5
210
100
AcDbSymbolTableRecord
100
AcDbBlockTableRecord
  2
*Model_Space
  0
BLOCK_RECORD
  5
211
100
AcDbSymbolTableRecord
100
AcDbBlockTableRecord
  2
*Paper_Space
  0
BLOCK_RECORD
  5
212
100
AcDbSymbolTableRecord
100
AcDbBlockTableRecord
  2
_FILLED
  0
ENDTAB
  0
TABLE
  2
DIMSTYLE
  5
A
100
AcDbSymbolTable
 70
1
100
AcDbDimStyleTable
 71
0
  0
DIMSTYLE
105
213
100
AcDbSymbolTableRecord
100
AcDbDimStyleTableRecord
  2
STANDARD
 70
0
  3

  4

 40
1.0
 41
0.7566313095
 42
1.0
 43
0.38
 44
1.0
 45
0.0
 46
0.0
 47
0.01
 48
0.01
140
1.0592838332
141
0.09
142
0.0
143
25.4
144
1.0
145
0.0
146
1.0
147
0.625
 71
1
 72
0
 73
0
 74
0
 75
0
 76
0
 77
1
 78
8
 79
2
170
0
171
1
172
0
173
0
174
0
175
0
176
0
177
0
178
0
270
2
179
2
271
2
272
2
273
2
274
2
275
0
280
0
281
0
282
0
283
1
284
8
285
0
286
0
287
3
288
0
340
11
278
46
341
212
342
212
343
212
344
212
  0
ENDTAB
  0
ENDSEC
  0
SECTION
  2
BLOCKS
  0
BLOCK
  5
20
100
AcDbEntity
  8
0
100
AcDbBlockBegin
  2
*Model_Space
 70
0
 10
0.0
 20
0.0
 30
0.0
  3
*Model_Space
  1

  0
ENDBLK
  5
21
100
AcDbEntity
  8
0
100
AcDbBlockEnd
  0
BLOCK
  5
1C
100
AcDbEntity
  8
0
100
AcDbBlockBegin
  2
*Paper_Space
 70
0
 10
0.0
 20
0.0
 30
0.0
  3
*Paper_Space
  1

  0
ENDBLK
  5
1D
100
AcDbEntity
  8
0
100
AcDbBlockEnd
  0
BLOCK
  5
214
100
AcDbEntity
  8
0
100
AcDbBlockBegin
  2
_FILLED
 70
64
 10
0.0
 20
0.0
  3
_FILLED
  1

  0
SOLID
  5
215
100
AcDbEntity
  8
0
  6
BYBLOCK
 62
0
100
AcDbTrace
 10
0.0
 20
0.0
 11
-1.0
 21
0.25
 12
-1.0
 22
-0.25
 13
-1.0
 23
-0.25
  0
ENDBLK
  5
216
100
AcDbEntity
  8
0
  6
BYBLOCK
 62
0
100
AcDbBlockEnd
  0
ENDSEC
  0
SECTION
  2
ENTITIES
  0
LINE
  5
217
100
AcDbEntity
  8
0
100
AcDbLine
 62
7
  6
BYLAYER
 10
7.4086892894
 20
37.0039280545
 11
7.4086892894
 21
53.1039443944
  0
LINE
  5
218
100
AcDbEntity
  8
0
100
AcDbLine
 62
7
  6
BYLAYER
 10
7.6086892894
 20
36.8539215686
 11
7.6086892894
 21
53.2539215686
  0
LINE
  5
219
100
AcDbEntity
  8
0
100
AcDbLine
 62
7
  6
BYLAYER
 10
7.8086892894
 20
36.2539108871
 11
7.8086892894
 21
53.8538971289
  0
LINE
  5
21A
100
AcDbEntity
  8
0
100
AcDbLine
 62
7
  6
BYLAYER
 10
8.0086892894
 20
36.0539215686
 11
8.0086892894
 21
54.0539215686
  0
LINE
  5
21B
100
AcDbEntity
  8
0
100
AcDbLine
 62
7
  6
BYLAYER
 10
10.4086892894
 20
57.0539215686
 11
10.8558714278
 21
58.7228280292
  0
LINE
  5
21C
100
AcDbEntity
  8
0
100
AcDbLine
 62
7
  6
BYLAYER
 10
7.8086892894
 20
53.8539215686
 11
8.0086892894
 21
54.0539215686
  0
LINE
  5
21D
100
AcDbEntity
  8
0
100
AcDbLine
 62
7
  6
BYLAYER
 10
7.8086892894
 20
36.2539215686
 11
8.0086892894
 21
36.0539215686
  0
LINE
  5
21E
100
AcDbEntity
  8
0
100
AcDbLine
 62
7
  6
BYLAYER
 10
10.4086892894
 20
33.0539215686
 11
10.8558714278
 21
31.385015108
  0
LINE
  5
21F
100
AcDbEntity
  8
0
100
AcDbLine
 62
7
  6
BYLAYER
 10
10.4086892894
 20
33.053925617
 11
10.4086892894
 21
57.0539175203
  0
LINE
  5
220
100
AcDbEntity
  8
0
100
AcDbLine
 62
7
  6
BYLAYER
 10
13.4086892894
 20
57.0539175203
 11
13.4086892894
 21
33.053925617
  0
LINE
  5
221
100
AcDbEntity
  8
0
100
AcDbLine
 62
7
  6
BYLAYER
 10
14.1086892894
 20
55.6595775117
 11
14.1086892894
 21
55.2654816631
  0
LINE
  5
222
100
AcDbEntity
  8
0
100
AcDbLine
 62
7
  6
BYLAYER
 10
14.1086892894
 20
55.1687890263
 11
14.1086892894
 21
54.888542617
  0
LINE
  5
223
100
AcDbEntity
  8
0
100
AcDbLine
 62
7
  6
BYLAYER
 10
14.1086892894
 20
54.6609283071
 11
14.1086892894
 21
54.3433304781
  0
LINE
  5
224
100
AcDbEntity
  8
0
100
AcDbLine
 62
7
  6
BYLAYER
 10
14.1086892894
 20
53.9886890392
 11
14.1086892894
 21
53.6391739773
  0
LINE
  5
225
100
AcDbEntity
  8
0
100
AcDbLine
 62
7
  6
BYLAYER
 10
14.1086892894
 20
53.1635734226
 11
14.1086892894
 21
52.7881214274
  0
LINE
  5
226
100
AcDbEntity
  8
0
100
AcDbLine
 62
7
  6
BYLAYER
 10
14.1086892894
 20
52.1996994143
 11
14.1086892894
 21
51.8047345737
  0
LINE
  5
227
100
AcDbEntity
  8
0
100
AcDbLine
 62
7
  6
BYLAYER
 10
14.1086892894
 20
51.113559166
 11
14.1086892894
 21
50.7058394377
  0
LINE
  5
228
100
AcDbEntity
  8
0
100
AcDbLine
 62
7
  6
BYLAYER
 10
14.1086892894
 20
49.9237368383
 11
14.1086892894
 21
49.51023842
  0
LINE
  5
229
100
AcDbEntity
  8
0
100
AcDbLine
 62
7
  6
BYLAYER
 10
14.1086892894
 20
48.6505906212
 11
14.1086892894
 21
48.2383885855
  0
LINE
  5
22A
100
AcDbEntity
  8
0
100
AcDbLine
 62
7
  6
BYLAYER
 10
14.1086892894
 20
47.3159043994
 11
14.1086892894
 21
46.9120516374
  0
LINE
  5
22B
100
AcDbEntity
  8
0
100
AcDbLine
 62
7
  6
BYLAYER
 10
14.1086892894
 20
45.9425150242
 11
14.1086892894
 21
45.5539215686
  0
LINE
  5
22C
100
AcDbEntity
  8
0
100
AcDbLine
 62
7
  6
BYLAYER
 10
14.1086892894
 20
44.5539215686
 11
14.1086892894
 21
44.1653281131
  0
LINE
  5
22D
100
AcDbEntity
  8
0
100
AcDbLine
 62
7
  6
BYLAYER
 10
14.1086892894
 20
43.1957914999
 11
14.1086892894
 21
42.7919387379
  0
LINE
  5
22E
100
AcDbEntity
  8
0
100
AcDbLine
 62
7
  6
BYLAYER
 10
14.1086892894
 20
41.8694545518
 11
14.1086892894
 21
41.4572525161
  0
LINE
  5
22F
100
AcDbEntity
  8
0
100
AcDbLine
 62
7
  6
BYLAYER
 10
14.1086892894
 20
40.5976047173
 11
14.1086892894
 21
40.184106299
  0
LINE
  5
230
100
AcDbEntity
  8
0
100
AcDbLine
 62
7
  6
BYLAYER
 10
14.1086892894
 20
39.4020036996
 11
14.1086892894
 21
38.9942839713
  0
LINE
  5
231
100
AcDbEntity
  8
0
100
AcDbLine
 62
7
  6
BYLAYER
 10
14.1086892894
 20
38.3031085636
 11
14.1086892894
 21
37.9081437229
  0
LINE
  5
232
100
AcDbEntity
  8
0
100
AcDbLine
 62
7
  6
BYLAYER
 10
14.1086892894
 20
37.3197217099
 11
14.1086892894
 21
36.9442697147
  0
LINE
  5
233
100
AcDbEntity
  8
0
100
AcDbLine
 62
7
  6
BYLAYER
 10
14.1086892894
 20
36.46866916
 11
14.1086892894
 21
36.1191540981
  0
LINE
  5
234
100
AcDbEntity
  8
0
100
AcDbLine
 62
7
  6
BYLAYER
 10
14.1086892894
 20
35.7645126592
 11
14.1086892894
 21
35.4469148301
  0
LINE
  5
235
100
AcDbEntity
  8
0
100
AcDbLine
 62
7
  6
BYLAYER
 10
14.1086892894
 20
35.2193005203
 11
14.1086892894
 21
34.939054111
  0
LINE
  5
236
100
AcDbEntity
  8
0
100
AcDbLine
 62
7
  6
BYLAYER
 10
14.1086892894
 20
34.8423614742
 11
14.1086892894
 21
34.4482656255
  0
LINE
  5
237
100
AcDbEntity
  8
0
100
AcDbLine
 62
7
  6
BYLAYER
 10
17.4086892894
 20
57.0539215686
 11
17.8558714278
 21
58.7228280292
  0
LINE
  5
238
100
AcDbEntity
  8
0
100
AcDbLine
 62
7
  6
BYLAYER
 10
17.4086892894
 20
33.0539215686
 11
17.8558714278
 21
31.385015108
  0
LINE
  5
239
100
AcDbEntity
  8
0
100
AcDbLine
 62
7
  6
BYLAYER
 10
16.7086892894
 20
34.4482656255
 11
16.7086892894
 21
34.8423614742
  0
LINE
  5
23A
100
AcDbEntity
  8
0
100
AcDbLine
 62
7
  6
BYLAYER
 10
16.7086892894
 20
34.939054111
 11
16.7086892894
 21
35.2193005203
  0
LINE
  5
23B
100
AcDbEntity
  8
0
100
AcDbLine
 62
7
  6
BYLAYER
 10
16.7086892894
 20
35.4469148301
 11
16.7086892894
 21
35.7645126592
  0
LINE
  5
23C
100
AcDbEntity
  8
0
100
AcDbLine
 62
7
  6
BYLAYER
 10
16.7086892894
 20
36.1191540981
 11
16.7086892894
 21
36.46866916
  0
LINE
  5
23D
100
AcDbEntity
  8
0
100
AcDbLine
 62
7
  6
BYLAYER
 10
16.7086892894
 20
36.9442697147
 11
16.7086892894
 21
37.3197217099
  0
LINE
  5
23E
100
AcDbEntity
  8
0
100
AcDbLine
 62
7
  6
BYLAYER
 10
16.7086892894
 20
37.9081437229
 11
16.7086892894
 21
38.3031085636
  0
LINE
  5
23F
100
AcDbEntity
  8
0
100
AcDbLine
 62
7
  6
BYLAYER
 10
16.7086892894
 20
38.9942839713
 11
16.7086892894
 21
39.4020036996
  0
LINE
  5
240
100
AcDbEntity
  8
0
100
AcDbLine
 62
7
  6
BYLAYER
 10
16.7086892894
 20
40.184106299
 11
16.7086892894
 21
40.5976047173
  0
LINE
  5
241
100
AcDbEntity
  8
0
100
AcDbLine
 62
7
  6
BYLAYER
 10
16.7086892894
 20
41.4572525161
 11
16.7086892894
 21
41.8694545518
  0
LINE
  5
242
100
AcDbEntity
  8
0
100
AcDbLine
 62
7
  6
BYLAYER
 10
16.7086892894
 20
42.7919387379
 11
16.7086892894
 21
43.1957914999
  0
LINE
  5
243
100
AcDbEntity
  8
0
100
AcDbLine
 62
7
  6
BYLAYER
 10
16.7086892894
 20
44.1653281131
 11
16.7086892894
 21
44.5539215686
  0
LINE
  5
244
100
AcDbEntity
  8
0
100
AcDbLine
 62
7
  6
BYLAYER
 10
16.7086892894
 20
45.5539215686
 11
16.7086892894
 21
45.9425150242
  0
LINE
  5
245
100
AcDbEntity
  8
0
100
AcDbLine
 62
7
  6
BYLAYER
 10
16.7086892894
 20
46.9120516374
 11
16.7086892894
 21
47.3159043994
  0
LINE
  5
246
100
AcDbEntity
  8
0
100
AcDbLine
 62
7
  6
BYLAYER
 10
16.7086892894
 20
48.2383885855
 11
16.7086892894
 21
48.6505906212
  0
LINE
  5
247
100
AcDbEntity
  8
0
100
AcDbLine
 62
7
  6
BYLAYER
 10
16.7086892894
 20
49.51023842
 11
16.7086892894
 21
49.9237368383
  0
LINE
  5
248
100
AcDbEntity
  8
0
100
AcDbLine
 62
7
  6
BYLAYER
 10
16.7086892894
 20
50.7058394377
 11
16.7086892894
 21
51.113559166
  0
LINE
  5
249
100
AcDbEntity
  8
0
100
AcDbLine
 62
7
  6
BYLAYER
 10
16.7086892894
 20
51.8047345737
 11
16.7086892894
 21
52.1996994143
  0
LINE
  5
24A
100
AcDbEntity
  8
0
100
AcDbLine
 62
7
  6
BYLAYER
 10
16.7086892894
 20
52.7881214274
 11
16.7086892894
 21
53.1635734226
  0
LINE
  5
24B
100
AcDbEntity
  8
0
100
AcDbLine
 62
7
  6
BYLAYER
 10
16.7086892894
 20
53.6391739773
 11
16.7086892894
 21
53.9886890392
  0
LINE
  5
24C
100
AcDbEntity
  8
0
100
AcDbLine
 62
7
  6
BYLAYER
 10
16.7086892894
 20
54.3433304781
 11
16.7086892894
 21
54.6609283071
  0
LINE
  5
24D
100
AcDbEntity
  8
0
100
AcDbLine
 62
7
  6
BYLAYER
 10
16.7086892894
 20
54.888542617
 11
16.7086892894
 21
55.1687890263
  0
LINE
  5
24E
100
AcDbEntity
  8
0
100
AcDbLine
 62
7
  6
BYLAYER
 10
16.7086892894
 20
55.2654816631
 11
16.7086892894
 21
55.6595775117
  0
LINE
  5
24F
100
AcDbEntity
  8
0
100
AcDbLine
 62
7
  6
BYLAYER
 10
17.4086892894
 20
33.053925617
 11
17.4086892894
 21
57.0539175203
  0
LINE
  5
250
100
AcDbEntity
  8
0
100
AcDbLine
 62
7
  6
BYLAYER
 10
13.4086892894
 20
33.0539215686
 11
12.9615071511
 21
31.385015108
  0
LINE
  5
251
100
AcDbEntity
  8
0
100
AcDbLine
 62
7
  6
BYLAYER
 10
13.4086892894
 20
57.0539215686
 11
12.9615071511
 21
58.7228280292
  0
LINE
  5
252
100
AcDbEntity
  8
0
100
AcDbLine
 62
7
  6
BYLAYER
 10
14.1086892894
 20
45.5539215686
 11
13.6086892894
 21
45.0539215686
  0
LINE
  5
253
100
AcDbEntity
  8
0
100
AcDbLine
 62
7
  6
BYLAYER
 10
12.9507993546
 20
31.347515108
 11
10.8665792242
 21
31.347515108
  0
LINE
  5
254
100
AcDbEntity
  8
0
100
AcDbLine
 62
7
  6
BYLAYER
 10
17.8665792242
 20
31.347515108
 11
19.9507993605
 21
31.347515108
  0
LINE
  5
255
100
AcDbEntity
  8
0
100
AcDbLine
 62
7
  6
BYLAYER
 10
12.9764083348
 20
31.447515108
 11
10.8409702633
 21
31.447515108
  0
LINE
  5
256
100
AcDbEntity
  8
0
100
AcDbLine
 62
7
  6
BYLAYER
 10
17.840970244
 20
31.4475151081
 11
19.9764082543
 21
31.4475151081
  0
LINE
  5
257
100
AcDbEntity
  8
0
100
AcDbLine
 62
7
  6
BYLAYER
 10
17.2086892894
 20
34.3025114071
 11
17.4086892894
 21
34.2489215686
  0
LINE
  5
258
100
AcDbEntity
  8
0
100
AcDbLine
 62
7
  6
BYLAYER
 10
14.1086892894
 20
44.5539215686
 11
13.6086892894
 21
45.0539215686
  0
LINE
  5
259
100
AcDbEntity
  8
0
100
AcDbLine
 62
7
  6
BYLAYER
 10
20.4086892894
 20
57.0539175203
 11
20.4086892894
 21
33.053925617
  0
LINE
  5
25A
100
AcDbEntity
  8
0
100
AcDbLine
 62
7
  6
BYLAYER
 10
16.7086892894
 20
44.5539215686
 11
17.2086892894
 21
45.0539215686
  0
LINE
  5
25B
100
AcDbEntity
  8
0
100
AcDbLine
 62
7
  6
BYLAYER
 10
16.7086892894
 20
45.5539215686
 11
17.2086892894
 21
45.0539215686
  0
LINE
  5
25C
100
AcDbEntity
  8
0
100
AcDbLine
 62
7
  6
BYLAYER
 10
20.4086892894
 20
33.0539215686
 11
19.9615071511
 21
31.385015108
  0
LINE
  5
25D
100
AcDbEntity
  8
0
100
AcDbLine
 62
7
  6
BYLAYER
 10
45.7434189249
 20
38.7508627922
 11
43.2086892894
 21
38.3039215686
  0
LINE
  5
25E
100
AcDbEntity
  8
0
100
AcDbLine
 62
7
  6
BYLAYER
 10
8.0086892894
 20
36.0539215686
 11
10.4086892894
 21
36.0539215686
  0
LINE
  5
25F
100
AcDbEntity
  8
0
100
AcDbLine
 62
7
  6
BYLAYER
 10
14.0235490521
 20
36.0539215686
 11
16.7938248966
 21
36.0539215686
  0
LINE
  5
260
100
AcDbEntity
  8
0
100
AcDbLine
 62
7
  6
BYLAYER
 10
20.4086892894
 20
36.0539215686
 11
34.9086892894
 21
36.0539215686
  0
LINE
  5
261
100
AcDbEntity
  8
0
100
AcDbLine
 62
7
  6
BYLAYER
 10
7.4764047626
 20
36.8539215686
 11
7.8086892894
 21
36.8539215686
  0
LINE
  5
262
100
AcDbEntity
  8
0
100
AcDbLine
 62
7
  6
BYLAYER
 10
35.9086892894
 20
37.0539215686
 11
38.8086892894
 21
37.0539215686
  0
LINE
  5
263
100
AcDbEntity
  8
0
100
AcDbLine
 62
7
  6
BYLAYER
 10
38.9086892894
 20
37.0539215686
 11
42.5086892894
 21
37.0539215686
  0
LINE
  5
264
100
AcDbEntity
  8
0
100
AcDbLine
 62
7
  6
BYLAYER
 10
38.8086892894
 20
37.1039215686
 11
38.9086892894
 21
37.1039215686
  0
LINE
  5
265
100
AcDbEntity
  8
0
100
AcDbLine
 62
7
  6
BYLAYER
 10
20.4086892894
 20
57.0539215686
 11
19.9615071511
 21
58.7228280292
  0
LINE
  5
266
100
AcDbEntity
  8
0
100
AcDbLine
 62
7
  6
BYLAYER
 10
12.9764083339
 20
37.8757183384
 11
10.8409703251
 21
37.8757183384
  0
LINE
  5
267
100
AcDbEntity
  8
0
100
AcDbLine
 62
7
  6
BYLAYER
 10
17.8409702449
 20
37.8757183384
 11
19.9764083147
 21
37.8757183384
  0
LINE
  5
268
100
AcDbEntity
  8
0
100
AcDbLine
 62
7
  6
BYLAYER
 10
42.7086892894
 20
38.3039215686
 11
43.2086892894
 21
38.3039215686
  0
LINE
  5
269
100
AcDbEntity
  8
0
100
AcDbLine
 62
7
  6
BYLAYER
 10
12.9507993391
 20
38.4257183384
 11
10.8665792381
 21
38.4257183384
  0
LINE
  5
26A
100
AcDbEntity
  8
0
100
AcDbLine
 62
7
  6
BYLAYER
 10
17.8665792397
 20
38.4257183384
 11
19.9507993391
 21
38.4257183384
  0
LINE
  5
26B
100
AcDbEntity
  8
0
100
AcDbLine
 62
7
  6
BYLAYER
 10
13.6086892894
 20
34.3025114071
 11
13.4086892894
 21
34.2489215686
  0
LINE
  5
26C
100
AcDbEntity
  8
0
100
AcDbLine
 62
7
  6
BYLAYER
 10
47.7191564806
 20
46.6186526146
 11
46.0982220982
 21
46.5337030432
  0
LINE
  5
26D
100
AcDbEntity
  8
0
100
AcDbLine
 62
7
  6
BYLAYER
 10
57.9086892894
 20
47.0237700496
 11
47.9086892894
 21
47.0237700496
  0
LINE
  5
26E
100
AcDbEntity
  8
0
100
AcDbLine
 62
7
  6
BYLAYER
 10
34.9086892894
 20
54.0539215686
 11
34.9086892894
 21
36.0539215686
  0
LINE
  5
26F
100
AcDbEntity
  8
0
100
AcDbLine
 62
7
  6
BYLAYER
 10
35.9086892894
 20
37.0539215686
 11
35.9086892894
 21
53.0539215686
  0
LINE
  5
270
100
AcDbEntity
  8
0
100
AcDbLine
 62
7
  6
BYLAYER
 10
57.9086892894
 20
49.0237700496
 11
47.9086892894
 21
49.0237700496
  0
LINE
  5
271
100
AcDbEntity
  8
0
100
AcDbLine
 62
7
  6
BYLAYER
 10
47.7191564806
 20
49.4288874847
 11
46.0982220982
 21
49.513837056
  0
LINE
  5
272
100
AcDbEntity
  8
0
100
AcDbLine
 62
7
  6
BYLAYER
 10
13.6086892894
 20
55.8053317302
 11
13.4086892894
 21
55.8589215686
  0
LINE
  5
273
100
AcDbEntity
  8
0
100
AcDbLine
 62
7
  6
BYLAYER
 10
38.8086892894
 20
53.0539315937
 11
38.8086892894
 21
37.0539115436
  0
LINE
  5
274
100
AcDbEntity
  8
0
100
AcDbLine
 62
7
  6
BYLAYER
 10
38.9086892894
 20
37.0539125229
 11
38.9086892894
 21
53.0538997743
  0
LINE
  5
275
100
AcDbEntity
  8
0
100
AcDbLine
 62
7
  6
BYLAYER
 10
12.9507993548
 20
51.6821247989
 11
10.866579224
 21
51.6821247989
  0
LINE
  5
276
100
AcDbEntity
  8
0
100
AcDbLine
 62
7
  6
BYLAYER
 10
17.866579224
 20
51.6821247989
 11
19.9507993607
 21
51.6821247989
  0
LINE
  5
277
100
AcDbEntity
  8
0
100
AcDbLine
 62
7
  6
BYLAYER
 10
42.7086892894
 20
51.8039215686
 11
43.2086892894
 21
51.8039215686
  0
LINE
  5
278
100
AcDbEntity
  8
0
100
AcDbLine
 62
7
  6
BYLAYER
 10
12.9764083348
 20
52.2321247989
 11
10.8409702633
 21
52.2321247989
  0
LINE
  5
279
100
AcDbEntity
  8
0
100
AcDbLine
 62
7
  6
BYLAYER
 10
17.840970244
 20
52.232124799
 11
19.9764083348
 21
52.232124799
  0
LINE
  5
27A
100
AcDbEntity
  8
0
100
AcDbLine
 62
7
  6
BYLAYER
 10
35.9086892894
 20
37.0539215686
 11
34.9086892894
 21
36.0539215686
  0
LINE
  5
27B
100
AcDbEntity
  8
0
100
AcDbLine
 62
7
  6
BYLAYER
 10
38.8086892894
 20
53.0039215686
 11
38.9086892894
 21
53.0039215686
  0
LINE
  5
27C
100
AcDbEntity
  8
0
100
AcDbLine
 62
7
  6
BYLAYER
 10
35.9086892894
 20
53.0539215686
 11
38.8086892894
 21
53.0539215686
  0
LINE
  5
27D
100
AcDbEntity
  8
0
100
AcDbLine
 62
7
  6
BYLAYER
 10
38.9086892894
 20
53.0539215686
 11
42.5086892894
 21
53.0539215686
  0
LINE
  5
27E
100
AcDbEntity
  8
0
100
AcDbLine
 62
7
  6
BYLAYER
 10
7.4764047626
 20
53.2539215686
 11
7.8086892894
 21
53.2539215686
  0
LINE
  5
27F
100
AcDbEntity
  8
0
100
AcDbLine
 62
7
  6
BYLAYER
 10
8.0086892894
 20
54.0539215686
 11
10.4086892894
 21
54.0539215686
  0
LINE
  5
280
100
AcDbEntity
  8
0
100
AcDbLine
 62
7
  6
BYLAYER
 10
14.0235536822
 20
54.0539215686
 11
16.7938295267
 21
54.0539215686
  0
LINE
  5
281
100
AcDbEntity
  8
0
100
AcDbLine
 62
7
  6
BYLAYER
 10
20.4086892894
 20
54.0539215686
 11
34.9086892894
 21
54.0539215686
  0
LINE
  5
282
100
AcDbEntity
  8
0
100
AcDbLine
 62
7
  6
BYLAYER
 10
45.7434189249
 20
51.3569803451
 11
43.2086892894
 21
51.8039215686
  0
LINE
  5
283
100
AcDbEntity
  8
0
100
AcDbLine
 62
7
  6
BYLAYER
 10
35.9086892894
 20
53.0539215686
 11
34.9086892894
 21
54.0539215686
  0
LINE
  5
284
100
AcDbEntity
  8
0
100
AcDbLine
 62
7
  6
BYLAYER
 10
42.5086892894
 20
53.0539215686
 11
42.5086892894
 21
37.0539215686
  0
LINE
  5
285
100
AcDbEntity
  8
0
100
AcDbLine
 62
7
  6
BYLAYER
 10
42.7086892894
 20
52.8539315502
 11
42.7086892894
 21
37.2539115871
  0
LINE
  5
286
100
AcDbEntity
  8
0
100
AcDbLine
 62
7
  6
BYLAYER
 10
43.2086892894
 20
51.8039215686
 11
43.2086892894
 21
38.3039215686
  0
LINE
  5
287
100
AcDbEntity
  8
0
100
AcDbLine
 62
7
  6
BYLAYER
 10
45.7434189249
 20
51.3569803451
 11
45.7434189249
 21
38.7508627922
  0
LINE
  5
288
100
AcDbEntity
  8
0
100
AcDbLine
 62
7
  6
BYLAYER
 10
45.9086892894
 20
51.1599933686
 11
45.9086892894
 21
38.9479893874
  0
LINE
  5
289
100
AcDbEntity
  8
0
100
AcDbLine
 62
7
  6
BYLAYER
 10
46.0982220982
 20
46.5337030432
 11
46.0982220982
 21
49.513837056
  0
LINE
  5
28A
100
AcDbEntity
  8
0
100
AcDbLine
 62
7
  6
BYLAYER
 10
12.9764083339
 20
58.6603280292
 11
10.8409702449
 21
58.6603280292
  0
LINE
  5
28B
100
AcDbEntity
  8
0
100
AcDbLine
 62
7
  6
BYLAYER
 10
17.8409702449
 20
58.6603280292
 11
19.9764083147
 21
58.6603280292
  0
LINE
  5
28C
100
AcDbEntity
  8
0
100
AcDbLine
 62
7
  6
BYLAYER
 10
47.7191564806
 20
49.4288874847
 11
47.7191564806
 21
46.6186526146
  0
LINE
  5
28D
100
AcDbEntity
  8
0
100
AcDbLine
 62
7
  6
BYLAYER
 10
47.9086892894
 20
49.2291236622
 11
47.9086892894
 21
46.8184164373
  0
LINE
  5
28E
100
AcDbEntity
  8
0
100
AcDbLine
 62
7
  6
BYLAYER
 10
17.2086892894
 20
55.8053317302
 11
17.4086892894
 21
55.8589215686
  0
LINE
  5
28F
100
AcDbEntity
  8
0
100
AcDbLine
 62
7
  6
BYLAYER
 10
12.9507993548
 20
58.7603280292
 11
10.8665792181
 21
58.7603280292
  0
LINE
  5
290
100
AcDbEntity
  8
0
100
AcDbLine
 62
7
  6
BYLAYER
 10
17.866579224
 20
58.7603280292
 11
19.9507993336
 21
58.7603280292
  0
LINE
  5
291
100
AcDbEntity
  8
0
100
AcDbLine
 62
7
  6
BYLAYER
 10
57.9086892894
 20
49.0236364232
 11
57.9086892894
 21
47.023903676
  0
ARC
  5
292
100
AcDbEntity
  8
0
100
AcDbCircle
 62
7
  6
BYLAYER
 10
49.9960141905
 20
36.6541175331
 40
32.1782404688
100
AcDbArc
 50
176.8439356134
 51
177.8243249824
  0
ARC
  5
293
100
AcDbEntity
  8
0
100
AcDbCircle
 62
7
  6
BYLAYER
 10
-19.1786356117
 20
36.6541175337
 40
32.1782404688
100
AcDbArc
 50
2.1756750165
 51
3.1560643856
  0
ARC
  5
294
100
AcDbEntity
  8
0
100
AcDbCircle
 62
7
  6
BYLAYER
 10
49.9960141822
 20
53.4537247393
 40
32.1782404286
100
AcDbArc
 50
182.1756734791
 51
183.1560628482
  0
ARC
  5
295
100
AcDbEntity
  8
0
100
AcDbCircle
 62
7
  6
BYLAYER
 10
-19.1786356034
 20
53.4537247381
 40
32.1782404285
100
AcDbArc
 50
356.8439371539
 51
357.824326523
  0
ARC
  5
296
100
AcDbEntity
  8
0
100
AcDbCircle
 62
7
  6
BYLAYER
 10
42.9959824572
 20
36.6541202276
 40
32.1782086369
100
AcDbArc
 50
176.8439372931
 51
177.8243276303
  0
ARC
  5
297
100
AcDbEntity
  8
0
100
AcDbCircle
 62
7
  6
BYLAYER
 10
-12.178603776
 20
36.6541202318
 40
32.1782085344
100
AcDbArc
 50
2.1756723692
 51
3.1560627095
  0
ARC
  5
298
100
AcDbEntity
  8
0
100
AcDbCircle
 62
7
  6
BYLAYER
 10
-12.1785895026
 20
53.4537211216
 40
32.1781942045
100
AcDbArc
 50
356.8439390648
 51
357.8243298402
  0
ARC
  5
299
100
AcDbEntity
  8
0
100
AcDbCircle
 62
7
  6
BYLAYER
 10
42.9959677801
 20
53.4537211064
 40
32.1781939027
100
AcDbArc
 50
182.1756701532
 51
183.1560609377
  0
ARC
  5
29A
100
AcDbEntity
  8
0
100
AcDbCircle
 62
7
  6
BYLAYER
 10
12.0155015181
 20
31.6958617801
 40
1.2005698042
100
AcDbArc
 50
195.0057482423
 51
196.8670035073
  0
ARC
  5
29B
100
AcDbEntity
  8
0
100
AcDbCircle
 62
7
  6
BYLAYER
 10
12.0155011491
 20
58.4119814752
 40
1.200569417
100
AcDbArc
 50
163.1329967757
 51
164.9942526356
  0
ARC
  5
29C
100
AcDbEntity
  8
0
100
AcDbCircle
 62
7
  6
BYLAYER
 10
11.8019269757
 20
58.4119969744
 40
1.2005174998
100
AcDbArc
 50
15.0056457137
 51
16.8669815133
  0
ARC
  5
29D
100
AcDbEntity
  8
0
100
AcDbCircle
 62
7
  6
BYLAYER
 10
11.801927069
 20
31.6958461434
 40
1.2005174046
100
AcDbArc
 50
343.1330180821
 51
344.9943540323
  0
ARC
  5
29E
100
AcDbEntity
  8
0
100
AcDbCircle
 62
7
  6
BYLAYER
 10
19.0135742132
 20
31.6953404
 40
1.1985741273
100
AcDbArc
 50
195.0055174961
 51
196.8698841629
  0
ARC
  5
29F
100
AcDbEntity
  8
0
100
AcDbCircle
 62
7
  6
BYLAYER
 10
19.0135738256
 20
58.4125028608
 40
1.1985737207
100
AcDbArc
 50
163.1301161134
 51
164.9944834072
  0
ARC
  5
2A0
100
AcDbEntity
  8
0
100
AcDbCircle
 62
7
  6
BYLAYER
 10
18.8038156446
 20
31.6953368237
 40
1.1985623015
100
AcDbArc
 50
343.1301230521
 51
344.9945079653
  0
ARC
  5
2A1
100
AcDbEntity
  8
0
100
AcDbCircle
 62
7
  6
BYLAYER
 10
18.8038160464
 20
58.4125064408
 40
1.1985618802
100
AcDbArc
 50
15.0054911341
 51
16.8698766974
  0
ARC
  5
2A2
100
AcDbEntity
  8
0
100
AcDbCircle
 62
7
  6
BYLAYER
 10
18.8442848338
 20
31.68438956
 40
1.1566387007
100
AcDbArc
 50
344.9992649167
 51
348.1824693438
  0
ARC
  5
2A3
100
AcDbEntity
  8
0
100
AcDbCircle
 62
7
  6
BYLAYER
 10
18.973091689
 20
58.4234538322
 40
1.156636654
100
AcDbArc
 50
164.9992508203
 51
168.1824610315
  0
ARC
  5
2A4
100
AcDbEntity
  8
0
100
AcDbCircle
 62
7
  6
BYLAYER
 10
11.8478947418
 20
58.4242964649
 40
1.152932707
100
AcDbArc
 50
11.8132700904
 51
15.0067204643
  0
ARC
  5
2A5
100
AcDbEntity
  8
0
100
AcDbCircle
 62
7
  6
BYLAYER
 10
11.9693750006
 20
31.6835195056
 40
1.1528205962
100
AcDbArc
 50
191.8130560643
 51
195.0068163075
  0
ARC
  5
2A6
100
AcDbEntity
  8
0
100
AcDbCircle
 62
7
  6
BYLAYER
 10
18.8548612574
 20
58.4259750302
 40
1.1457701035
100
AcDbArc
 50
11.802428461
 51
15.0158361434
  0
ARC
  5
2A7
100
AcDbEntity
  8
0
100
AcDbCircle
 62
7
  6
BYLAYER
 10
18.9625148357
 20
31.6818677716
 40
1.1457676213
100
AcDbArc
 50
191.8024372598
 51
195.0158520725
  0
ARC
  5
2A8
100
AcDbEntity
  8
0
100
AcDbCircle
 62
7
  6
BYLAYER
 10
11.85775719
 20
31.6811953031
 40
1.1427978025
100
AcDbArc
 50
344.9791145023
 51
348.200893439
  0
ARC
  5
2A9
100
AcDbEntity
  8
0
100
AcDbCircle
 62
7
  6
BYLAYER
 10
11.9595848489
 20
58.4266577807
 40
1.142759981
100
AcDbArc
 50
164.9791219794
 51
168.201006778
  0
ARC
  5
2AA
100
AcDbEntity
  8
0
100
AcDbCircle
 62
7
  6
BYLAYER
 10
7.6086892894
 20
53.1039215686
 40
0.2
100
AcDbArc
 50
131.4096221093
 51
180.0
  0
ARC
  5
2AB
100
AcDbEntity
  8
0
100
AcDbCircle
 62
7
  6
BYLAYER
 10
7.6086892894
 20
37.0039215686
 40
0.2
100
AcDbArc
 50
180.0
 51
228.5903778907
  0
ARC
  5
2AC
100
AcDbEntity
  8
0
100
AcDbCircle
 62
7
  6
BYLAYER
 10
47.7086892894
 20
49.2291615777
 40
0.2
100
AcDbArc
 50
0.0
 51
87.0
  0
ARC
  5
2AD
100
AcDbEntity
  8
0
100
AcDbCircle
 62
7
  6
BYLAYER
 10
47.7086892894
 20
46.8183785215
 40
0.2
100
AcDbArc
 50
273.0
 51
360.0
  0
ARC
  5
2AE
100
AcDbEntity
  8
0
100
AcDbCircle
 62
7
  6
BYLAYER
 10
46.1086892894
 20
49.713562963
 40
0.2
100
AcDbArc
 50
180.0
 51
267.0
  0
ARC
  5
2AF
100
AcDbEntity
  8
0
100
AcDbCircle
 62
7
  6
BYLAYER
 10
46.1086892894
 20
46.3339771363
 40
0.2
100
AcDbArc
 50
93.0
 51
180.0
  0
ARC
  5
2B0
100
AcDbEntity
  8
0
100
AcDbCircle
 62
7
  6
BYLAYER
 10
45.7086892894
 20
51.1600187945
 40
0.2
100
AcDbArc
 50
0.0
 51
80.0
  0
ARC
  5
2B1
100
AcDbEntity
  8
0
100
AcDbCircle
 62
7
  6
BYLAYER
 10
45.7086892894
 20
38.9478243428
 40
0.2
100
AcDbArc
 50
280.0
 51
360.0
  0
ARC
  5
2B2
100
AcDbEntity
  8
0
100
AcDbCircle
 62
7
  6
BYLAYER
 10
42.5086892894
 20
37.2539215686
 40
0.2
100
AcDbArc
 50
270.0
 51
360.0
  0
ARC
  5
2B3
100
AcDbEntity
  8
0
100
AcDbCircle
 62
7
  6
BYLAYER
 10
42.5086892894
 20
52.8539215686
 40
0.2
100
AcDbArc
 50
0.0
 51
90.0
  0
SPLINE
  5
2B4
100
AcDbEntity
  8
0
100
AcDbSpline
 62
7
  6
BYLAYER
 70
0
 71
3
 72
11
 73
7
 74
0
 42
0.0000001
 43
0.0000001
 44
0.0000000001
 40
0.0
 40
0.0
 40
0.0
 40
0.0
 40
0.2479946598
 40
0.4969013587
 40
0.7474318832
 40
1.0
 40
1.0
 40
1.0
 40
1.0
 10
17.4086903454
 20
55.4462264233
 30
0.0
 10
17.408690298
 20
55.7149718801
 30
0.0
 10
17.4282020524
 20
56.2536441327
 30
0.0
 10
17.5142160724
 20
57.0596237883
 30
0.0
 10
17.6521407554
 20
57.8632774187
 30
0.0
 10
17.7738260978
 20
58.3949900813
 30
0.0
 10
17.8409702449
 20
58.6603280292
 30
0.0
  0
SPLINE
  5
2B5
100
AcDbEntity
  8
0
100
AcDbSpline
 62
7
  6
BYLAYER
 70
0
 71
3
 72
11
 73
7
 74
0
 42
0.0000001
 43
0.0000001
 44
0.0000000001
 40
0.0
 40
0.0
 40
0.0
 40
0.0
 40
0.2525681185
 40
0.5030986439
 40
0.752005342
 40
1.0
 40
1.0
 40
1.0
 40
1.0
 10
17.840970244
 20
52.232124799
 30
0.0
 10
17.7738260961
 20
52.4974627501
 30
0.0
 10
17.6521407452
 20
53.0291754169
 30
0.0
 10
17.5142160721
 20
53.8328290559
 30
0.0
 10
17.4282020546
 20
54.6388087141
 30
0.0
 10
17.4086902976
 20
55.1774809668
 30
0.0
 10
17.4086903454
 20
55.4462264233
 30
0.0
  0
SPLINE
  5
2B6
100
AcDbEntity
  8
0
100
AcDbSpline
 62
7
  6
BYLAYER
 70
0
 71
3
 72
10
 73
6
 74
0
 42
0.0000001
 43
0.0000001
 44
0.0000000001
 40
0.0
 40
0.0
 40
0.0
 40
0.0
 40
0.2500118641
 40
0.5000238375
 40
1.0
 40
1.0
 40
1.0
 40
1.0
 10
17.4086892886
 20
45.0539216581
 30
0.0
 10
17.4086892904
 20
45.6079532289
 30
0.0
 10
17.4293687314
 20
46.7161343039
 30
0.0
 10
17.5507853883
 20
48.9291828892
 30
0.0
 10
17.7242298653
 20
50.5833495706
 30
0.0
 10
17.866579224
 20
51.6821247989
 30
0.0
  0
SPLINE
  5
2B7
100
AcDbEntity
  8
0
100
AcDbSpline
 62
7
  6
BYLAYER
 70
0
 71
3
 72
10
 73
6
 74
0
 42
0.0000001
 43
0.0000001
 44
0.0000000001
 40
0.0
 40
0.0
 40
0.0
 40
0.0
 40
0.4999776493
 40
0.7499894074
 40
1.0
 40
1.0
 40
1.0
 40
1.0
 10
17.8665792397
 20
38.4257183384
 30
0.0
 10
17.7242294469
 20
39.5244969179
 30
0.0
 10
17.550774747
 20
41.178665655
 30
0.0
 10
17.4293680319
 20
43.391715066
 30
0.0
 10
17.4086892886
 20
44.4998928627
 30
0.0
 10
17.4086892886
 20
45.0539216581
 30
0.0
  0
SPLINE
  5
2B8
100
AcDbEntity
  8
0
100
AcDbSpline
 62
7
  6
BYLAYER
 70
0
 71
3
 72
11
 73
7
 74
0
 42
0.0000001
 43
0.0000001
 44
0.0000000001
 40
0.0
 40
0.0
 40
0.0
 40
0.0
 40
0.2479946598
 40
0.4969013587
 40
0.7474318832
 40
1.0
 40
1.0
 40
1.0
 40
1.0
 10
17.4086903454
 20
34.6616167324
 30
0.0
 10
17.408690298
 20
34.9303621893
 30
0.0
 10
17.4282020524
 20
35.4690344419
 30
0.0
 10
17.5142160724
 20
36.2750140974
 30
0.0
 10
17.6521407554
 20
37.0786677279
 30
0.0
 10
17.7738260978
 20
37.6103803904
 30
0.0
 10
17.8409702449
 20
37.8757183384
 30
0.0
  0
SPLINE
  5
2B9
100
AcDbEntity
  8
0
100
AcDbSpline
 62
7
  6
BYLAYER
 70
0
 71
3
 72
10
 73
6
 74
0
 42
0.0000001
 43
0.0000001
 44
0.0000000001
 40
0.0
 40
0.0
 40
0.0
 40
0.0
 40
0.2500118651
 40
0.5000238543
 40
1.0
 40
1.0
 40
1.0
 40
1.0
 10
20.4086892898
 20
45.053921598
 30
0.0
 10
20.4086892898
 20
44.4998900108
 30
0.0
 10
20.3880035233
 20
43.3917090763
 30
0.0
 10
20.2666026799
 20
41.1786596052
 30
0.0
 10
20.0931486956
 20
39.5244935582
 30
0.0
 10
19.9507993391
 20
38.4257183384
 30
0.0
  0
SPLINE
  5
2BA
100
AcDbEntity
  8
0
100
AcDbSpline
 62
7
  6
BYLAYER
 70
0
 71
3
 72
11
 73
7
 74
0
 42
0.0000001
 43
0.0000001
 44
0.0000000001
 40
0.0
 40
0.0
 40
0.0
 40
0.0
 40
0.2525682076
 40
0.5030987665
 40
0.7520053249
 40
1.0
 40
1.0
 40
1.0
 40
1.0
 10
19.9764082537
 20
37.8757183384
 30
0.0
 10
20.0435524212
 20
37.6103802873
 30
0.0
 10
20.1652393148
 20
37.078667942
 30
0.0
 10
20.3031678996
 20
36.2750146724
 30
0.0
 10
20.3891704317
 20
35.4690340313
 30
0.0
 10
20.4086889433
 20
34.9303622565
 30
0.0
 10
20.408688235
 20
34.6616167767
 30
0.0
  0
SPLINE
  5
2BB
100
AcDbEntity
  8
0
100
AcDbSpline
 62
7
  6
BYLAYER
 70
0
 71
3
 72
11
 73
7
 74
0
 42
0.0000001
 43
0.0000001
 44
0.0000000001
 40
0.0
 40
0.0
 40
0.0
 40
0.0
 40
0.247994677
 40
0.496901236
 40
0.7474317938
 40
1.0
 40
1.0
 40
1.0
 40
1.0
 10
20.408688235
 20
34.6616167767
 30
0.0
 10
20.4086889458
 20
34.392871286
 30
0.0
 10
20.389170429
 20
33.8541994911
 30
0.0
 10
20.3031679115
 20
33.0482188203
 30
0.0
 10
20.1652393181
 20
32.2445655268
 30
0.0
 10
20.0435524236
 20
31.7128531663
 30
0.0
 10
19.9764082543
 20
31.4475151081
 30
0.0
  0
SPLINE
  5
2BC
100
AcDbEntity
  8
0
100
AcDbSpline
 62
7
  6
BYLAYER
 70
0
 71
3
 72
11
 73
7
 74
0
 42
0.0000001
 43
0.0000001
 44
0.0000000001
 40
0.0
 40
0.0
 40
0.0
 40
0.0
 40
0.2525681185
 40
0.5030986439
 40
0.752005342
 40
1.0
 40
1.0
 40
1.0
 40
1.0
 10
17.840970244
 20
31.4475151081
 30
0.0
 10
17.773826096
 20
31.7128530593
 30
0.0
 10
17.6521407452
 20
32.244565726
 30
0.0
 10
17.5142160721
 20
33.048219365
 30
0.0
 10
17.4282020546
 20
33.8541990232
 30
0.0
 10
17.4086902976
 20
34.3928712759
 30
0.0
 10
17.4086903454
 20
34.6616167324
 30
0.0
  0
SPLINE
  5
2BD
100
AcDbEntity
  8
0
100
AcDbSpline
 62
7
  6
BYLAYER
 70
0
 71
3
 72
11
 73
7
 74
0
 42
0.0000001
 43
0.0000001
 44
0.0000000001
 40
0.0
 40
0.0
 40
0.0
 40
0.0
 40
0.2479946598
 40
0.4969013587
 40
0.7474318832
 40
1.0
 40
1.0
 40
1.0
 40
1.0
 10
20.4086882334
 20
55.4462264233
 30
0.0
 10
20.4086882812
 20
55.1774809649
 30
0.0
 10
20.3891765257
 20
54.6388087093
 30
0.0
 10
20.3031625082
 20
53.8328290492
 30
0.0
 10
20.1652378289
 20
53.0291754131
 30
0.0
 10
20.0435524752
 20
52.4974627502
 30
0.0
 10
19.9764083348
 20
52.232124799
 30
0.0
  0
SPLINE
  5
2BE
100
AcDbEntity
  8
0
100
AcDbSpline
 62
7
  6
BYLAYER
 70
0
 71
3
 72
10
 73
6
 74
0
 42
0.0000001
 43
0.0000001
 44
0.0000000001
 40
0.0
 40
0.0
 40
0.0
 40
0.0
 40
0.4999776493
 40
0.7499894074
 40
1.0
 40
1.0
 40
1.0
 40
1.0
 10
19.9507993548
 20
51.6821247989
 30
0.0
 10
20.093149142
 20
50.5833462388
 30
0.0
 10
20.2666038241
 20
48.9291775303
 30
0.0
 10
20.3880105438
 20
46.71612816
 30
0.0
 10
20.4086892889
 20
45.6079503833
 30
0.0
 10
20.4086892898
 20
45.053921598
 30
0.0
  0
SPLINE
  5
2BF
100
AcDbEntity
  8
0
100
AcDbSpline
 62
7
  6
BYLAYER
 70
0
 71
3
 72
11
 73
7
 74
0
 42
0.0000001
 43
0.0000001
 44
0.0000000001
 40
0.0
 40
0.0
 40
0.0
 40
0.0
 40
0.2525681184
 40
0.5030986439
 40
0.752005342
 40
1.0
 40
1.0
 40
1.0
 40
1.0
 10
19.9764083339
 20
58.6603280292
 30
0.0
 10
20.0435524744
 20
58.3949900778
 30
0.0
 10
20.1652378344
 20
57.8632774165
 30
0.0
 10
20.3031625034
 20
57.0596237812
 30
0.0
 10
20.3891765253
 20
56.2536441281
 30
0.0
 10
20.4086882808
 20
55.7149718782
 30
0.0
 10
20.4086882334
 20
55.4462264233
 30
0.0
  0
SPLINE
  5
2C0
100
AcDbEntity
  8
0
100
AcDbSpline
 62
7
  6
BYLAYER
 70
0
 71
3
 72
11
 73
7
 74
0
 42
0.0000001
 43
0.0000001
 44
0.0000000001
 40
0.0
 40
0.0
 40
0.0
 40
0.0
 40
0.2479946598
 40
0.4969013587
 40
0.7474318832
 40
1.0
 40
1.0
 40
1.0
 40
1.0
 10
13.4086882334
 20
34.6616167324
 30
0.0
 10
13.4086882813
 20
34.392871274
 30
0.0
 10
13.3891765254
 20
33.8541990185
 30
0.0
 10
13.303162509
 20
33.0482193581
 30
0.0
 10
13.1652378258
 20
32.244565723
 30
0.0
 10
13.0435524823
 20
31.7128530575
 30
0.0
 10
12.9764083348
 20
31.4475151081
 30
0.0
  0
SPLINE
  5
2C1
100
AcDbEntity
  8
0
100
AcDbSpline
 62
7
  6
BYLAYER
 70
0
 71
3
 72
11
 73
7
 74
0
 42
0.0000001
 43
0.0000001
 44
0.0000000001
 40
0.0
 40
0.0
 40
0.0
 40
0.0
 40
0.2525682079
 40
0.5030987666
 40
0.7520053248
 40
1.0
 40
1.0
 40
1.0
 40
1.0
 10
10.8409703245
 20
31.4475151081
 30
0.0
 10
10.7738261548
 20
31.712853168
 30
0.0
 10
10.6521392525
 20
32.2445655298
 30
0.0
 10
10.51421067
 20
33.0482188273
 30
0.0
 10
10.4282081511
 20
33.8541994959
 30
0.0
 10
10.4086896329
 20
34.3928712879
 30
0.0
 10
10.4086903438
 20
34.6616167767
 30
0.0
  0
SPLINE
  5
2C2
100
AcDbEntity
  8
0
100
AcDbSpline
 62
7
  6
BYLAYER
 70
0
 71
3
 72
11
 73
7
 74
0
 42
0.0000001
 43
0.0000001
 44
0.0000000001
 40
0.0
 40
0.0
 40
0.0
 40
0.0
 40
0.2479946769
 40
0.4969012361
 40
0.747431794
 40
1.0
 40
1.0
 40
1.0
 40
1.0
 10
10.4086903438
 20
34.6616167767
 30
0.0
 10
10.4086896355
 20
34.9303622585
 30
0.0
 10
10.4282081458
 20
35.469034036
 30
0.0
 10
10.5142106765
 20
36.2750146793
 30
0.0
 10
10.6521392721
 20
37.078667945
 30
0.0
 10
10.7738261581
 20
37.610380289
 30
0.0
 10
10.8409703251
 20
37.8757183384
 30
0.0
  0
SPLINE
  5
2C3
100
AcDbEntity
  8
0
100
AcDbSpline
 62
7
  6
BYLAYER
 70
0
 71
3
 72
10
 73
6
 74
0
 42
0.0000001
 43
0.0000001
 44
0.0000000001
 40
0.0
 40
0.0
 40
0.0
 40
0.0
 40
0.4999776493
 40
0.7499894074
 40
1.0
 40
1.0
 40
1.0
 40
1.0
 10
10.8665792397
 20
38.4257183384
 30
0.0
 10
10.7242294488
 20
39.5244969109
 30
0.0
 10
10.5507747485
 20
41.178665637
 30
0.0
 10
10.4293680333
 20
43.3917150336
 30
0.0
 10
10.408689289
 20
44.4998928232
 30
0.0
 10
10.408689289
 20
45.053921615
 30
0.0
  0
SPLINE
  5
2C4
100
AcDbEntity
  8
0
100
AcDbSpline
 62
7
  6
BYLAYER
 70
0
 71
3
 72
11
 73
7
 74
0
 42
0.0000001
 43
0.0000001
 44
0.0000000001
 40
0.0
 40
0.0
 40
0.0
 40
0.0
 40
0.2525681184
 40
0.5030986439
 40
0.752005342
 40
1.0
 40
1.0
 40
1.0
 40
1.0
 10
12.9764083339
 20
37.8757183384
 30
0.0
 10
13.0435524815
 20
37.6103803887
 30
0.0
 10
13.1652378313
 20
37.0786677248
 30
0.0
 10
13.3031625042
 20
36.2750140906
 30
0.0
 10
13.3891765251
 20
35.4690344371
 30
0.0
 10
13.4086882808
 20
34.9303621874
 30
0.0
 10
13.4086882334
 20
34.6616167324
 30
0.0
  0
SPLINE
  5
2C5
100
AcDbEntity
  8
0
100
AcDbSpline
 62
7
  6
BYLAYER
 70
0
 71
3
 72
10
 73
6
 74
0
 42
0.0000001
 43
0.0000001
 44
0.0000000001
 40
0.0
 40
0.0
 40
0.0
 40
0.0
 40
0.2500118651
 40
0.5000238543
 40
1.0
 40
1.0
 40
1.0
 40
1.0
 10
13.4086892902
 20
45.0539216254
 30
0.0
 10
13.4086892902
 20
44.4998900359
 30
0.0
 10
13.3880035242
 20
43.3917090968
 30
0.0
 10
13.2666026809
 20
41.1786596166
 30
0.0
 10
13.0931486973
 20
39.5244935626
 30
0.0
 10
12.9507993391
 20
38.4257183384
 30
0.0
  0
SPLINE
  5
2C6
100
AcDbEntity
  8
0
100
AcDbSpline
 62
7
  6
BYLAYER
 70
0
 71
3
 72
10
 73
6
 74
0
 42
0.0000001
 43
0.0000001
 44
0.0000000001
 40
0.0
 40
0.0
 40
0.0
 40
0.0
 40
0.4999776493
 40
0.7499894074
 40
1.0
 40
1.0
 40
1.0
 40
1.0
 10
12.9507993548
 20
51.6821247989
 30
0.0
 10
13.0931491445
 20
50.5833462437
 30
0.0
 10
13.2666038223
 20
48.9291775416
 30
0.0
 10
13.3880105432
 20
46.7161281805
 30
0.0
 10
13.4086892884
 20
45.6079504084
 30
0.0
 10
13.4086892902
 20
45.0539216254
 30
0.0
  0
SPLINE
  5
2C7
100
AcDbEntity
  8
0
100
AcDbSpline
 62
7
  6
BYLAYER
 70
0
 71
3
 72
11
 73
7
 74
0
 42
0.0000001
 43
0.0000001
 44
0.0000000001
 40
0.0
 40
0.0
 40
0.0
 40
0.0
 40
0.2479946598
 40
0.4969013587
 40
0.7474318832
 40
1.0
 40
1.0
 40
1.0
 40
1.0
 10
13.4086882334
 20
55.4462264233
 30
0.0
 10
13.4086882813
 20
55.1774809649
 30
0.0
 10
13.3891765255
 20
54.6388087094
 30
0.0
 10
13.303162509
 20
53.832829049
 30
0.0
 10
13.1652378258
 20
53.0291754139
 30
0.0
 10
13.0435524823
 20
52.4974627484
 30
0.0
 10
12.9764083348
 20
52.232124799
 30
0.0
  0
SPLINE
  5
2C8
100
AcDbEntity
  8
0
100
AcDbSpline
 62
7
  6
BYLAYER
 70
0
 71
3
 72
11
 73
7
 74
0
 42
0.0000001
 43
0.0000001
 44
0.0000000001
 40
0.0
 40
0.0
 40
0.0
 40
0.0
 40
0.2525681184
 40
0.5030986439
 40
0.752005342
 40
1.0
 40
1.0
 40
1.0
 40
1.0
 10
12.9764083339
 20
58.6603280292
 30
0.0
 10
13.0435524815
 20
58.3949900796
 30
0.0
 10
13.1652378313
 20
57.8632774157
 30
0.0
 10
13.3031625042
 20
57.0596237814
 30
0.0
 10
13.3891765251
 20
56.253644128
 30
0.0
 10
13.4086882808
 20
55.7149718782
 30
0.0
 10
13.4086882334
 20
55.4462264233
 30
0.0
  0
SPLINE
  5
2C9
100
AcDbEntity
  8
0
100
AcDbSpline
 62
7
  6
BYLAYER
 70
0
 71
3
 72
10
 73
6
 74
0
 42
0.0000001
 43
0.0000001
 44
0.0000000001
 40
0.0
 40
0.0
 40
0.0
 40
0.0
 40
0.2500118633
 40
0.5000238375
 40
1.0
 40
1.0
 40
1.0
 40
1.0
 10
10.408689289
 20
45.053921615
 30
0.0
 10
10.4086892899
 20
45.6079531866
 30
0.0
 10
10.4293697562
 20
46.7161342383
 30
0.0
 10
10.5507844379
 20
48.9291829309
 30
0.0
 10
10.7242298678
 20
50.5833495647
 30
0.0
 10
10.866579224
 20
51.6821247989
 30
0.0
  0
SPLINE
  5
2CA
100
AcDbEntity
  8
0
100
AcDbSpline
 62
7
  6
BYLAYER
 70
0
 71
3
 72
11
 73
7
 74
0
 42
0.0000001
 43
0.0000001
 44
0.0000000001
 40
0.0
 40
0.0
 40
0.0
 40
0.0
 40
0.2525681185
 40
0.5030986439
 40
0.752005342
 40
1.0
 40
1.0
 40
1.0
 40
1.0
 10
10.840970244
 20
52.232124799
 30
0.0
 10
10.7738261032
 20
52.4974627519
 30
0.0
 10
10.6521407421
 20
53.0291754161
 30
0.0
 10
10.5142160729
 20
53.8328290561
 30
0.0
 10
10.4282020544
 20
54.638808714
 30
0.0
 10
10.4086902975
 20
55.1774809668
 30
0.0
 10
10.4086903454
 20
55.4462264233
 30
0.0
  0
SPLINE
  5
2CB
100
AcDbEntity
  8
0
100
AcDbSpline
 62
7
  6
BYLAYER
 70
0
 71
3
 72
11
 73
7
 74
0
 42
0.0000001
 43
0.0000001
 44
0.0000000001
 40
0.0
 40
0.0
 40
0.0
 40
0.0
 40
0.2479946598
 40
0.4969013587
 40
0.7474318832
 40
1.0
 40
1.0
 40
1.0
 40
1.0
 10
10.4086903454
 20
55.4462264233
 30
0.0
 10
10.408690298
 20
55.7149718801
 30
0.0
 10
10.4282020522
 20
56.2536441328
 30
0.0
 10
10.5142160732
 20
57.0596237881
 30
0.0
 10
10.6521407523
 20
57.8632774195
 30
0.0
 10
10.7738261048
 20
58.3949900795
 30
0.0
 10
10.8409702449
 20
58.6603280292
 30
0.0
  0
ELLIPSE
  5
2CC
100
AcDbEntity
  8
0
100
AcDbEllipse
 62
7
  6
BYLAYER
 10
12.9008381906
 20
46.1688754765
 30
0.0
 11
10.195190748
 21
-8.0474192635
 31
0.0
 40
0.7470541823
 41
8.051558944
 42
8.0592242454
  0
ELLIPSE
  5
2CD
100
AcDbEntity
  8
0
100
AcDbEllipse
 62
7
  6
BYLAYER
 10
12.9008381906
 20
46.7024648133
 30
0.0
 11
10.3341729894
 21
-8.919591999
 31
0.0
 40
0.6468548444
 41
1.7373489256
 42
1.75244681
  0
ELLIPSE
  5
2CE
100
AcDbEntity
  8
0
100
AcDbEllipse
 62
7
  6
BYLAYER
 10
12.9008381906
 20
47.2078471181
 30
0.0
 11
10.5743403885
 21
-9.5757833526
 31
0.0
 40
0.5552272381
 41
1.6885921549
 42
1.7091271624
  0
ELLIPSE
  5
2CF
100
AcDbEntity
  8
0
100
AcDbEllipse
 62
7
  6
BYLAYER
 10
12.9008381906
 20
47.6763751595
 30
0.0
 11
10.8336078883
 21
-10.1170563979
 31
0.0
 40
0.4711119558
 41
1.632905328
 42
1.6577118433
  0
ELLIPSE
  5
2D0
100
AcDbEntity
  8
0
100
AcDbEllipse
 62
7
  6
BYLAYER
 10
12.9008381906
 20
48.100032293
 30
0.0
 11
11.0811640271
 21
-10.57430594
 31
0.0
 40
0.3932536107
 41
1.5738888353
 42
1.6022491259
  0
ELLIPSE
  5
2D1
100
AcDbEntity
  8
0
100
AcDbEllipse
 62
7
  6
BYLAYER
 10
12.9008381906
 20
48.4715696274
 30
0.0
 11
11.3026503924
 21
-10.9583479679
 31
0.0
 40
0.32049021
 41
1.5130493452
 42
1.5445144439
  0
ELLIPSE
  5
2D2
100
AcDbEntity
  8
0
100
AcDbEllipse
 62
7
  6
BYLAYER
 10
12.9008381906
 20
48.784630056
 30
0.0
 11
11.4903624333
 21
-11.272755276
 31
0.0
 40
0.2517837063
 41
1.4511217496
 42
1.48541291
  0
ELLIPSE
  5
2D3
100
AcDbEntity
  8
0
100
AcDbEllipse
 62
7
  6
BYLAYER
 10
12.9008381906
 20
49.033857028
 30
0.0
 11
11.6397811956
 21
-11.5182116851
 31
0.0
 40
0.1862029912
 41
1.3888451401
 42
1.4254597263
  0
ELLIPSE
  5
2D4
100
AcDbEntity
  8
0
100
AcDbEllipse
 62
7
  6
BYLAYER
 10
12.9008381906
 20
49.2149862008
 30
0.0
 11
11.7481381864
 21
-11.6942962282
 31
0.0
 40
0.1228992729
 41
1.3256576735
 42
1.3649764266
  0
ELLIPSE
  5
2D5
100
AcDbEntity
  8
0
100
AcDbEllipse
 62
7
  6
BYLAYER
 10
12.9008381906
 20
49.3249184042
 30
0.0
 11
11.8137551981
 21
-11.8003161272
 31
0.0
 40
0.0610824685
 41
1.2620631662
 42
1.3041827215
  0
ELLIPSE
  5
2D6
100
AcDbEntity
  8
0
100
AcDbEllipse
 62
7
  6
BYLAYER
 10
20.3123540649
 20
44.6488120236
 30
0.0
 11
9.6458827394
 21
-7.3844602403
 31
0.0
 40
0.8684143762
 41
-1.3004404315
 42
-1.2553373397
  0
ELLIPSE
  5
2D7
100
AcDbEntity
  8
0
100
AcDbEllipse
 62
7
  6
BYLAYER
 10
20.3123540649
 20
44.2506340151
 30
0.0
 11
9.6390686169
 21
-8.472058128
 31
0.0
 40
0.7581403628
 41
-1.2993786929
 42
-1.2542756011
  0
ELLIPSE
  5
2D8
100
AcDbEntity
  8
0
100
AcDbEllipse
 62
7
  6
BYLAYER
 10
20.3123540649
 20
43.8662004795
 30
0.0
 11
9.9008743148
 21
-9.1398053983
 31
0.0
 40
0.657738698
 41
-1.3414816556
 42
-1.2963785638
  0
ELLIPSE
  5
2D9
100
AcDbEntity
  8
0
100
AcDbEllipse
 62
7
  6
BYLAYER
 10
20.3123540649
 20
43.5020891809
 30
0.0
 11
10.207034137
 21
-9.672197328
 31
0.0
 40
0.5661264515
 41
-1.3947731368
 42
-1.349670045
  0
ELLIPSE
  5
2DA
100
AcDbEntity
  8
0
100
AcDbEllipse
 62
7
  6
BYLAYER
 10
20.3123540649
 20
43.1645301648
 30
0.0
 11
10.5062434209
 21
-10.1235279518
 31
0.0
 40
0.4817532195
 41
-1.4525600291
 42
-1.4074569373
  0
ELLIPSE
  5
2DB
100
AcDbEntity
  8
0
100
AcDbEllipse
 62
7
  6
BYLAYER
 10
20.3123540649
 20
42.8592991594
 30
0.0
 11
10.7798633581
 21
-10.5096998268
 31
0.0
 40
0.4032531911
 41
-1.5125785545
 42
-1.4674754626
  0
ELLIPSE
  5
2DC
100
AcDbEntity
  8
0
100
AcDbEllipse
 62
7
  6
BYLAYER
 10
20.3123540649
 20
42.5916187519
 30
0.0
 11
11.0191384116
 21
-10.8359096051
 31
0.0
 40
0.3294650235
 41
-1.5738481298
 42
-1.5287450379
  0
ELLIPSE
  5
2DD
100
AcDbEntity
  8
0
100
AcDbEllipse
 62
7
  6
BYLAYER
 10
20.3123540649
 20
42.3660690283
 30
0.0
 11
11.2192358625
 21
-11.103573653
 31
0.0
 40
0.2593921815
 41
-1.6358717148
 42
-1.590768623
  0
ELLIPSE
  5
2DE
100
AcDbEntity
  8
0
100
AcDbEllipse
 62
7
  6
BYLAYER
 10
20.3123540649
 20
42.1865092068
 30
0.0
 11
11.377213794
 21
-11.3126576757
 31
0.0
 40
0.1921623568
 41
-1.6983667832
 42
-1.6532636914
  0
ELLIPSE
  5
2DF
100
AcDbEntity
  8
0
100
AcDbEllipse
 62
7
  6
BYLAYER
 10
20.3123540649
 20
42.0560116059
 30
0.0
 11
11.4912004934
 21
-11.4626280056
 31
0.0
 40
0.1269935126
 41
-1.7611565844
 42
-1.7160534926
  0
ELLIPSE
  5
2E0
100
AcDbEntity
  8
0
100
AcDbEllipse
 62
7
  6
BYLAYER
 10
20.3123540649
 20
41.9768090756
 30
0.0
 11
11.5600239517
 21
-11.5528949874
 31
0.0
 40
0.0631661312
 41
-1.82411965
 42
-1.7790165582
  0
ELLIPSE
  5
2E1
100
AcDbEntity
  8
0
100
AcDbEllipse
 62
7
  6
BYLAYER
 10
20.3123540649
 20
45.0539215686
 30
0.0
 11
11.5830346317
 21
-0.0
 31
0.0
 40
0.963433044
 41
1.8420600805
 42
1.8871631723
  0
ELLIPSE
  5
2E2
100
AcDbEntity
  8
0
100
AcDbEllipse
 62
7
  6
BYLAYER
 10
20.3123540649
 20
45.4590311137
 30
0.0
 11
9.6458827394
 21
7.3844602403
 31
0.0
 40
0.8684143762
 41
1.2553373397
 42
1.3004404315
  0
ELLIPSE
  5
2E3
100
AcDbEntity
  8
0
100
AcDbEllipse
 62
7
  6
BYLAYER
 10
20.3123540649
 20
45.8572091221
 30
0.0
 11
9.6390686169
 21
8.472058128
 31
0.0
 40
0.7581403628
 41
1.2542756011
 42
1.2993786929
  0
ELLIPSE
  5
2E4
100
AcDbEntity
  8
0
100
AcDbEllipse
 62
7
  6
BYLAYER
 10
20.3123540649
 20
46.2416426578
 30
0.0
 11
9.9008743148
 21
9.1398053983
 31
0.0
 40
0.657738698
 41
1.2963785638
 42
1.3414816556
  0
ELLIPSE
  5
2E5
100
AcDbEntity
  8
0
100
AcDbEllipse
 62
7
  6
BYLAYER
 10
20.3123540649
 20
46.6057539564
 30
0.0
 11
10.207034137
 21
9.672197328
 31
0.0
 40
0.5661264515
 41
1.349670045
 42
1.3947731368
  0
ELLIPSE
  5
2E6
100
AcDbEntity
  8
0
100
AcDbEllipse
 62
7
  6
BYLAYER
 10
20.3123540649
 20
46.9433129725
 30
0.0
 11
10.5062434209
 21
10.1235279518
 31
0.0
 40
0.4817532195
 41
1.4074569373
 42
1.4525600291
  0
ELLIPSE
  5
2E7
100
AcDbEntity
  8
0
100
AcDbEllipse
 62
7
  6
BYLAYER
 10
20.3123540649
 20
47.2485439779
 30
0.0
 11
10.7798633581
 21
10.5096998268
 31
0.0
 40
0.4032531911
 41
1.4674754626
 42
1.5125785545
  0
ELLIPSE
  5
2E8
100
AcDbEntity
  8
0
100
AcDbEllipse
 62
7
  6
BYLAYER
 10
20.3123540649
 20
47.5162243854
 30
0.0
 11
11.0191384116
 21
10.8359096051
 31
0.0
 40
0.3294650235
 41
1.5287450379
 42
1.5738481298
  0
ELLIPSE
  5
2E9
100
AcDbEntity
  8
0
100
AcDbEllipse
 62
7
  6
BYLAYER
 10
20.3123540649
 20
47.741774109
 30
0.0
 11
11.2192358625
 21
11.103573653
 31
0.0
 40
0.2593921815
 41
1.590768623
 42
1.6358717148
  0
ELLIPSE
  5
2EA
100
AcDbEntity
  8
0
100
AcDbEllipse
 62
7
  6
BYLAYER
 10
20.3123540649
 20
47.9213339305
 30
0.0
 11
11.377213794
 21
11.3126576757
 31
0.0
 40
0.1921623568
 41
1.6532636914
 42
1.6983667832
  0
ELLIPSE
  5
2EB
100
AcDbEntity
  8
0
100
AcDbEllipse
 62
7
  6
BYLAYER
 10
20.3123540649
 20
48.0518315314
 30
0.0
 11
11.4912004934
 21
11.4626280056
 31
0.0
 40
0.1269935126
 41
1.7160534926
 42
1.7611565844
  0
ELLIPSE
  5
2EC
100
AcDbEntity
  8
0
100
AcDbEllipse
 62
7
  6
BYLAYER
 10
20.3123540649
 20
48.1310340617
 30
0.0
 11
11.5600239517
 21
11.5528949874
 31
0.0
 40
0.0631661312
 41
1.7790165582
 42
1.82411965
  0
ELLIPSE
  5
2ED
100
AcDbEntity
  8
0
100
AcDbEllipse
 62
7
  6
BYLAYER
 10
12.9008381906
 20
40.7829247331
 30
0.0
 11
11.8137551981
 21
11.8003161272
 31
0.0
 40
0.0610824685
 41
-1.3041827215
 42
-1.2620631378
  0
ELLIPSE
  5
2EE
100
AcDbEntity
  8
0
100
AcDbEllipse
 62
7
  6
BYLAYER
 10
12.9008381906
 20
40.8928569364
 30
0.0
 11
11.7481381864
 21
11.6942962282
 31
0.0
 40
0.1228992729
 41
-1.3649764266
 42
-1.3256576209
  0
ELLIPSE
  5
2EF
100
AcDbEntity
  8
0
100
AcDbEllipse
 62
7
  6
BYLAYER
 10
12.9008381906
 20
41.0739861093
 30
0.0
 11
11.6397811956
 21
11.5182116851
 31
0.0
 40
0.1862029912
 41
-1.4254597263
 42
-1.3888450666
  0
ELLIPSE
  5
2F0
100
AcDbEntity
  8
0
100
AcDbEllipse
 62
7
  6
BYLAYER
 10
12.9008381906
 20
41.3232130813
 30
0.0
 11
11.4903624333
 21
11.272755276
 31
0.0
 40
0.2517837063
 41
-1.48541291
 42
-1.4511216763
  0
ELLIPSE
  5
2F1
100
AcDbEntity
  8
0
100
AcDbEllipse
 62
7
  6
BYLAYER
 10
20.3123540649
 20
45.0539215686
 30
0.0
 11
11.5830346317
 21
0.0
 31
0.0
 40
0.963433044
 41
4.3960221348
 42
4.4411252267
  0
ELLIPSE
  5
2F2
100
AcDbEntity
  8
0
100
AcDbEllipse
 62
7
  6
BYLAYER
 10
12.9008381906
 20
41.6362735099
 30
0.0
 11
11.3026503924
 21
10.9583479679
 31
0.0
 40
0.32049021
 41
-1.5445144439
 42
-1.5130492648
  0
ELLIPSE
  5
2F3
100
AcDbEntity
  8
0
100
AcDbEllipse
 62
7
  6
BYLAYER
 10
12.9008381906
 20
42.0078108443
 30
0.0
 11
11.0811640271
 21
10.57430594
 31
0.0
 40
0.3932536107
 41
-1.6022491259
 42
-1.573888848
  0
ELLIPSE
  5
2F4
100
AcDbEntity
  8
0
100
AcDbEllipse
 62
7
  6
BYLAYER
 10
12.9008381906
 20
43.9389676608
 30
0.0
 11
10.195190748
 21
8.0474192635
 31
0.0
 40
0.7470541823
 41
-1.7760389382
 42
-1.7683736348
  0
ELLIPSE
  5
2F5
100
AcDbEntity
  8
0
100
AcDbEllipse
 62
7
  6
BYLAYER
 10
12.9008381906
 20
43.405378324
 30
0.0
 11
10.3341729894
 21
8.919591999
 31
0.0
 40
0.6468548444
 41
-1.75244681
 42
-1.7373489368
  0
ELLIPSE
  5
2F6
100
AcDbEntity
  8
0
100
AcDbEllipse
 62
7
  6
BYLAYER
 10
12.9008381906
 20
42.4314679777
 30
0.0
 11
10.8336078883
 21
10.1170563979
 31
0.0
 40
0.4711119558
 41
-1.6577118433
 42
-1.6329053324
  0
ELLIPSE
  5
2F7
100
AcDbEntity
  8
0
100
AcDbEllipse
 62
7
  6
BYLAYER
 10
12.9008381906
 20
42.8999960192
 30
0.0
 11
10.5743403885
 21
9.5757833526
 31
0.0
 40
0.5552272381
 41
-1.7091271624
 42
-1.688592157
  0
ELLIPSE
  5
2F8
100
AcDbEntity
  8
0
100
AcDbEllipse
 62
7
  6
BYLAYER
 10
20.3123540649
 20
42.5916187519
 30
0.0
 11
11.0191384116
 21
-10.8359096051
 31
0.0
 40
0.3294650235
 41
2.1553751231
 42
2.2004782149
  0
ELLIPSE
  5
2F9
100
AcDbEntity
  8
0
100
AcDbEllipse
 62
7
  6
BYLAYER
 10
20.3123540649
 20
42.8592991594
 30
0.0
 11
10.7798633581
 21
-10.5096998268
 31
0.0
 40
0.4032531911
 41
2.2166446984
 42
2.2617477902
  0
ELLIPSE
  5
2FA
100
AcDbEntity
  8
0
100
AcDbEllipse
 62
7
  6
BYLAYER
 10
20.3123540649
 20
43.1645301648
 30
0.0
 11
10.5062434209
 21
-10.1235279518
 31
0.0
 40
0.4817532195
 41
2.2766632237
 42
2.3217663156
  0
ELLIPSE
  5
2FB
100
AcDbEntity
  8
0
100
AcDbEllipse
 62
7
  6
BYLAYER
 10
20.3123540649
 20
43.5020891809
 30
0.0
 11
10.207034137
 21
-9.672197328
 31
0.0
 40
0.5661264515
 41
2.3344501161
 42
2.3795532079
  0
ELLIPSE
  5
2FC
100
AcDbEntity
  8
0
100
AcDbEllipse
 62
7
  6
BYLAYER
 10
20.3123540649
 20
43.8662004795
 30
0.0
 11
9.9008743148
 21
-9.1398053983
 31
0.0
 40
0.657738698
 41
2.3877415972
 42
2.432844689
  0
ELLIPSE
  5
2FD
100
AcDbEntity
  8
0
100
AcDbEllipse
 62
7
  6
BYLAYER
 10
20.3123540649
 20
44.2506340151
 30
0.0
 11
9.6390686169
 21
-8.472058128
 31
0.0
 40
0.7581403628
 41
2.42984456
 42
2.4749476518
  0
ELLIPSE
  5
2FE
100
AcDbEntity
  8
0
100
AcDbEllipse
 62
7
  6
BYLAYER
 10
20.3123540649
 20
44.6488120236
 30
0.0
 11
9.6458827394
 21
-7.3844602403
 31
0.0
 40
0.8684143762
 41
2.4287828214
 42
2.4738859132
  0
ELLIPSE
  5
2FF
100
AcDbEntity
  8
0
100
AcDbEllipse
 62
7
  6
BYLAYER
 10
20.3123540649
 20
48.1310340617
 30
0.0
 11
11.5600239517
 21
11.5528949874
 31
0.0
 40
0.0631661312
 41
-1.9502066947
 42
-1.9051036029
  0
ELLIPSE
  5
300
100
AcDbEntity
  8
0
100
AcDbEllipse
 62
7
  6
BYLAYER
 10
20.3123540649
 20
48.0518315314
 30
0.0
 11
11.4912004934
 21
11.4626280056
 31
0.0
 40
0.1269935126
 41
-2.0131697603
 42
-1.9680666685
  0
ELLIPSE
  5
301
100
AcDbEntity
  8
0
100
AcDbEllipse
 62
7
  6
BYLAYER
 10
20.3123540649
 20
47.9213339305
 30
0.0
 11
11.377213794
 21
11.3126576757
 31
0.0
 40
0.1921623568
 41
-2.0759595615
 42
-2.0308564696
  0
ELLIPSE
  5
302
100
AcDbEntity
  8
0
100
AcDbEllipse
 62
7
  6
BYLAYER
 10
20.3123540649
 20
47.741774109
 30
0.0
 11
11.2192358625
 21
11.103573653
 31
0.0
 40
0.2593921815
 41
-2.1384546298
 42
-2.093351538
  0
ELLIPSE
  5
303
100
AcDbEntity
  8
0
100
AcDbEllipse
 62
7
  6
BYLAYER
 10
20.3123540649
 20
47.5162243854
 30
0.0
 11
11.0191384116
 21
10.8359096051
 31
0.0
 40
0.3294650235
 41
-2.2004782149
 42
-2.1553751231
  0
ELLIPSE
  5
304
100
AcDbEntity
  8
0
100
AcDbEllipse
 62
7
  6
BYLAYER
 10
20.3123540649
 20
45.4590311137
 30
0.0
 11
9.6458827394
 21
7.3844602403
 31
0.0
 40
0.8684143762
 41
-2.4738859132
 42
-2.4287828214
  0
ELLIPSE
  5
305
100
AcDbEntity
  8
0
100
AcDbEllipse
 62
7
  6
BYLAYER
 10
20.3123540649
 20
47.2485439779
 30
0.0
 11
10.7798633581
 21
10.5096998268
 31
0.0
 40
0.4032531911
 41
-2.2617477902
 42
-2.2166446984
  0
ELLIPSE
  5
306
100
AcDbEntity
  8
0
100
AcDbEllipse
 62
7
  6
BYLAYER
 10
20.3123540649
 20
45.8572091221
 30
0.0
 11
9.6390686169
 21
8.472058128
 31
0.0
 40
0.7581403628
 41
-2.4749476518
 42
-2.42984456
  0
ELLIPSE
  5
307
100
AcDbEntity
  8
0
100
AcDbEllipse
 62
7
  6
BYLAYER
 10
20.3123540649
 20
46.9433129725
 30
0.0
 11
10.5062434209
 21
10.1235279518
 31
0.0
 40
0.4817532195
 41
-2.3217663156
 42
-2.2766632237
  0
ELLIPSE
  5
308
100
AcDbEntity
  8
0
100
AcDbEllipse
 62
7
  6
BYLAYER
 10
20.3123540649
 20
46.2416426578
 30
0.0
 11
9.9008743148
 21
9.1398053983
 31
0.0
 40
0.657738698
 41
-2.432844689
 42
-2.3877415972
  0
ELLIPSE
  5
309
100
AcDbEntity
  8
0
100
AcDbEllipse
 62
7
  6
BYLAYER
 10
20.3123540649
 20
41.9768090756
 30
0.0
 11
11.5600239517
 21
-11.5528949874
 31
0.0
 40
0.0631661312
 41
1.9051036029
 42
1.9502066947
  0
ELLIPSE
  5
30A
100
AcDbEntity
  8
0
100
AcDbEllipse
 62
7
  6
BYLAYER
 10
20.3123540649
 20
42.0560116059
 30
0.0
 11
11.4912004934
 21
-11.4626280056
 31
0.0
 40
0.1269935126
 41
1.9680666685
 42
2.0131697603
  0
ELLIPSE
  5
30B
100
AcDbEntity
  8
0
100
AcDbEllipse
 62
7
  6
BYLAYER
 10
20.3123540649
 20
42.1865092068
 30
0.0
 11
11.377213794
 21
-11.3126576757
 31
0.0
 40
0.1921623568
 41
2.0308564696
 42
2.0759595615
  0
ELLIPSE
  5
30C
100
AcDbEntity
  8
0
100
AcDbEllipse
 62
7
  6
BYLAYER
 10
20.3123540649
 20
42.3660690283
 30
0.0
 11
11.2192358625
 21
-11.103573653
 31
0.0
 40
0.2593921815
 41
2.093351538
 42
2.1384546298
  0
ELLIPSE
  5
30D
100
AcDbEntity
  8
0
100
AcDbEllipse
 62
7
  6
BYLAYER
 10
20.3123540649
 20
46.6057539564
 30
0.0
 11
10.207034137
 21
9.672197328
 31
0.0
 40
0.5661264515
 41
-2.3795532079
 42
-2.3344501161
  0
ELLIPSE
  5
30E
100
AcDbEntity
  8
0
100
AcDbEllipse
 62
7
  6
BYLAYER
 10
17.9165403883
 20
43.9389676608
 30
0.0
 11
10.195190748
 21
-8.0474192635
 31
0.0
 40
0.7470541823
 41
4.9099662904
 42
4.9176315918
  0
ELLIPSE
  5
30F
100
AcDbEntity
  8
0
100
AcDbEllipse
 62
7
  6
BYLAYER
 10
17.9165403883
 20
43.405378324
 30
0.0
 11
10.3341729894
 21
-8.919591999
 31
0.0
 40
0.6468548444
 41
-1.404243728
 42
-1.3891458436
  0
ELLIPSE
  5
310
100
AcDbEntity
  8
0
100
AcDbEllipse
 62
7
  6
BYLAYER
 10
17.9165403883
 20
42.8999960192
 30
0.0
 11
10.5743403885
 21
-9.5757833526
 31
0.0
 40
0.5552272381
 41
-1.4530004987
 42
-1.4324654912
  0
ELLIPSE
  5
311
100
AcDbEntity
  8
0
100
AcDbEllipse
 62
7
  6
BYLAYER
 10
17.9165403883
 20
42.4314679777
 30
0.0
 11
10.8336078883
 21
-10.1170563979
 31
0.0
 40
0.4711119558
 41
-1.5086873256
 42
-1.4838808103
  0
ELLIPSE
  5
312
100
AcDbEntity
  8
0
100
AcDbEllipse
 62
7
  6
BYLAYER
 10
17.9165403883
 20
42.0078108443
 30
0.0
 11
11.0811640271
 21
-10.57430594
 31
0.0
 40
0.3932536107
 41
-1.5677038183
 42
-1.5393435277
  0
ELLIPSE
  5
313
100
AcDbEntity
  8
0
100
AcDbEllipse
 62
7
  6
BYLAYER
 10
17.9165403883
 20
41.6362735099
 30
0.0
 11
11.3026503924
 21
-10.9583479679
 31
0.0
 40
0.32049021
 41
-1.6285433084
 42
-1.5970782097
  0
ELLIPSE
  5
314
100
AcDbEntity
  8
0
100
AcDbEllipse
 62
7
  6
BYLAYER
 10
17.9165403883
 20
41.3232130813
 30
0.0
 11
11.4903624333
 21
-11.272755276
 31
0.0
 40
0.2517837063
 41
-1.690470904
 42
-1.6561797436
  0
ELLIPSE
  5
315
100
AcDbEntity
  8
0
100
AcDbEllipse
 62
7
  6
BYLAYER
 10
17.9165403883
 20
41.0739861093
 30
0.0
 11
11.6397811956
 21
-11.5182116851
 31
0.0
 40
0.1862029912
 41
-1.7527475135
 42
-1.7161329273
  0
ELLIPSE
  5
316
100
AcDbEntity
  8
0
100
AcDbEllipse
 62
7
  6
BYLAYER
 10
17.9165403883
 20
40.8928569364
 30
0.0
 11
11.7481381864
 21
-11.6942962282
 31
0.0
 40
0.1228992729
 41
-1.8159349801
 42
-1.776616227
  0
ELLIPSE
  5
317
100
AcDbEntity
  8
0
100
AcDbEllipse
 62
7
  6
BYLAYER
 10
17.9165403883
 20
40.7829247331
 30
0.0
 11
11.8137551981
 21
-11.8003161272
 31
0.0
 40
0.0610824685
 41
-1.8795294874
 42
-1.8374099321
  0
ELLIPSE
  5
318
100
AcDbEntity
  8
0
100
AcDbEllipse
 62
7
  6
BYLAYER
 10
10.505024514
 20
44.6488120236
 30
0.0
 11
9.6458827394
 21
7.3844602403
 31
0.0
 40
0.8684143762
 41
-1.8862553139
 42
-1.8411522221
  0
ELLIPSE
  5
319
100
AcDbEntity
  8
0
100
AcDbEllipse
 62
7
  6
BYLAYER
 10
10.505024514
 20
44.2506340151
 30
0.0
 11
9.6390686169
 21
8.472058128
 31
0.0
 40
0.7581403628
 41
-1.8873170525
 42
-1.8422139607
  0
ELLIPSE
  5
31A
100
AcDbEntity
  8
0
100
AcDbEllipse
 62
7
  6
BYLAYER
 10
10.505024514
 20
43.8662004795
 30
0.0
 11
9.9008743148
 21
9.1398053983
 31
0.0
 40
0.657738698
 41
-1.8452140898
 42
-1.800110998
  0
ELLIPSE
  5
31B
100
AcDbEntity
  8
0
100
AcDbEllipse
 62
7
  6
BYLAYER
 10
17.9165403883
 20
46.1688754765
 30
0.0
 11
10.195190748
 21
8.0474192635
 31
0.0
 40
0.7470541823
 41
1.3655537154
 42
1.3732190188
  0
ELLIPSE
  5
31C
100
AcDbEntity
  8
0
100
AcDbEllipse
 62
7
  6
BYLAYER
 10
10.505024514
 20
43.5020891809
 30
0.0
 11
10.207034137
 21
9.672197328
 31
0.0
 40
0.5661264515
 41
-1.7919226086
 42
-1.7468195168
  0
ELLIPSE
  5
31D
100
AcDbEntity
  8
0
100
AcDbEllipse
 62
7
  6
BYLAYER
 10
17.9165403883
 20
46.7024648133
 30
0.0
 11
10.3341729894
 21
8.919591999
 31
0.0
 40
0.6468548444
 41
1.3891458436
 42
1.4042437168
  0
ELLIPSE
  5
31E
100
AcDbEntity
  8
0
100
AcDbEllipse
 62
7
  6
BYLAYER
 10
10.505024514
 20
43.1645301648
 30
0.0
 11
10.5062434209
 21
10.1235279518
 31
0.0
 40
0.4817532195
 41
-1.7341357163
 42
-1.6890326245
  0
ELLIPSE
  5
31F
100
AcDbEntity
  8
0
100
AcDbEllipse
 62
7
  6
BYLAYER
 10
17.9165403883
 20
47.2078471181
 30
0.0
 11
10.5743403885
 21
9.5757833526
 31
0.0
 40
0.5552272381
 41
1.4324654912
 42
1.4530004966
  0
ELLIPSE
  5
320
100
AcDbEntity
  8
0
100
AcDbEllipse
 62
7
  6
BYLAYER
 10
10.505024514
 20
42.8592991594
 30
0.0
 11
10.7798633581
 21
10.5096998268
 31
0.0
 40
0.4032531911
 41
-1.674117191
 42
-1.6290140991
  0
ELLIPSE
  5
321
100
AcDbEntity
  8
0
100
AcDbEllipse
 62
7
  6
BYLAYER
 10
17.9165403883
 20
47.6763751595
 30
0.0
 11
10.8336078883
 21
10.1170563979
 31
0.0
 40
0.4711119558
 41
1.4838808103
 42
1.5086873211
  0
ELLIPSE
  5
322
100
AcDbEntity
  8
0
100
AcDbEllipse
 62
7
  6
BYLAYER
 10
10.505024514
 20
42.5916187519
 30
0.0
 11
11.0191384116
 21
10.8359096051
 31
0.0
 40
0.3294650235
 41
-1.6128476156
 42
-1.5677445238
  0
ELLIPSE
  5
323
100
AcDbEntity
  8
0
100
AcDbEllipse
 62
7
  6
BYLAYER
 10
17.9165403883
 20
48.100032293
 30
0.0
 11
11.0811640271
 21
10.57430594
 31
0.0
 40
0.3932536107
 41
1.5393435277
 42
1.5677038056
  0
ELLIPSE
  5
324
100
AcDbEntity
  8
0
100
AcDbEllipse
 62
7
  6
BYLAYER
 10
10.505024514
 20
42.3660690283
 30
0.0
 11
11.2192358625
 21
11.103573653
 31
0.0
 40
0.2593921815
 41
-1.5508240306
 42
-1.5057209388
  0
ELLIPSE
  5
325
100
AcDbEntity
  8
0
100
AcDbEllipse
 62
7
  6
BYLAYER
 10
17.9165403883
 20
48.4715696274
 30
0.0
 11
11.3026503924
 21
10.9583479679
 31
0.0
 40
0.32049021
 41
1.5970782097
 42
1.6285433888
  0
ELLIPSE
  5
326
100
AcDbEntity
  8
0
100
AcDbEllipse
 62
7
  6
BYLAYER
 10
17.9165403883
 20
48.784630056
 30
0.0
 11
11.4903624333
 21
11.272755276
 31
0.0
 40
0.2517837063
 41
1.6561797436
 42
1.6904709773
  0
ELLIPSE
  5
327
100
AcDbEntity
  8
0
100
AcDbEllipse
 62
7
  6
BYLAYER
 10
17.9165403883
 20
49.033857028
 30
0.0
 11
11.6397811956
 21
11.5182116851
 31
0.0
 40
0.1862029912
 41
1.7161329273
 42
1.7527475869
  0
ELLIPSE
  5
328
100
AcDbEntity
  8
0
100
AcDbEllipse
 62
7
  6
BYLAYER
 10
17.9165403883
 20
49.2149862008
 30
0.0
 11
11.7481381864
 21
11.6942962282
 31
0.0
 40
0.1228992729
 41
1.776616227
 42
1.8159350327
  0
ELLIPSE
  5
329
100
AcDbEntity
  8
0
100
AcDbEllipse
 62
7
  6
BYLAYER
 10
17.9165403883
 20
49.3249184042
 30
0.0
 11
11.8137551981
 21
11.8003161272
 31
0.0
 40
0.0610824685
 41
1.8374099321
 42
1.8795295158
  0
ELLIPSE
  5
32A
100
AcDbEntity
  8
0
100
AcDbEllipse
 62
7
  6
BYLAYER
 10
10.505024514
 20
41.9768090756
 30
0.0
 11
11.5600239517
 21
11.5528949874
 31
0.0
 40
0.0631661312
 41
-1.3625760954
 42
-1.3174730036
  0
ELLIPSE
  5
32B
100
AcDbEntity
  8
0
100
AcDbEllipse
 62
7
  6
BYLAYER
 10
10.505024514
 20
42.0560116059
 30
0.0
 11
11.4912004934
 21
11.4626280056
 31
0.0
 40
0.1269935126
 41
-1.425539161
 42
-1.3804360692
  0
ELLIPSE
  5
32C
100
AcDbEntity
  8
0
100
AcDbEllipse
 62
7
  6
BYLAYER
 10
10.505024514
 20
42.1865092068
 30
0.0
 11
11.377213794
 21
11.3126576757
 31
0.0
 40
0.1921623568
 41
-1.4883289622
 42
-1.4432258704
  0
ELLIPSE
  5
32D
100
AcDbEntity
  8
0
100
AcDbEllipse
 62
7
  6
BYLAYER
 10
10.505024514
 20
45.0539215686
 30
0.0
 11
11.5830346317
 21
-0.0
 31
0.0
 40
0.963433044
 41
-1.2995325731
 42
-1.2544294813
  0
ELLIPSE
  5
32E
100
AcDbEntity
  8
0
100
AcDbEllipse
 62
7
  6
BYLAYER
 10
10.505024514
 20
48.1310340617
 30
0.0
 11
11.5600239517
 21
-11.5528949874
 31
0.0
 40
0.0631661312
 41
1.3174730036
 42
1.3625760954
  0
ELLIPSE
  5
32F
100
AcDbEntity
  8
0
100
AcDbEllipse
 62
7
  6
BYLAYER
 10
10.505024514
 20
48.0518315314
 30
0.0
 11
11.4912004934
 21
-11.4626280056
 31
0.0
 40
0.1269935126
 41
1.3804360692
 42
1.425539161
  0
ELLIPSE
  5
330
100
AcDbEntity
  8
0
100
AcDbEllipse
 62
7
  6
BYLAYER
 10
10.505024514
 20
47.9213339305
 30
0.0
 11
11.377213794
 21
-11.3126576757
 31
0.0
 40
0.1921623568
 41
1.4432258704
 42
1.4883289622
  0
ELLIPSE
  5
331
100
AcDbEntity
  8
0
100
AcDbEllipse
 62
7
  6
BYLAYER
 10
10.505024514
 20
47.741774109
 30
0.0
 11
11.2192358625
 21
-11.103573653
 31
0.0
 40
0.2593921815
 41
1.5057209388
 42
1.5508240306
  0
ELLIPSE
  5
332
100
AcDbEntity
  8
0
100
AcDbEllipse
 62
7
  6
BYLAYER
 10
10.505024514
 20
45.0539215686
 30
0.0
 11
11.5830346317
 21
0.0
 31
0.0
 40
0.963433044
 41
1.2544294813
 42
1.2995325731
  0
ELLIPSE
  5
333
100
AcDbEntity
  8
0
100
AcDbEllipse
 62
7
  6
BYLAYER
 10
10.505024514
 20
45.4590311137
 30
0.0
 11
9.6458827394
 21
-7.3844602403
 31
0.0
 40
0.8684143762
 41
1.8411522221
 42
1.8862553139
  0
ELLIPSE
  5
334
100
AcDbEntity
  8
0
100
AcDbEllipse
 62
7
  6
BYLAYER
 10
10.505024514
 20
45.8572091221
 30
0.0
 11
9.6390686169
 21
-8.472058128
 31
0.0
 40
0.7581403628
 41
1.8422139607
 42
1.8873170525
  0
ELLIPSE
  5
335
100
AcDbEntity
  8
0
100
AcDbEllipse
 62
7
  6
BYLAYER
 10
10.505024514
 20
46.2416426578
 30
0.0
 11
9.9008743148
 21
-9.1398053983
 31
0.0
 40
0.657738698
 41
1.800110998
 42
1.8452140898
  0
ELLIPSE
  5
336
100
AcDbEntity
  8
0
100
AcDbEllipse
 62
7
  6
BYLAYER
 10
10.505024514
 20
46.6057539564
 30
0.0
 11
10.207034137
 21
-9.672197328
 31
0.0
 40
0.5661264515
 41
1.7468195168
 42
1.7919226086
  0
ELLIPSE
  5
337
100
AcDbEntity
  8
0
100
AcDbEllipse
 62
7
  6
BYLAYER
 10
10.505024514
 20
46.9433129725
 30
0.0
 11
10.5062434209
 21
-10.1235279518
 31
0.0
 40
0.4817532195
 41
1.6890326245
 42
1.7341357163
  0
ELLIPSE
  5
338
100
AcDbEntity
  8
0
100
AcDbEllipse
 62
7
  6
BYLAYER
 10
10.505024514
 20
47.2485439779
 30
0.0
 11
10.7798633581
 21
-10.5096998268
 31
0.0
 40
0.4032531911
 41
1.6290140991
 42
1.674117191
  0
ELLIPSE
  5
339
100
AcDbEntity
  8
0
100
AcDbEllipse
 62
7
  6
BYLAYER
 10
10.505024514
 20
47.5162243854
 30
0.0
 11
11.0191384116
 21
-10.8359096051
 31
0.0
 40
0.3294650235
 41
1.5677445238
 42
1.6128476156
  0
ELLIPSE
  5
33A
100
AcDbEntity
  8
0
100
AcDbEllipse
 62
7
  6
BYLAYER
 10
10.505024514
 20
42.0560116059
 30
0.0
 11
11.4912004934
 21
11.4626280056
 31
0.0
 40
0.1269935126
 41
1.1284228933
 42
1.1735259851
  0
ELLIPSE
  5
33B
100
AcDbEntity
  8
0
100
AcDbEllipse
 62
7
  6
BYLAYER
 10
10.505024514
 20
41.9768090756
 30
0.0
 11
11.5600239517
 21
11.5528949874
 31
0.0
 40
0.0631661312
 41
1.1913859589
 42
1.2364890507
  0
ELLIPSE
  5
33C
100
AcDbEntity
  8
0
100
AcDbEllipse
 62
7
  6
BYLAYER
 10
10.505024514
 20
43.8662004795
 30
0.0
 11
9.9008743148
 21
9.1398053983
 31
0.0
 40
0.657738698
 41
0.7087479645
 42
0.7538510564
  0
ELLIPSE
  5
33D
100
AcDbEntity
  8
0
100
AcDbEllipse
 62
7
  6
BYLAYER
 10
10.505024514
 20
43.5020891809
 30
0.0
 11
10.207034137
 21
9.672197328
 31
0.0
 40
0.5661264515
 41
0.7620394457
 42
0.8071425375
  0
ELLIPSE
  5
33E
100
AcDbEntity
  8
0
100
AcDbEllipse
 62
7
  6
BYLAYER
 10
10.505024514
 20
43.1645301648
 30
0.0
 11
10.5062434209
 21
10.1235279518
 31
0.0
 40
0.4817532195
 41
0.819826338
 42
0.8649294298
  0
ELLIPSE
  5
33F
100
AcDbEntity
  8
0
100
AcDbEllipse
 62
7
  6
BYLAYER
 10
10.505024514
 20
48.1310340617
 30
0.0
 11
11.5600239517
 21
-11.5528949874
 31
0.0
 40
0.0631661312
 41
-1.2364890507
 42
-1.1913859589
  0
ELLIPSE
  5
340
100
AcDbEntity
  8
0
100
AcDbEllipse
 62
7
  6
BYLAYER
 10
10.505024514
 20
48.0518315314
 30
0.0
 11
11.4912004934
 21
-11.4626280056
 31
0.0
 40
0.1269935126
 41
-1.1735259851
 42
-1.1284228933
  0
ELLIPSE
  5
341
100
AcDbEntity
  8
0
100
AcDbEllipse
 62
7
  6
BYLAYER
 10
10.505024514
 20
47.9213339305
 30
0.0
 11
11.377213794
 21
-11.3126576757
 31
0.0
 40
0.1921623568
 41
-1.1107361839
 42
-1.0656330921
  0
ELLIPSE
  5
342
100
AcDbEntity
  8
0
100
AcDbEllipse
 62
7
  6
BYLAYER
 10
10.505024514
 20
47.741774109
 30
0.0
 11
11.2192358625
 21
-11.103573653
 31
0.0
 40
0.2593921815
 41
-1.0482411156
 42
-1.0031380237
  0
ELLIPSE
  5
343
100
AcDbEntity
  8
0
100
AcDbEllipse
 62
7
  6
BYLAYER
 10
10.505024514
 20
47.5162243854
 30
0.0
 11
11.0191384116
 21
-10.8359096051
 31
0.0
 40
0.3294650235
 41
-0.9862175305
 42
-0.9411144387
  0
ELLIPSE
  5
344
100
AcDbEntity
  8
0
100
AcDbEllipse
 62
7
  6
BYLAYER
 10
10.505024514
 20
47.2485439779
 30
0.0
 11
10.7798633581
 21
-10.5096998268
 31
0.0
 40
0.4032531911
 41
-0.9249479552
 42
-0.8798448634
  0
ELLIPSE
  5
345
100
AcDbEntity
  8
0
100
AcDbEllipse
 62
7
  6
BYLAYER
 10
10.505024514
 20
46.9433129725
 30
0.0
 11
10.5062434209
 21
-10.1235279518
 31
0.0
 40
0.4817532195
 41
-0.8649294298
 42
-0.819826338
  0
ELLIPSE
  5
346
100
AcDbEntity
  8
0
100
AcDbEllipse
 62
7
  6
BYLAYER
 10
10.505024514
 20
46.6057539564
 30
0.0
 11
10.207034137
 21
-9.672197328
 31
0.0
 40
0.5661264515
 41
-0.8071425375
 42
-0.7620394457
  0
ELLIPSE
  5
347
100
AcDbEntity
  8
0
100
AcDbEllipse
 62
7
  6
BYLAYER
 10
10.505024514
 20
46.2416426578
 30
0.0
 11
9.9008743148
 21
-9.1398053983
 31
0.0
 40
0.657738698
 41
-0.7538510564
 42
-0.7087479645
  0
ELLIPSE
  5
348
100
AcDbEntity
  8
0
100
AcDbEllipse
 62
7
  6
BYLAYER
 10
10.505024514
 20
45.8572091221
 30
0.0
 11
9.6390686169
 21
-8.472058128
 31
0.0
 40
0.7581403628
 41
-0.7117480936
 42
-0.6666450018
  0
ELLIPSE
  5
349
100
AcDbEntity
  8
0
100
AcDbEllipse
 62
7
  6
BYLAYER
 10
10.505024514
 20
45.4590311137
 30
0.0
 11
9.6458827394
 21
-7.3844602403
 31
0.0
 40
0.8684143762
 41
-0.7128098322
 42
-0.6677067404
  0
ELLIPSE
  5
34A
100
AcDbEntity
  8
0
100
AcDbEllipse
 62
7
  6
BYLAYER
 10
10.505024514
 20
42.8592991594
 30
0.0
 11
10.7798633581
 21
10.5096998268
 31
0.0
 40
0.4032531911
 41
0.8798448634
 42
0.9249479552
  0
ELLIPSE
  5
34B
100
AcDbEntity
  8
0
100
AcDbEllipse
 62
7
  6
BYLAYER
 10
10.505024514
 20
42.5916187519
 30
0.0
 11
11.0191384116
 21
10.8359096051
 31
0.0
 40
0.3294650235
 41
0.9411144387
 42
0.9862175305
  0
ELLIPSE
  5
34C
100
AcDbEntity
  8
0
100
AcDbEllipse
 62
7
  6
BYLAYER
 10
10.505024514
 20
44.6488120236
 30
0.0
 11
9.6458827394
 21
7.3844602403
 31
0.0
 40
0.8684143762
 41
0.6677067404
 42
0.7128098322
  0
ELLIPSE
  5
34D
100
AcDbEntity
  8
0
100
AcDbEllipse
 62
7
  6
BYLAYER
 10
10.505024514
 20
42.3660690283
 30
0.0
 11
11.2192358625
 21
11.103573653
 31
0.0
 40
0.2593921815
 41
1.0031380237
 42
1.0482411156
  0
ELLIPSE
  5
34E
100
AcDbEntity
  8
0
100
AcDbEllipse
 62
7
  6
BYLAYER
 10
10.505024514
 20
42.1865092068
 30
0.0
 11
11.377213794
 21
11.3126576757
 31
0.0
 40
0.1921623568
 41
1.0656330921
 42
1.1107361839
  0
ELLIPSE
  5
34F
100
AcDbEntity
  8
0
100
AcDbEllipse
 62
7
  6
BYLAYER
 10
10.505024514
 20
44.2506340151
 30
0.0
 11
9.6390686169
 21
8.472058128
 31
0.0
 40
0.7581403628
 41
0.6666450018
 42
0.7117480936
  0
ENDSEC
  0
SECTION
  2
OBJECTS
  0
DICTIONARY
  5
C
100
AcDbDictionary
280
0
281
1
  3
ACAD_GROUP
350
D
  3
ACAD_MLINESTYLE
350
17
  3
ACAD_LAYOUT
350
1A
  3
ACAD_PLOTSETTINGS
350
19
  3
ACAD_PLOTSTYLENAME
350
E
  0
DICTIONARY
  5
D
102
{ACAD_REACTORS
330
C
102
}
100
AcDbDictionary
280
0
281
1
  0
ACDBDICTIONARYWDFLT
  5
E
102
{ACAD_REACTORS
330
C
102
}
100
AcDbDictionary
281
1
  3
Normal
350
F
100
AcDbDictionaryWithDefault
340
F
  0
DICTIONARY
  5
17
102
{ACAD_REACTORS
330
C
102
}
100
AcDbDictionary
280
0
281
1
  3
Standard
350
18
  0
DICTIONARY
  5
19
102
{ACAD_REACTORS
330
C
102
}
100
AcDbDictionary
281
1
  0
DICTIONARY
  5
1A
102
{ACAD_REACTORS
330
C
102
}
100
AcDbDictionary
281
1
  3
Model
350
350
  3
Layout1
350
351
  0
ACDBPLACEHOLDER
  5
F
102
{ACAD_REACTORS
330
E
102
}
  0
MLINESTYLE
  5
18
102
{ACAD_REACTORS
330
17
102
}
100
AcDbMlineStyle
  2
STANDARD
 70
0
  3

 62
256
 51
90.0
 52
90.0
 71
2
 49
0.5
 62
256
  6
BYLAYER
 49
-0.5
 62
256
  6
BYLAYER
  0
LAYOUT
  5
350
102
{ACAD_REACTORS
330
1A
102
}
100
AcDbPlotSettings
  1

  2
none_device
  4

  6

 40
0.0
 41
0.0
 42
0.0
 43
0.0
 44
210.0
 45
297.0
 46
0.0
 47
0.0
 48
0.0
 49
0.0
140
0.0
141
0.0
142
1.0
143
1.0
 70
1024
 72
1
 73
0
 74
0
  7

 75
0
147
1.0
148
0.0
149
0.0
100
AcDbLayout
  1
Model
 70
0
 71
0
 10
0.0
 20
0.0
 11
210.0
 21
297.0
 12
0.0
 22
0.0
 32
0.0
 14
0.0
 24
0.0
 34
0.0
 15
0.0
 25
0.0
 35
0.0
146
0.0
 13
0.0
 23
0.0
 33
0.0
 16
1.0
 26
0.0
 36
0.0
 17
0.0
 27
1.0
 37
0.0
 76
0
330
210
345
0
346
0
  0
LAYOUT
  5
351
102
{ACAD_REACTORS
330
1A
102
}
100
AcDbPlotSettings
  1

  2
none_device
  4

  6

 40
0.0
 41
0.0
 42
0.0
 43
0.0
 44
210.0
 45
297.0
 46
0.0
 47
0.0
 48
0.0
 49
0.0
140
0.0
141
0.0
142
1.0
143
1.0
 70
0
 72
1
 73
0
 74
0
  7

 75
0
147
1.0
148
0.0
149
0.0
100
AcDbLayout
  1
Layout1
 70
0
 71
1
 10
0.0
 20
0.0
 11
210.0
 21
297.0
 12
0.0
 22
0.0
 32
0.0
 14
0.0
 24
0.0
 34
0.0
 15
0.0
 25
0.0
 35
0.0
146
0.0
 13
0.0
 23
0.0
 33
0.0
 16
1.0
 26
0.0
 36
0.0
 17
0.0
 27
1.0
 37
0.0
 76
0
330
211
345
0
346
0
  0
ENDSEC
  0
EOF
