  0
SECTION
  2
HEADER
  9
$ACADVER
  1
AC1006
  9
$EXTMIN
 10
-2.899000
 20
-6.364319
  9
$EXTMAX
 10
2.900000
 20
6.365000
  9
$LTSCALE
 40
0.000394
  9
$PDMODE
 70
    35
  9
$PDSIZE
 40
0.000315
  0
ENDSEC
  0
SECTION
  2
TABLES
  0
TABLE
  2
LTYPE
 70
     9
  0
LTYPE
  2
CONTINUOUS
 70
    64
  3
Solid line
 72
    65
 73
     0
 40
0.000000
  0
LTYPE
  2
DASHED
 70
    64
  3
__ __ __ __ __ __ __ __ __ __ __ __ __ __ __
 72
    65
 73
     2
 40
0.000003
 49
0.000002
 49
-0.000001
  0
LTYPE
  2
HIDDEN
 70
    64
  3
 _ _ _ _ _ _ _ _ _ _ _ _ _ _ _ _ _ _ _ _ _ _
 72
    65
 73
     2
 40
0.000001
 49
0.000001
 49
-0.000000
  0
LTYPE
  2
CENTER
 70
    64
  3
____ _ ____ _ ____ _ ____ _ ____ _ ____ _ ____
 72
    65
 73
     4
 40
0.000008
 49
0.000005
 49
-0.000001
 49
0.000001
 49
-0.000001
  0
LTYPE
  2
PHANTOM
 70
    64
  3
_____ _ _ _____ _ _ _____ _ _ _____ _ _ ____
 72
    65
 73
     6
 40
0.000010
 49
0.000005
 49
-0.000001
 49
0.000001
 49
-0.000001
 49
0.000001
 49
-0.000001
  0
LTYPE
  2
DOT
 70
    64
  3
...............................................
 72
    65
 73
     2
 40
0.000001
 49
0.000000
 49
-0.000001
  0
LTYPE
  2
DASHDOT
 70
    64
  3
__ . __ . __ . __ . __ . __ . __ . __ . __ . __
 72
    65
 73
     4
 40
0.000004
 49
0.000002
 49
-0.000001
 49
0.000000
 49
-0.000001
  0
LTYPE
  2
BORDER
 70
    64
  3
__ __ . __ __ . __ __ . __ __ . __ __ . __ __
 72
    65
 73
     6
 40
0.000007
 49
0.000002
 49
-0.000001
 49
0.000002
 49
-0.000001
 49
0.000000
 49
-0.000001
  0
LTYPE
  2
DIVIDE
 70
    64
  3
__ . . __ . . __ . . __ . . __ . . __ . . __
 72
    65
 73
     6
 40
0.000005
 49
0.000002
 49
-0.000001
 49
0.000000
 49
-0.000001
 49
0.000000
 49
-0.000001
  0
LTYPE
  2
DOTDOT
 70
    64
  3
 . .  . .  . .  . .  . .  . . 
 72
    65
 73
     5
 40
0.000002
 49
-0.000001
 49
0.000000
 49
-0.000001
 49
0.000000
 49
-0.000001
  0
ENDTAB
  0
TABLE
  2
STYLE
 70
     0
  0
ENDTAB
  0
TABLE
  2
LAYER
 70
     3
  0
LAYER
  2
FOREGROUND
 70
    64
 62
     7
  6
CONTINUOUS
  0
LAYER
  2
BACKGROUND
 70
    65
 62
    -7
  6
CONTINUOUS
  0
LAYER
  2
PLAN_1
 70
    64
 62
     7
  6
CONTINUOUS
  0
ENDTAB
  0
ENDSEC
  0
SECTION
  2
ENTITIES
  0
POLYLINE
  8
PLAN_1
  6
CONTINUOUS
 66
     1
 40
0.003000
 41
0.003000
  0
VERTEX
  8
PLAN_1
  6
CONTINUOUS
 10
1.048681
 20
-6.358748
  0
VERTEX
  8
PLAN_1
  6
CONTINUOUS
 10
1.015264
 20
-6.358748
  0
VERTEX
  8
PLAN_1
  6
CONTINUOUS
 10
0.961961
 20
-6.276803
  0
VERTEX
  8
PLAN_1
  6
CONTINUOUS
 10
0.907067
 20
-6.358748
  0
VERTEX
  8
PLAN_1
  6
CONTINUOUS
 10
0.874449
 20
-6.358748
  0
VERTEX
  8
PLAN_1
  6
CONTINUOUS
 10
0.945256
 20
-6.256913
  0
VERTEX
  8
PLAN_1
  6
CONTINUOUS
 10
0.878425
 20
-6.159854
  0
VERTEX
  8
PLAN_1
  6
CONTINUOUS
 10
0.912634
 20
-6.159854
  0
VERTEX
  8
PLAN_1
  6
CONTINUOUS
 10
0.962756
 20
-6.236228
  0
VERTEX
  8
PLAN_1
  6
CONTINUOUS
 10
1.013673
 20
-6.159854
  0
VERTEX
  8
PLAN_1
  6
CONTINUOUS
 10
1.045496
 20
-6.159854
  0
VERTEX
  8
PLAN_1
  6
CONTINUOUS
 10
0.978669
 20
-6.256913
  0
VERTEX
  8
PLAN_1
  6
CONTINUOUS
 10
1.048681
 20
-6.358748
  0
SEQEND
  8
0
  0
POLYLINE
  8
PLAN_1
  6
CONTINUOUS
 66
     1
 40
0.003000
 41
0.003000
  0
VERTEX
  8
PLAN_1
  6
CONTINUOUS
 10
1.214957
 20
-6.219524
  0
VERTEX
  8
PLAN_1
  6
CONTINUOUS
 10
1.213366
 20
-6.213157
  0
VERTEX
  8
PLAN_1
  6
CONTINUOUS
 10
1.211776
 20
-6.207587
  0
VERTEX
  8
PLAN_1
  6
CONTINUOUS
 10
1.208591
 20
-6.202815
  0
VERTEX
  8
PLAN_1
  6
CONTINUOUS
 10
1.206205
 20
-6.198839
  0
VERTEX
  8
PLAN_1
  6
CONTINUOUS
 10
1.203024
 20
-6.194858
  0
VERTEX
  8
PLAN_1
  6
CONTINUOUS
 10
1.199043
 20
-6.190882
  0
VERTEX
  8
PLAN_1
  6
CONTINUOUS
 10
1.195862
 20
-6.188496
  0
VERTEX
  8
PLAN_1
  6
CONTINUOUS
 10
1.191886
 20
-6.186106
  0
VERTEX
  8
PLAN_1
  6
CONTINUOUS
 10
1.183134
 20
-6.182130
  0
VERTEX
  8
PLAN_1
  6
CONTINUOUS
 10
1.175177
 20
-6.179744
  0
VERTEX
  8
PLAN_1
  6
CONTINUOUS
 10
1.167220
 20
-6.178949
  0
VERTEX
  8
PLAN_1
  6
CONTINUOUS
 10
1.159264
 20
-6.178154
  0
VERTEX
  8
PLAN_1
  6
CONTINUOUS
 10
1.152902
 20
-6.178949
  0
VERTEX
  8
PLAN_1
  6
CONTINUOUS
 10
1.146535
 20
-6.179744
  0
VERTEX
  8
PLAN_1
  6
CONTINUOUS
 10
1.140173
 20
-6.181335
  0
VERTEX
  8
PLAN_1
  6
CONTINUOUS
 10
1.133807
 20
-6.183720
  0
VERTEX
  8
PLAN_1
  6
CONTINUOUS
 10
1.128236
 20
-6.186106
  0
VERTEX
  8
PLAN_1
  6
CONTINUOUS
 10
1.122669
 20
-6.189291
  0
VERTEX
  8
PLAN_1
  6
CONTINUOUS
 10
1.117894
 20
-6.193268
  0
VERTEX
  8
PLAN_1
  6
CONTINUOUS
 10
1.113122
 20
-6.198043
  0
VERTEX
  8
PLAN_1
  6
CONTINUOUS
 10
1.109146
 20
-6.203610
  0
VERTEX
  8
PLAN_1
  6
CONTINUOUS
 10
1.105165
 20
-6.209181
  0
VERTEX
  8
PLAN_1
  6
CONTINUOUS
 10
1.101984
 20
-6.215543
  0
VERTEX
  8
PLAN_1
  6
CONTINUOUS
 10
1.099598
 20
-6.222705
  0
VERTEX
  8
PLAN_1
  6
CONTINUOUS
 10
1.097209
 20
-6.230661
  0
VERTEX
  8
PLAN_1
  6
CONTINUOUS
 10
1.095618
 20
-6.238614
  0
VERTEX
  8
PLAN_1
  6
CONTINUOUS
 10
1.094823
 20
-6.248161
  0
VERTEX
  8
PLAN_1
  6
CONTINUOUS
 10
1.094028
 20
-6.257709
  0
VERTEX
  8
PLAN_1
  6
CONTINUOUS
 10
1.094028
 20
-6.266461
  0
VERTEX
  8
PLAN_1
  6
CONTINUOUS
 10
1.094823
 20
-6.274417
  0
VERTEX
  8
PLAN_1
  6
CONTINUOUS
 10
1.096413
 20
-6.282374
  0
VERTEX
  8
PLAN_1
  6
CONTINUOUS
 10
1.097209
 20
-6.290331
  0
VERTEX
  8
PLAN_1
  6
CONTINUOUS
 10
1.099598
 20
-6.297488
  0
VERTEX
  8
PLAN_1
  6
CONTINUOUS
 10
1.101984
 20
-6.304650
  0
VERTEX
  8
PLAN_1
  6
CONTINUOUS
 10
1.105165
 20
-6.311016
  0
VERTEX
  8
PLAN_1
  6
CONTINUOUS
 10
1.108350
 20
-6.316583
  0
VERTEX
  8
PLAN_1
  6
CONTINUOUS
 10
1.113122
 20
-6.322154
  0
VERTEX
  8
PLAN_1
  6
CONTINUOUS
 10
1.117894
 20
-6.326925
  0
VERTEX
  8
PLAN_1
  6
CONTINUOUS
 10
1.122669
 20
-6.330906
  0
VERTEX
  8
PLAN_1
  6
CONTINUOUS
 10
1.129035
 20
-6.334087
  0
VERTEX
  8
PLAN_1
  6
CONTINUOUS
 10
1.136193
 20
-6.336472
  0
VERTEX
  8
PLAN_1
  6
CONTINUOUS
 10
1.143354
 20
-6.338858
  0
VERTEX
  8
PLAN_1
  6
CONTINUOUS
 10
1.151311
 20
-6.339654
  0
VERTEX
  8
PLAN_1
  6
CONTINUOUS
 10
1.160063
 20
-6.340449
  0
VERTEX
  8
PLAN_1
  6
CONTINUOUS
 10
1.167220
 20
-6.339654
  0
VERTEX
  8
PLAN_1
  6
CONTINUOUS
 10
1.175177
 20
-6.338063
  0
VERTEX
  8
PLAN_1
  6
CONTINUOUS
 10
1.179154
 20
-6.337268
  0
VERTEX
  8
PLAN_1
  6
CONTINUOUS
 10
1.183929
 20
-6.335677
  0
VERTEX
  8
PLAN_1
  6
CONTINUOUS
 10
1.187906
 20
-6.333291
  0
VERTEX
  8
PLAN_1
  6
CONTINUOUS
 10
1.191886
 20
-6.330106
  0
VERTEX
  8
PLAN_1
  6
CONTINUOUS
 10
1.195862
 20
-6.326925
  0
VERTEX
  8
PLAN_1
  6
CONTINUOUS
 10
1.199839
 20
-6.323744
  0
VERTEX
  8
PLAN_1
  6
CONTINUOUS
 10
1.203819
 20
-6.318969
  0
VERTEX
  8
PLAN_1
  6
CONTINUOUS
 10
1.207000
 20
-6.314197
  0
VERTEX
  8
PLAN_1
  6
CONTINUOUS
 10
1.210181
 20
-6.307831
  0
VERTEX
  8
PLAN_1
  6
CONTINUOUS
 10
1.212571
 20
-6.301469
  0
VERTEX
  8
PLAN_1
  6
CONTINUOUS
 10
1.214957
 20
-6.294307
  0
VERTEX
  8
PLAN_1
  6
CONTINUOUS
 10
1.217343
 20
-6.285555
  0
VERTEX
  8
PLAN_1
  6
CONTINUOUS
 10
1.243598
 20
-6.285555
  0
VERTEX
  8
PLAN_1
  6
CONTINUOUS
 10
1.240413
 20
-6.299079
  0
VERTEX
  8
PLAN_1
  6
CONTINUOUS
 10
1.237232
 20
-6.311016
  0
VERTEX
  8
PLAN_1
  6
CONTINUOUS
 10
1.232461
 20
-6.320563
  0
VERTEX
  8
PLAN_1
  6
CONTINUOUS
 10
1.226890
 20
-6.330106
  0
VERTEX
  8
PLAN_1
  6
CONTINUOUS
 10
1.221323
 20
-6.337268
  0
VERTEX
  8
PLAN_1
  6
CONTINUOUS
 10
1.214957
 20
-6.343634
  0
VERTEX
  8
PLAN_1
  6
CONTINUOUS
 10
1.207795
 20
-6.349201
  0
VERTEX
  8
PLAN_1
  6
CONTINUOUS
 10
1.201433
 20
-6.353181
  0
VERTEX
  8
PLAN_1
  6
CONTINUOUS
 10
1.194272
 20
-6.356362
  0
VERTEX
  8
PLAN_1
  6
CONTINUOUS
 10
1.187110
 20
-6.359543
  0
VERTEX
  8
PLAN_1
  6
CONTINUOUS
 10
1.180748
 20
-6.361134
  0
VERTEX
  8
PLAN_1
  6
CONTINUOUS
 10
1.174382
 20
-6.362728
  0
VERTEX
  8
PLAN_1
  6
CONTINUOUS
 10
1.164039
 20
-6.364319
  0
VERTEX
  8
PLAN_1
  6
CONTINUOUS
 10
1.156083
 20
-6.364319
  0
VERTEX
  8
PLAN_1
  6
CONTINUOUS
 10
1.147331
 20
-6.364319
  0
VERTEX
  8
PLAN_1
  6
CONTINUOUS
 10
1.139378
 20
-6.362728
  0
VERTEX
  8
PLAN_1
  6
CONTINUOUS
 10
1.130626
 20
-6.361134
  0
VERTEX
  8
PLAN_1
  6
CONTINUOUS
 10
1.122669
 20
-6.358748
  0
VERTEX
  8
PLAN_1
  6
CONTINUOUS
 10
1.115508
 20
-6.354772
  0
VERTEX
  8
PLAN_1
  6
CONTINUOUS
 10
1.107551
 20
-6.350791
  0
VERTEX
  8
PLAN_1
  6
CONTINUOUS
 10
1.101189
 20
-6.346020
  0
VERTEX
  8
PLAN_1
  6
CONTINUOUS
 10
1.094028
 20
-6.339654
  0
VERTEX
  8
PLAN_1
  6
CONTINUOUS
 10
1.088461
 20
-6.333291
  0
VERTEX
  8
PLAN_1
  6
CONTINUOUS
 10
1.082890
 20
-6.325335
  0
VERTEX
  8
PLAN_1
  6
CONTINUOUS
 10
1.078118
 20
-6.316583
  0
VERTEX
  8
PLAN_1
  6
CONTINUOUS
 10
1.074138
 20
-6.307035
  0
VERTEX
  8
PLAN_1
  6
CONTINUOUS
 10
1.070957
 20
-6.296693
  0
VERTEX
  8
PLAN_1
  6
CONTINUOUS
 10
1.068571
 20
-6.284760
  0
VERTEX
  8
PLAN_1
  6
CONTINUOUS
 10
1.066976
 20
-6.272031
  0
VERTEX
  8
PLAN_1
  6
CONTINUOUS
 10
1.066181
 20
-6.258504
  0
VERTEX
  8
PLAN_1
  6
CONTINUOUS
 10
1.066976
 20
-6.247366
  0
VERTEX
  8
PLAN_1
  6
CONTINUOUS
 10
1.067776
 20
-6.236228
  0
VERTEX
  8
PLAN_1
  6
CONTINUOUS
 10
1.070161
 20
-6.225886
  0
VERTEX
  8
PLAN_1
  6
CONTINUOUS
 10
1.072547
 20
-6.216339
  0
VERTEX
  8
PLAN_1
  6
CONTINUOUS
 10
1.076524
 20
-6.206791
  0
VERTEX
  8
PLAN_1
  6
CONTINUOUS
 10
1.080504
 20
-6.198839
  0
VERTEX
  8
PLAN_1
  6
CONTINUOUS
 10
1.085276
 20
-6.190882
  0
VERTEX
  8
PLAN_1
  6
CONTINUOUS
 10
1.090846
 20
-6.183720
  0
VERTEX
  8
PLAN_1
  6
CONTINUOUS
 10
1.097209
 20
-6.176559
  0
VERTEX
  8
PLAN_1
  6
CONTINUOUS
 10
1.104370
 20
-6.170992
  0
VERTEX
  8
PLAN_1
  6
CONTINUOUS
 10
1.112327
 20
-6.166217
  0
VERTEX
  8
PLAN_1
  6
CONTINUOUS
 10
1.120283
 20
-6.162240
  0
VERTEX
  8
PLAN_1
  6
CONTINUOUS
 10
1.129035
 20
-6.159059
  0
VERTEX
  8
PLAN_1
  6
CONTINUOUS
 10
1.138579
 20
-6.156669
  0
VERTEX
  8
PLAN_1
  6
CONTINUOUS
 10
1.148921
 20
-6.155079
  0
VERTEX
  8
PLAN_1
  6
CONTINUOUS
 10
1.159264
 20
-6.154283
  0
VERTEX
  8
PLAN_1
  6
CONTINUOUS
 10
1.168811
 20
-6.155079
  0
VERTEX
  8
PLAN_1
  6
CONTINUOUS
 10
1.177563
 20
-6.155874
  0
VERTEX
  8
PLAN_1
  6
CONTINUOUS
 10
1.185520
 20
-6.157469
  0
VERTEX
  8
PLAN_1
  6
CONTINUOUS
 10
1.193476
 20
-6.159854
  0
VERTEX
  8
PLAN_1
  6
CONTINUOUS
 10
1.200638
 20
-6.163035
  0
VERTEX
  8
PLAN_1
  6
CONTINUOUS
 10
1.207000
 20
-6.166217
  0
VERTEX
  8
PLAN_1
  6
CONTINUOUS
 10
1.212571
 20
-6.170197
  0
VERTEX
  8
PLAN_1
  6
CONTINUOUS
 10
1.218138
 20
-6.174969
  0
VERTEX
  8
PLAN_1
  6
CONTINUOUS
 10
1.222913
 20
-6.179744
  0
VERTEX
  8
PLAN_1
  6
CONTINUOUS
 10
1.226890
 20
-6.184516
  0
VERTEX
  8
PLAN_1
  6
CONTINUOUS
 10
1.230870
 20
-6.190087
  0
VERTEX
  8
PLAN_1
  6
CONTINUOUS
 10
1.234051
 20
-6.195654
  0
VERTEX
  8
PLAN_1
  6
CONTINUOUS
 10
1.236437
 20
-6.201224
  0
VERTEX
  8
PLAN_1
  6
CONTINUOUS
 10
1.238823
 20
-6.207587
  0
VERTEX
  8
PLAN_1
  6
CONTINUOUS
 10
1.240413
 20
-6.213157
  0
VERTEX
  8
PLAN_1
  6
CONTINUOUS
 10
1.241213
 20
-6.219524
  0
VERTEX
  8
PLAN_1
  6
CONTINUOUS
 10
1.214957
 20
-6.219524
  0
SEQEND
  8
0
  0
POLYLINE
  8
PLAN_1
  6
CONTINUOUS
 66
     1
 40
0.003000
 41
0.003000
  0
VERTEX
  8
PLAN_1
  6
CONTINUOUS
 10
1.306449
 20
-6.358748
  0
VERTEX
  8
PLAN_1
  6
CONTINUOUS
 10
1.279398
 20
-6.358748
  0
VERTEX
  8
PLAN_1
  6
CONTINUOUS
 10
1.279398
 20
-6.159854
  0
VERTEX
  8
PLAN_1
  6
CONTINUOUS
 10
1.371685
 20
-6.159854
  0
VERTEX
  8
PLAN_1
  6
CONTINUOUS
 10
1.383618
 20
-6.160650
  0
VERTEX
  8
PLAN_1
  6
CONTINUOUS
 10
1.395555
 20
-6.162240
  0
VERTEX
  8
PLAN_1
  6
CONTINUOUS
 10
1.401122
 20
-6.163831
  0
VERTEX
  8
PLAN_1
  6
CONTINUOUS
 10
1.406693
 20
-6.165421
  0
VERTEX
  8
PLAN_1
  6
CONTINUOUS
 10
1.411465
 20
-6.167811
  0
VERTEX
  8
PLAN_1
  6
CONTINUOUS
 10
1.416240
 20
-6.170992
  0
VERTEX
  8
PLAN_1
  6
CONTINUOUS
 10
1.421012
 20
-6.174173
  0
VERTEX
  8
PLAN_1
  6
CONTINUOUS
 10
1.424992
 20
-6.178154
  0
VERTEX
  8
PLAN_1
  6
CONTINUOUS
 10
1.428173
 20
-6.182130
  0
VERTEX
  8
PLAN_1
  6
CONTINUOUS
 10
1.431354
 20
-6.186902
  0
VERTEX
  8
PLAN_1
  6
CONTINUOUS
 10
1.433740
 20
-6.192472
  0
VERTEX
  8
PLAN_1
  6
CONTINUOUS
 10
1.435335
 20
-6.198839
  0
VERTEX
  8
PLAN_1
  6
CONTINUOUS
 10
1.436130
 20
-6.205996
  0
VERTEX
  8
PLAN_1
  6
CONTINUOUS
 10
1.436925
 20
-6.213157
  0
VERTEX
  8
PLAN_1
  6
CONTINUOUS
 10
1.436130
 20
-6.223500
  0
VERTEX
  8
PLAN_1
  6
CONTINUOUS
 10
1.434535
 20
-6.232252
  0
VERTEX
  8
PLAN_1
  6
CONTINUOUS
 10
1.431354
 20
-6.239413
  0
VERTEX
  8
PLAN_1
  6
CONTINUOUS
 10
1.427378
 20
-6.245776
  0
VERTEX
  8
PLAN_1
  6
CONTINUOUS
 10
1.423398
 20
-6.250551
  0
VERTEX
  8
PLAN_1
  6
CONTINUOUS
 10
1.418626
 20
-6.254528
  0
VERTEX
  8
PLAN_1
  6
CONTINUOUS
 10
1.413850
 20
-6.257709
  0
VERTEX
  8
PLAN_1
  6
CONTINUOUS
 10
1.409079
 20
-6.260894
  0
VERTEX
  8
PLAN_1
  6
CONTINUOUS
 10
1.413055
 20
-6.263280
  0
VERTEX
  8
PLAN_1
  6
CONTINUOUS
 10
1.417831
 20
-6.264870
  0
VERTEX
  8
PLAN_1
  6
CONTINUOUS
 10
1.421012
 20
-6.268051
  0
VERTEX
  8
PLAN_1
  6
CONTINUOUS
 10
1.424992
 20
-6.271236
  0
VERTEX
  8
PLAN_1
  6
CONTINUOUS
 10
1.428173
 20
-6.276008
  0
VERTEX
  8
PLAN_1
  6
CONTINUOUS
 10
1.430559
 20
-6.281579
  0
VERTEX
  8
PLAN_1
  6
CONTINUOUS
 10
1.432150
 20
-6.289531
  0
VERTEX
  8
PLAN_1
  6
CONTINUOUS
 10
1.432945
 20
-6.298283
  0
VERTEX
  8
PLAN_1
  6
CONTINUOUS
 10
1.434535
 20
-6.334882
  0
VERTEX
  8
PLAN_1
  6
CONTINUOUS
 10
1.434535
 20
-6.338858
  0
VERTEX
  8
PLAN_1
  6
CONTINUOUS
 10
1.435335
 20
-6.342043
  0
VERTEX
  8
PLAN_1
  6
CONTINUOUS
 10
1.435335
 20
-6.344429
  0
VERTEX
  8
PLAN_1
  6
CONTINUOUS
 10
1.436925
 20
-6.346815
  0
VERTEX
  8
PLAN_1
  6
CONTINUOUS
 10
1.437720
 20
-6.349201
  0
VERTEX
  8
PLAN_1
  6
CONTINUOUS
 10
1.439311
 20
-6.350791
  0
VERTEX
  8
PLAN_1
  6
CONTINUOUS
 10
1.441697
 20
-6.353181
  0
VERTEX
  8
PLAN_1
  6
CONTINUOUS
 10
1.444878
 20
-6.354772
  0
VERTEX
  8
PLAN_1
  6
CONTINUOUS
 10
1.444878
 20
-6.358748
  0
VERTEX
  8
PLAN_1
  6
CONTINUOUS
 10
1.411465
 20
-6.358748
  0
VERTEX
  8
PLAN_1
  6
CONTINUOUS
 10
1.409874
 20
-6.353976
  0
VERTEX
  8
PLAN_1
  6
CONTINUOUS
 10
1.409079
 20
-6.346815
  0
VERTEX
  8
PLAN_1
  6
CONTINUOUS
 10
1.408283
 20
-6.339654
  0
VERTEX
  8
PLAN_1
  6
CONTINUOUS
 10
1.407488
 20
-6.332496
  0
VERTEX
  8
PLAN_1
  6
CONTINUOUS
 10
1.407488
 20
-6.325335
  0
VERTEX
  8
PLAN_1
  6
CONTINUOUS
 10
1.406693
 20
-6.318173
  0
VERTEX
  8
PLAN_1
  6
CONTINUOUS
 10
1.406693
 20
-6.312606
  0
VERTEX
  8
PLAN_1
  6
CONTINUOUS
 10
1.406693
 20
-6.309421
  0
VERTEX
  8
PLAN_1
  6
CONTINUOUS
 10
1.406693
 20
-6.303059
  0
VERTEX
  8
PLAN_1
  6
CONTINUOUS
 10
1.405898
 20
-6.296693
  0
VERTEX
  8
PLAN_1
  6
CONTINUOUS
 10
1.404303
 20
-6.290331
  0
VERTEX
  8
PLAN_1
  6
CONTINUOUS
 10
1.401122
 20
-6.285555
  0
VERTEX
  8
PLAN_1
  6
CONTINUOUS
 10
1.398736
 20
-6.282374
  0
VERTEX
  8
PLAN_1
  6
CONTINUOUS
 10
1.396350
 20
-6.280783
  0
VERTEX
  8
PLAN_1
  6
CONTINUOUS
 10
1.393961
 20
-6.278394
  0
VERTEX
  8
PLAN_1
  6
CONTINUOUS
 10
1.390780
 20
-6.276803
  0
VERTEX
  8
PLAN_1
  6
CONTINUOUS
 10
1.386803
 20
-6.275213
  0
VERTEX
  8
PLAN_1
  6
CONTINUOUS
 10
1.382028
 20
-6.274417
  0
VERTEX
  8
PLAN_1
  6
CONTINUOUS
 10
1.377256
 20
-6.273622
  0
VERTEX
  8
PLAN_1
  6
CONTINUOUS
 10
1.371685
 20
-6.273622
  0
VERTEX
  8
PLAN_1
  6
CONTINUOUS
 10
1.306449
 20
-6.273622
  0
VERTEX
  8
PLAN_1
  6
CONTINUOUS
 10
1.306449
 20
-6.358748
  0
SEQEND
  8
0
  0
POLYLINE
  8
PLAN_1
  6
CONTINUOUS
 66
     1
 40
0.003000
 41
0.003000
  0
VERTEX
  8
PLAN_1
  6
CONTINUOUS
 10
1.306449
 20
-6.250551
  0
VERTEX
  8
PLAN_1
  6
CONTINUOUS
 10
1.368504
 20
-6.250551
  0
VERTEX
  8
PLAN_1
  6
CONTINUOUS
 10
1.375665
 20
-6.250551
  0
VERTEX
  8
PLAN_1
  6
CONTINUOUS
 10
1.382823
 20
-6.248961
  0
VERTEX
  8
PLAN_1
  6
CONTINUOUS
 10
1.389984
 20
-6.247366
  0
VERTEX
  8
PLAN_1
  6
CONTINUOUS
 10
1.396350
 20
-6.244185
  0
VERTEX
  8
PLAN_1
  6
CONTINUOUS
 10
1.398736
 20
-6.242594
  0
VERTEX
  8
PLAN_1
  6
CONTINUOUS
 10
1.401122
 20
-6.240209
  0
VERTEX
  8
PLAN_1
  6
CONTINUOUS
 10
1.403508
 20
-6.237024
  0
VERTEX
  8
PLAN_1
  6
CONTINUOUS
 10
1.405898
 20
-6.233843
  0
VERTEX
  8
PLAN_1
  6
CONTINUOUS
 10
1.406693
 20
-6.229866
  0
VERTEX
  8
PLAN_1
  6
CONTINUOUS
 10
1.408283
 20
-6.225886
  0
VERTEX
  8
PLAN_1
  6
CONTINUOUS
 10
1.409079
 20
-6.221114
  0
VERTEX
  8
PLAN_1
  6
CONTINUOUS
 10
1.409079
 20
-6.216339
  0
VERTEX
  8
PLAN_1
  6
CONTINUOUS
 10
1.409079
 20
-6.210772
  0
VERTEX
  8
PLAN_1
  6
CONTINUOUS
 10
1.408283
 20
-6.205996
  0
VERTEX
  8
PLAN_1
  6
CONTINUOUS
 10
1.406693
 20
-6.201224
  0
VERTEX
  8
PLAN_1
  6
CONTINUOUS
 10
1.405102
 20
-6.198043
  0
VERTEX
  8
PLAN_1
  6
CONTINUOUS
 10
1.403508
 20
-6.194858
  0
VERTEX
  8
PLAN_1
  6
CONTINUOUS
 10
1.401122
 20
-6.191677
  0
VERTEX
  8
PLAN_1
  6
CONTINUOUS
 10
1.398736
 20
-6.190087
  0
VERTEX
  8
PLAN_1
  6
CONTINUOUS
 10
1.396350
 20
-6.187701
  0
VERTEX
  8
PLAN_1
  6
CONTINUOUS
 10
1.390780
 20
-6.185311
  0
VERTEX
  8
PLAN_1
  6
CONTINUOUS
 10
1.384417
 20
-6.183720
  0
VERTEX
  8
PLAN_1
  6
CONTINUOUS
 10
1.378846
 20
-6.182925
  0
VERTEX
  8
PLAN_1
  6
CONTINUOUS
 10
1.373276
 20
-6.182925
  0
VERTEX
  8
PLAN_1
  6
CONTINUOUS
 10
1.306449
 20
-6.182925
  0
VERTEX
  8
PLAN_1
  6
CONTINUOUS
 10
1.306449
 20
-6.250551
  0
SEQEND
  8
0
  0
POLYLINE
  8
PLAN_1
  6
CONTINUOUS
 66
     1
 40
0.003000
 41
0.003000
  0
VERTEX
  8
PLAN_1
  6
CONTINUOUS
 10
1.450449
 20
-6.159854
  0
VERTEX
  8
PLAN_1
  6
CONTINUOUS
 10
1.612748
 20
-6.159854
  0
VERTEX
  8
PLAN_1
  6
CONTINUOUS
 10
1.612748
 20
-6.183720
  0
VERTEX
  8
PLAN_1
  6
CONTINUOUS
 10
1.545122
 20
-6.183720
  0
VERTEX
  8
PLAN_1
  6
CONTINUOUS
 10
1.545122
 20
-6.358748
  0
VERTEX
  8
PLAN_1
  6
CONTINUOUS
 10
1.518075
 20
-6.358748
  0
VERTEX
  8
PLAN_1
  6
CONTINUOUS
 10
1.518075
 20
-6.183720
  0
VERTEX
  8
PLAN_1
  6
CONTINUOUS
 10
1.450449
 20
-6.183720
  0
VERTEX
  8
PLAN_1
  6
CONTINUOUS
 10
1.450449
 20
-6.159854
  0
SEQEND
  8
0
  0
POLYLINE
  8
PLAN_1
  6
CONTINUOUS
 66
     1
 40
0.003000
 41
0.003000
  0
VERTEX
  8
PLAN_1
  6
CONTINUOUS
 10
1.678780
 20
-6.248161
  0
VERTEX
  8
PLAN_1
  6
CONTINUOUS
 10
1.680374
 20
-6.248161
  0
VERTEX
  8
PLAN_1
  6
CONTINUOUS
 10
1.681965
 20
-6.248161
  0
VERTEX
  8
PLAN_1
  6
CONTINUOUS
 10
1.683555
 20
-6.248161
  0
VERTEX
  8
PLAN_1
  6
CONTINUOUS
 10
1.685146
 20
-6.248161
  0
VERTEX
  8
PLAN_1
  6
CONTINUOUS
 10
1.686736
 20
-6.248161
  0
VERTEX
  8
PLAN_1
  6
CONTINUOUS
 10
1.688327
 20
-6.248161
  0
VERTEX
  8
PLAN_1
  6
CONTINUOUS
 10
1.689917
 20
-6.248961
  0
VERTEX
  8
PLAN_1
  6
CONTINUOUS
 10
1.691512
 20
-6.248961
  0
VERTEX
  8
PLAN_1
  6
CONTINUOUS
 10
1.698669
 20
-6.248161
  0
VERTEX
  8
PLAN_1
  6
CONTINUOUS
 10
1.705035
 20
-6.247366
  0
VERTEX
  8
PLAN_1
  6
CONTINUOUS
 10
1.711402
 20
-6.244980
  0
VERTEX
  8
PLAN_1
  6
CONTINUOUS
 10
1.716969
 20
-6.241799
  0
VERTEX
  8
PLAN_1
  6
CONTINUOUS
 10
1.719354
 20
-6.239413
  0
VERTEX
  8
PLAN_1
  6
CONTINUOUS
 10
1.721744
 20
-6.237819
  0
VERTEX
  8
PLAN_1
  6
CONTINUOUS
 10
1.724130
 20
-6.234638
  0
VERTEX
  8
PLAN_1
  6
CONTINUOUS
 10
1.725720
 20
-6.232252
  0
VERTEX
  8
PLAN_1
  6
CONTINUOUS
 10
1.727311
 20
-6.229071
  0
VERTEX
  8
PLAN_1
  6
CONTINUOUS
 10
1.728106
 20
-6.225091
  0
VERTEX
  8
PLAN_1
  6
CONTINUOUS
 10
1.728902
 20
-6.221114
  0
VERTEX
  8
PLAN_1
  6
CONTINUOUS
 10
1.728902
 20
-6.216339
  0
VERTEX
  8
PLAN_1
  6
CONTINUOUS
 10
1.728106
 20
-6.212362
  0
VERTEX
  8
PLAN_1
  6
CONTINUOUS
 10
1.727311
 20
-6.206791
  0
VERTEX
  8
PLAN_1
  6
CONTINUOUS
 10
1.724925
 20
-6.202020
  0
VERTEX
  8
PLAN_1
  6
CONTINUOUS
 10
1.721744
 20
-6.197244
  0
VERTEX
  8
PLAN_1
  6
CONTINUOUS
 10
1.716969
 20
-6.192472
  0
VERTEX
  8
PLAN_1
  6
CONTINUOUS
 10
1.710606
 20
-6.189291
  0
VERTEX
  8
PLAN_1
  6
CONTINUOUS
 10
1.706626
 20
-6.187701
  0
VERTEX
  8
PLAN_1
  6
CONTINUOUS
 10
1.702650
 20
-6.186902
  0
VERTEX
  8
PLAN_1
  6
CONTINUOUS
 10
1.697874
 20
-6.186106
  0
VERTEX
  8
PLAN_1
  6
CONTINUOUS
 10
1.692307
 20
-6.186106
  0
VERTEX
  8
PLAN_1
  6
CONTINUOUS
 10
1.686736
 20
-6.186106
  0
VERTEX
  8
PLAN_1
  6
CONTINUOUS
 10
1.681169
 20
-6.186902
  0
VERTEX
  8
PLAN_1
  6
CONTINUOUS
 10
1.676394
 20
-6.188496
  0
VERTEX
  8
PLAN_1
  6
CONTINUOUS
 10
1.672417
 20
-6.190882
  0
VERTEX
  8
PLAN_1
  6
CONTINUOUS
 10
1.668437
 20
-6.192472
  0
VERTEX
  8
PLAN_1
  6
CONTINUOUS
 10
1.666051
 20
-6.195654
  0
VERTEX
  8
PLAN_1
  6
CONTINUOUS
 10
1.662870
 20
-6.198839
  0
VERTEX
  8
PLAN_1
  6
CONTINUOUS
 10
1.661280
 20
-6.202020
  0
VERTEX
  8
PLAN_1
  6
CONTINUOUS
 10
1.658094
 20
-6.208386
  0
VERTEX
  8
PLAN_1
  6
CONTINUOUS
 10
1.656504
 20
-6.215543
  0
VERTEX
  8
PLAN_1
  6
CONTINUOUS
 10
1.654913
 20
-6.221909
  0
VERTEX
  8
PLAN_1
  6
CONTINUOUS
 10
1.654913
 20
-6.227476
  0
VERTEX
  8
PLAN_1
  6
CONTINUOUS
 10
1.631047
 20
-6.227476
  0
VERTEX
  8
PLAN_1
  6
CONTINUOUS
 10
1.631047
 20
-6.217134
  0
VERTEX
  8
PLAN_1
  6
CONTINUOUS
 10
1.633433
 20
-6.205996
  0
VERTEX
  8
PLAN_1
  6
CONTINUOUS
 10
1.635024
 20
-6.200429
  0
VERTEX
  8
PLAN_1
  6
CONTINUOUS
 10
1.637409
 20
-6.194858
  0
VERTEX
  8
PLAN_1
  6
CONTINUOUS
 10
1.639799
 20
-6.190087
  0
VERTEX
  8
PLAN_1
  6
CONTINUOUS
 10
1.642980
 20
-6.185311
  0
VERTEX
  8
PLAN_1
  6
CONTINUOUS
 10
1.646957
 20
-6.180539
  0
VERTEX
  8
PLAN_1
  6
CONTINUOUS
 10
1.650937
 20
-6.176559
  0
VERTEX
  8
PLAN_1
  6
CONTINUOUS
 10
1.656504
 20
-6.172583
  0
VERTEX
  8
PLAN_1
  6
CONTINUOUS
 10
1.662075
 20
-6.170197
  0
VERTEX
  8
PLAN_1
  6
CONTINUOUS
 10
1.669232
 20
-6.167012
  0
VERTEX
  8
PLAN_1
  6
CONTINUOUS
 10
1.676394
 20
-6.165421
  0
VERTEX
  8
PLAN_1
  6
CONTINUOUS
 10
1.684350
 20
-6.164626
  0
VERTEX
  8
PLAN_1
  6
CONTINUOUS
 10
1.693898
 20
-6.163831
  0
VERTEX
  8
PLAN_1
  6
CONTINUOUS
 10
1.701059
 20
-6.163831
  0
VERTEX
  8
PLAN_1
  6
CONTINUOUS
 10
1.707421
 20
-6.164626
  0
VERTEX
  8
PLAN_1
  6
CONTINUOUS
 10
1.712992
 20
-6.166217
  0
VERTEX
  8
PLAN_1
  6
CONTINUOUS
 10
1.719354
 20
-6.167811
  0
VERTEX
  8
PLAN_1
  6
CONTINUOUS
 10
1.724130
 20
-6.170197
  0
VERTEX
  8
PLAN_1
  6
CONTINUOUS
 10
1.729697
 20
-6.172583
  0
VERTEX
  8
PLAN_1
  6
CONTINUOUS
 10
1.733677
 20
-6.174969
  0
VERTEX
  8
PLAN_1
  6
CONTINUOUS
 10
1.737654
 20
-6.178154
  0
VERTEX
  8
PLAN_1
  6
CONTINUOUS
 10
1.741634
 20
-6.182130
  0
VERTEX
  8
PLAN_1
  6
CONTINUOUS
 10
1.744815
 20
-6.186106
  0
VERTEX
  8
PLAN_1
  6
CONTINUOUS
 10
1.747996
 20
-6.190087
  0
VERTEX
  8
PLAN_1
  6
CONTINUOUS
 10
1.749587
 20
-6.194858
  0
VERTEX
  8
PLAN_1
  6
CONTINUOUS
 10
1.751976
 20
-6.199634
  0
VERTEX
  8
PLAN_1
  6
CONTINUOUS
 10
1.752772
 20
-6.204406
  0
VERTEX
  8
PLAN_1
  6
CONTINUOUS
 10
1.753567
 20
-6.209976
  0
VERTEX
  8
PLAN_1
  6
CONTINUOUS
 10
1.754362
 20
-6.215543
  0
VERTEX
  8
PLAN_1
  6
CONTINUOUS
 10
1.753567
 20
-6.224295
  0
VERTEX
  8
PLAN_1
  6
CONTINUOUS
 10
1.751177
 20
-6.231457
  0
VERTEX
  8
PLAN_1
  6
CONTINUOUS
 10
1.748791
 20
-6.237819
  0
VERTEX
  8
PLAN_1
  6
CONTINUOUS
 10
1.745610
 20
-6.243390
  0
VERTEX
  8
PLAN_1
  6
CONTINUOUS
 10
1.741634
 20
-6.248161
  0
VERTEX
  8
PLAN_1
  6
CONTINUOUS
 10
1.737654
 20
-6.251346
  0
VERTEX
  8
PLAN_1
  6
CONTINUOUS
 10
1.732882
 20
-6.253732
  0
VERTEX
  8
PLAN_1
  6
CONTINUOUS
 10
1.728902
 20
-6.255323
  0
VERTEX
  8
PLAN_1
  6
CONTINUOUS
 10
1.728902
 20
-6.256118
  0
VERTEX
  8
PLAN_1
  6
CONTINUOUS
 10
1.736063
 20
-6.258504
  0
VERTEX
  8
PLAN_1
  6
CONTINUOUS
 10
1.742429
 20
-6.262484
  0
VERTEX
  8
PLAN_1
  6
CONTINUOUS
 10
1.747201
 20
-6.266461
  0
VERTEX
  8
PLAN_1
  6
CONTINUOUS
 10
1.751976
 20
-6.271236
  0
VERTEX
  8
PLAN_1
  6
CONTINUOUS
 10
1.755953
 20
-6.277598
  0
VERTEX
  8
PLAN_1
  6
CONTINUOUS
 10
1.759134
 20
-6.283965
  0
VERTEX
  8
PLAN_1
  6
CONTINUOUS
 10
1.760724
 20
-6.292717
  0
VERTEX
  8
PLAN_1
  6
CONTINUOUS
 10
1.761520
 20
-6.301469
  0
VERTEX
  8
PLAN_1
  6
CONTINUOUS
 10
1.761520
 20
-6.307831
  0
VERTEX
  8
PLAN_1
  6
CONTINUOUS
 10
1.760724
 20
-6.313402
  0
VERTEX
  8
PLAN_1
  6
CONTINUOUS
 10
1.759134
 20
-6.318969
  0
VERTEX
  8
PLAN_1
  6
CONTINUOUS
 10
1.757543
 20
-6.324539
  0
VERTEX
  8
PLAN_1
  6
CONTINUOUS
 10
1.755157
 20
-6.330106
  0
VERTEX
  8
PLAN_1
  6
CONTINUOUS
 10
1.751976
 20
-6.335677
  0
VERTEX
  8
PLAN_1
  6
CONTINUOUS
 10
1.748791
 20
-6.340449
  0
VERTEX
  8
PLAN_1
  6
CONTINUOUS
 10
1.744815
 20
-6.345224
  0
VERTEX
  8
PLAN_1
  6
CONTINUOUS
 10
1.740835
 20
-6.349201
  0
VERTEX
  8
PLAN_1
  6
CONTINUOUS
 10
1.735268
 20
-6.353181
  0
VERTEX
  8
PLAN_1
  6
CONTINUOUS
 10
1.729697
 20
-6.356362
  0
VERTEX
  8
PLAN_1
  6
CONTINUOUS
 10
1.723335
 20
-6.358748
  0
VERTEX
  8
PLAN_1
  6
CONTINUOUS
 10
1.716173
 20
-6.361134
  0
VERTEX
  8
PLAN_1
  6
CONTINUOUS
 10
1.708217
 20
-6.362728
  0
VERTEX
  8
PLAN_1
  6
CONTINUOUS
 10
1.700260
 20
-6.364319
  0
VERTEX
  8
PLAN_1
  6
CONTINUOUS
 10
1.691512
 20
-6.364319
  0
VERTEX
  8
PLAN_1
  6
CONTINUOUS
 10
1.685941
 20
-6.364319
  0
VERTEX
  8
PLAN_1
  6
CONTINUOUS
 10
1.681169
 20
-6.363524
  0
VERTEX
  8
PLAN_1
  6
CONTINUOUS
 10
1.675598
 20
-6.362728
  0
VERTEX
  8
PLAN_1
  6
CONTINUOUS
 10
1.671622
 20
-6.361933
  0
VERTEX
  8
PLAN_1
  6
CONTINUOUS
 10
1.666846
 20
-6.360339
  0
VERTEX
  8
PLAN_1
  6
CONTINUOUS
 10
1.662870
 20
-6.359543
  0
VERTEX
  8
PLAN_1
  6
CONTINUOUS
 10
1.658890
 20
-6.357157
  0
VERTEX
  8
PLAN_1
  6
CONTINUOUS
 10
1.654913
 20
-6.355567
  0
VERTEX
  8
PLAN_1
  6
CONTINUOUS
 10
1.647752
 20
-6.350791
  0
VERTEX
  8
PLAN_1
  6
CONTINUOUS
 10
1.641390
 20
-6.345224
  0
VERTEX
  8
PLAN_1
  6
CONTINUOUS
 10
1.636614
 20
-6.338858
  0
VERTEX
  8
PLAN_1
  6
CONTINUOUS
 10
1.633433
 20
-6.331701
  0
VERTEX
  8
PLAN_1
  6
CONTINUOUS
 10
1.630252
 20
-6.323744
  0
VERTEX
  8
PLAN_1
  6
CONTINUOUS
 10
1.627862
 20
-6.315787
  0
VERTEX
  8
PLAN_1
  6
CONTINUOUS
 10
1.627067
 20
-6.307831
  0
VERTEX
  8
PLAN_1
  6
CONTINUOUS
 10
1.626272
 20
-6.299079
  0
VERTEX
  8
PLAN_1
  6
CONTINUOUS
 10
1.650937
 20
-6.299079
  0
VERTEX
  8
PLAN_1
  6
CONTINUOUS
 10
1.651732
 20
-6.306240
  0
VERTEX
  8
PLAN_1
  6
CONTINUOUS
 10
1.653323
 20
-6.314197
  0
VERTEX
  8
PLAN_1
  6
CONTINUOUS
 10
1.654913
 20
-6.321358
  0
VERTEX
  8
PLAN_1
  6
CONTINUOUS
 10
1.658890
 20
-6.327720
  0
VERTEX
  8
PLAN_1
  6
CONTINUOUS
 10
1.661280
 20
-6.330906
  0
VERTEX
  8
PLAN_1
  6
CONTINUOUS
 10
1.663665
 20
-6.333291
  0
VERTEX
  8
PLAN_1
  6
CONTINUOUS
 10
1.667642
 20
-6.336472
  0
VERTEX
  8
PLAN_1
  6
CONTINUOUS
 10
1.670827
 20
-6.338063
  0
VERTEX
  8
PLAN_1
  6
CONTINUOUS
 10
1.675598
 20
-6.339654
  0
VERTEX
  8
PLAN_1
  6
CONTINUOUS
 10
1.680374
 20
-6.341248
  0
VERTEX
  8
PLAN_1
  6
CONTINUOUS
 10
1.686736
 20
-6.342043
  0
VERTEX
  8
PLAN_1
  6
CONTINUOUS
 10
1.693102
 20
-6.342043
  0
VERTEX
  8
PLAN_1
  6
CONTINUOUS
 10
1.701854
 20
-6.342043
  0
VERTEX
  8
PLAN_1
  6
CONTINUOUS
 10
1.709807
 20
-6.339654
  0
VERTEX
  8
PLAN_1
  6
CONTINUOUS
 10
1.716969
 20
-6.336472
  0
VERTEX
  8
PLAN_1
  6
CONTINUOUS
 10
1.723335
 20
-6.331701
  0
VERTEX
  8
PLAN_1
  6
CONTINUOUS
 10
1.726516
 20
-6.329311
  0
VERTEX
  8
PLAN_1
  6
CONTINUOUS
 10
1.728902
 20
-6.326130
  0
VERTEX
  8
PLAN_1
  6
CONTINUOUS
 10
1.730492
 20
-6.323744
  0
VERTEX
  8
PLAN_1
  6
CONTINUOUS
 10
1.732087
 20
-6.319764
  0
VERTEX
  8
PLAN_1
  6
CONTINUOUS
 10
1.733677
 20
-6.316583
  0
VERTEX
  8
PLAN_1
  6
CONTINUOUS
 10
1.734472
 20
-6.312606
  0
VERTEX
  8
PLAN_1
  6
CONTINUOUS
 10
1.735268
 20
-6.308626
  0
VERTEX
  8
PLAN_1
  6
CONTINUOUS
 10
1.735268
 20
-6.304650
  0
VERTEX
  8
PLAN_1
  6
CONTINUOUS
 10
1.735268
 20
-6.299079
  0
VERTEX
  8
PLAN_1
  6
CONTINUOUS
 10
1.734472
 20
-6.293512
  0
VERTEX
  8
PLAN_1
  6
CONTINUOUS
 10
1.732882
 20
-6.289531
  0
VERTEX
  8
PLAN_1
  6
CONTINUOUS
 10
1.730492
 20
-6.285555
  0
VERTEX
  8
PLAN_1
  6
CONTINUOUS
 10
1.728106
 20
-6.281579
  0
VERTEX
  8
PLAN_1
  6
CONTINUOUS
 10
1.725720
 20
-6.279189
  0
VERTEX
  8
PLAN_1
  6
CONTINUOUS
 10
1.722539
 20
-6.276803
  0
VERTEX
  8
PLAN_1
  6
CONTINUOUS
 10
1.718559
 20
-6.274417
  0
VERTEX
  8
PLAN_1
  6
CONTINUOUS
 10
1.711402
 20
-6.271236
  0
VERTEX
  8
PLAN_1
  6
CONTINUOUS
 10
1.704240
 20
-6.269646
  0
VERTEX
  8
PLAN_1
  6
CONTINUOUS
 10
1.696283
 20
-6.268846
  0
VERTEX
  8
PLAN_1
  6
CONTINUOUS
 10
1.689917
 20
-6.268846
  0
VERTEX
  8
PLAN_1
  6
CONTINUOUS
 10
1.688327
 20
-6.268846
  0
VERTEX
  8
PLAN_1
  6
CONTINUOUS
 10
1.686736
 20
-6.268846
  0
VERTEX
  8
PLAN_1
  6
CONTINUOUS
 10
1.685941
 20
-6.268846
  0
VERTEX
  8
PLAN_1
  6
CONTINUOUS
 10
1.684350
 20
-6.268846
  0
VERTEX
  8
PLAN_1
  6
CONTINUOUS
 10
1.682760
 20
-6.268846
  0
VERTEX
  8
PLAN_1
  6
CONTINUOUS
 10
1.681169
 20
-6.268846
  0
VERTEX
  8
PLAN_1
  6
CONTINUOUS
 10
1.680374
 20
-6.268846
  0
VERTEX
  8
PLAN_1
  6
CONTINUOUS
 10
1.678780
 20
-6.268846
  0
VERTEX
  8
PLAN_1
  6
CONTINUOUS
 10
1.678780
 20
-6.248161
  0
SEQEND
  8
0
  0
POLYLINE
  8
PLAN_1
  6
CONTINUOUS
 66
     1
 40
0.003000
 41
0.003000
  0
VERTEX
  8
PLAN_1
  6
CONTINUOUS
 10
1.870516
 20
-6.358748
  0
VERTEX
  8
PLAN_1
  6
CONTINUOUS
 10
1.844264
 20
-6.358748
  0
VERTEX
  8
PLAN_1
  6
CONTINUOUS
 10
1.844264
 20
-6.220319
  0
VERTEX
  8
PLAN_1
  6
CONTINUOUS
 10
1.798913
 20
-6.220319
  0
VERTEX
  8
PLAN_1
  6
CONTINUOUS
 10
1.798913
 20
-6.201224
  0
VERTEX
  8
PLAN_1
  6
CONTINUOUS
 10
1.810051
 20
-6.200429
  0
VERTEX
  8
PLAN_1
  6
CONTINUOUS
 10
1.819598
 20
-6.198839
  0
VERTEX
  8
PLAN_1
  6
CONTINUOUS
 10
1.827555
 20
-6.196449
  0
VERTEX
  8
PLAN_1
  6
CONTINUOUS
 10
1.833921
 20
-6.193268
  0
VERTEX
  8
PLAN_1
  6
CONTINUOUS
 10
1.837102
 20
-6.191677
  0
VERTEX
  8
PLAN_1
  6
CONTINUOUS
 10
1.839488
 20
-6.189291
  0
VERTEX
  8
PLAN_1
  6
CONTINUOUS
 10
1.841874
 20
-6.186106
  0
VERTEX
  8
PLAN_1
  6
CONTINUOUS
 10
1.844264
 20
-6.182925
  0
VERTEX
  8
PLAN_1
  6
CONTINUOUS
 10
1.848240
 20
-6.174969
  0
VERTEX
  8
PLAN_1
  6
CONTINUOUS
 10
1.851421
 20
-6.163831
  0
VERTEX
  8
PLAN_1
  6
CONTINUOUS
 10
1.870516
 20
-6.163831
  0
VERTEX
  8
PLAN_1
  6
CONTINUOUS
 10
1.870516
 20
-6.358748
  0
SEQEND
  8
0
  0
POLYLINE
  8
PLAN_1
  6
CONTINUOUS
 66
     1
 40
0.003000
 41
0.003000
  0
VERTEX
  8
PLAN_1
  6
CONTINUOUS
 10
1.965988
 20
-6.245776
  0
VERTEX
  8
PLAN_1
  6
CONTINUOUS
 10
1.969169
 20
-6.243390
  0
VERTEX
  8
PLAN_1
  6
CONTINUOUS
 10
1.973146
 20
-6.241004
  0
VERTEX
  8
PLAN_1
  6
CONTINUOUS
 10
1.977126
 20
-6.238614
  0
VERTEX
  8
PLAN_1
  6
CONTINUOUS
 10
1.981898
 20
-6.237024
  0
VERTEX
  8
PLAN_1
  6
CONTINUOUS
 10
1.986673
 20
-6.235433
  0
VERTEX
  8
PLAN_1
  6
CONTINUOUS
 10
1.991445
 20
-6.234638
  0
VERTEX
  8
PLAN_1
  6
CONTINUOUS
 10
1.997811
 20
-6.233843
  0
VERTEX
  8
PLAN_1
  6
CONTINUOUS
 10
2.004173
 20
-6.233047
  0
VERTEX
  8
PLAN_1
  6
CONTINUOUS
 10
2.009744
 20
-6.233843
  0
VERTEX
  8
PLAN_1
  6
CONTINUOUS
 10
2.016106
 20
-6.234638
  0
VERTEX
  8
PLAN_1
  6
CONTINUOUS
 10
2.021677
 20
-6.235433
  0
VERTEX
  8
PLAN_1
  6
CONTINUOUS
 10
2.027248
 20
-6.237024
  0
VERTEX
  8
PLAN_1
  6
CONTINUOUS
 10
2.032815
 20
-6.239413
  0
VERTEX
  8
PLAN_1
  6
CONTINUOUS
 10
2.038386
 20
-6.242594
  0
VERTEX
  8
PLAN_1
  6
CONTINUOUS
 10
2.043157
 20
-6.245776
  0
VERTEX
  8
PLAN_1
  6
CONTINUOUS
 10
2.047933
 20
-6.249756
  0
VERTEX
  8
PLAN_1
  6
CONTINUOUS
 10
2.051909
 20
-6.253732
  0
VERTEX
  8
PLAN_1
  6
CONTINUOUS
 10
2.055886
 20
-6.258504
  0
VERTEX
  8
PLAN_1
  6
CONTINUOUS
 10
2.059866
 20
-6.263280
  0
VERTEX
  8
PLAN_1
  6
CONTINUOUS
 10
2.062252
 20
-6.268846
  0
VERTEX
  8
PLAN_1
  6
CONTINUOUS
 10
2.064638
 20
-6.275213
  0
VERTEX
  8
PLAN_1
  6
CONTINUOUS
 10
2.066228
 20
-6.281579
  0
VERTEX
  8
PLAN_1
  6
CONTINUOUS
 10
2.067819
 20
-6.288736
  0
VERTEX
  8
PLAN_1
  6
CONTINUOUS
 10
2.067819
 20
-6.295898
  0
VERTEX
  8
PLAN_1
  6
CONTINUOUS
 10
2.067819
 20
-6.304650
  0
VERTEX
  8
PLAN_1
  6
CONTINUOUS
 10
2.065433
 20
-6.315787
  0
VERTEX
  8
PLAN_1
  6
CONTINUOUS
 10
2.063843
 20
-6.321358
  0
VERTEX
  8
PLAN_1
  6
CONTINUOUS
 10
2.061457
 20
-6.326925
  0
VERTEX
  8
PLAN_1
  6
CONTINUOUS
 10
2.059071
 20
-6.332496
  0
VERTEX
  8
PLAN_1
  6
CONTINUOUS
 10
2.055886
 20
-6.338063
  0
VERTEX
  8
PLAN_1
  6
CONTINUOUS
 10
2.051114
 20
-6.343634
  0
VERTEX
  8
PLAN_1
  6
CONTINUOUS
 10
2.046339
 20
-6.348406
  0
VERTEX
  8
PLAN_1
  6
CONTINUOUS
 10
2.040772
 20
-6.353181
  0
VERTEX
  8
PLAN_1
  6
CONTINUOUS
 10
2.034406
 20
-6.356362
  0
VERTEX
  8
PLAN_1
  6
CONTINUOUS
 10
2.026449
 20
-6.359543
  0
VERTEX
  8
PLAN_1
  6
CONTINUOUS
 10
2.017701
 20
-6.361933
  0
VERTEX
  8
PLAN_1
  6
CONTINUOUS
 10
2.008154
 20
-6.363524
  0
VERTEX
  8
PLAN_1
  6
CONTINUOUS
 10
1.997016
 20
-6.364319
  0
VERTEX
  8
PLAN_1
  6
CONTINUOUS
 10
1.987469
 20
-6.363524
  0
VERTEX
  8
PLAN_1
  6
CONTINUOUS
 10
1.977126
 20
-6.361933
  0
VERTEX
  8
PLAN_1
  6
CONTINUOUS
 10
1.972350
 20
-6.360339
  0
VERTEX
  8
PLAN_1
  6
CONTINUOUS
 10
1.967579
 20
-6.358748
  0
VERTEX
  8
PLAN_1
  6
CONTINUOUS
 10
1.962803
 20
-6.356362
  0
VERTEX
  8
PLAN_1
  6
CONTINUOUS
 10
1.958031
 20
-6.353976
  0
VERTEX
  8
PLAN_1
  6
CONTINUOUS
 10
1.953256
 20
-6.350791
  0
VERTEX
  8
PLAN_1
  6
CONTINUOUS
 10
1.949280
 20
-6.346815
  0
VERTEX
  8
PLAN_1
  6
CONTINUOUS
 10
1.946098
 20
-6.342043
  0
VERTEX
  8
PLAN_1
  6
CONTINUOUS
 10
1.942118
 20
-6.337268
  0
VERTEX
  8
PLAN_1
  6
CONTINUOUS
 10
1.939732
 20
-6.331701
  0
VERTEX
  8
PLAN_1
  6
CONTINUOUS
 10
1.937346
 20
-6.325335
  0
VERTEX
  8
PLAN_1
  6
CONTINUOUS
 10
1.935756
 20
-6.318173
  0
VERTEX
  8
PLAN_1
  6
CONTINUOUS
 10
1.934161
 20
-6.310220
  0
VERTEX
  8
PLAN_1
  6
CONTINUOUS
 10
1.959622
 20
-6.310220
  0
VERTEX
  8
PLAN_1
  6
CONTINUOUS
 10
1.961213
 20
-6.318173
  0
VERTEX
  8
PLAN_1
  6
CONTINUOUS
 10
1.963598
 20
-6.325335
  0
VERTEX
  8
PLAN_1
  6
CONTINUOUS
 10
1.967579
 20
-6.330906
  0
VERTEX
  8
PLAN_1
  6
CONTINUOUS
 10
1.973146
 20
-6.335677
  0
VERTEX
  8
PLAN_1
  6
CONTINUOUS
 10
1.978717
 20
-6.338858
  0
VERTEX
  8
PLAN_1
  6
CONTINUOUS
 10
1.985874
 20
-6.341248
  0
VERTEX
  8
PLAN_1
  6
CONTINUOUS
 10
1.993035
 20
-6.342839
  0
VERTEX
  8
PLAN_1
  6
CONTINUOUS
 10
2.000992
 20
-6.342839
  0
VERTEX
  8
PLAN_1
  6
CONTINUOUS
 10
2.005764
 20
-6.342839
  0
VERTEX
  8
PLAN_1
  6
CONTINUOUS
 10
2.009744
 20
-6.342043
  0
VERTEX
  8
PLAN_1
  6
CONTINUOUS
 10
2.013720
 20
-6.341248
  0
VERTEX
  8
PLAN_1
  6
CONTINUOUS
 10
2.017701
 20
-6.339654
  0
VERTEX
  8
PLAN_1
  6
CONTINUOUS
 10
2.021677
 20
-6.338063
  0
VERTEX
  8
PLAN_1
  6
CONTINUOUS
 10
2.024858
 20
-6.335677
  0
VERTEX
  8
PLAN_1
  6
CONTINUOUS
 10
2.028043
 20
-6.333291
  0
VERTEX
  8
PLAN_1
  6
CONTINUOUS
 10
2.031224
 20
-6.330106
  0
VERTEX
  8
PLAN_1
  6
CONTINUOUS
 10
2.035996
 20
-6.323744
  0
VERTEX
  8
PLAN_1
  6
CONTINUOUS
 10
2.039181
 20
-6.315787
  0
VERTEX
  8
PLAN_1
  6
CONTINUOUS
 10
2.041567
 20
-6.307831
  0
VERTEX
  8
PLAN_1
  6
CONTINUOUS
 10
2.041567
 20
-6.298283
  0
VERTEX
  8
PLAN_1
  6
CONTINUOUS
 10
2.041567
 20
-6.293512
  0
VERTEX
  8
PLAN_1
  6
CONTINUOUS
 10
2.040772
 20
-6.288736
  0
VERTEX
  8
PLAN_1
  6
CONTINUOUS
 10
2.039976
 20
-6.283965
  0
VERTEX
  8
PLAN_1
  6
CONTINUOUS
 10
2.038386
 20
-6.279988
  0
VERTEX
  8
PLAN_1
  6
CONTINUOUS
 10
2.036791
 20
-6.276008
  0
VERTEX
  8
PLAN_1
  6
CONTINUOUS
 10
2.034406
 20
-6.272827
  0
VERTEX
  8
PLAN_1
  6
CONTINUOUS
 10
2.032020
 20
-6.269646
  0
VERTEX
  8
PLAN_1
  6
CONTINUOUS
 10
2.029634
 20
-6.266461
  0
VERTEX
  8
PLAN_1
  6
CONTINUOUS
 10
2.026449
 20
-6.264075
  0
VERTEX
  8
PLAN_1
  6
CONTINUOUS
 10
2.023268
 20
-6.261689
  0
VERTEX
  8
PLAN_1
  6
CONTINUOUS
 10
2.019291
 20
-6.259303
  0
VERTEX
  8
PLAN_1
  6
CONTINUOUS
 10
2.015311
 20
-6.257709
  0
VERTEX
  8
PLAN_1
  6
CONTINUOUS
 10
2.007358
 20
-6.256118
  0
VERTEX
  8
PLAN_1
  6
CONTINUOUS
 10
1.998606
 20
-6.255323
  0
VERTEX
  8
PLAN_1
  6
CONTINUOUS
 10
1.993035
 20
-6.255323
  0
VERTEX
  8
PLAN_1
  6
CONTINUOUS
 10
1.988264
 20
-6.256118
  0
VERTEX
  8
PLAN_1
  6
CONTINUOUS
 10
1.983488
 20
-6.257709
  0
VERTEX
  8
PLAN_1
  6
CONTINUOUS
 10
1.978717
 20
-6.260098
  0
VERTEX
  8
PLAN_1
  6
CONTINUOUS
 10
1.973941
 20
-6.262484
  0
VERTEX
  8
PLAN_1
  6
CONTINUOUS
 10
1.969965
 20
-6.265665
  0
VERTEX
  8
PLAN_1
  6
CONTINUOUS
 10
1.965988
 20
-6.269646
  0
VERTEX
  8
PLAN_1
  6
CONTINUOUS
 10
1.962803
 20
-6.273622
  0
VERTEX
  8
PLAN_1
  6
CONTINUOUS
 10
1.941323
 20
-6.272827
  0
VERTEX
  8
PLAN_1
  6
CONTINUOUS
 10
1.956441
 20
-6.167811
  0
VERTEX
  8
PLAN_1
  6
CONTINUOUS
 10
2.057476
 20
-6.167811
  0
VERTEX
  8
PLAN_1
  6
CONTINUOUS
 10
2.057476
 20
-6.191677
  0
VERTEX
  8
PLAN_1
  6
CONTINUOUS
 10
1.974736
 20
-6.191677
  0
VERTEX
  8
PLAN_1
  6
CONTINUOUS
 10
1.965988
 20
-6.245776
  0
SEQEND
  8
0
  0
POLYLINE
  8
PLAN_1
  6
CONTINUOUS
 66
     1
 40
0.003000
 41
0.003000
  0
VERTEX
  8
PLAN_1
  6
CONTINUOUS
 10
2.131469
 20
-6.358748
  0
VERTEX
  8
PLAN_1
  6
CONTINUOUS
 10
2.104417
 20
-6.358748
  0
VERTEX
  8
PLAN_1
  6
CONTINUOUS
 10
2.104417
 20
-6.159854
  0
VERTEX
  8
PLAN_1
  6
CONTINUOUS
 10
2.196705
 20
-6.159854
  0
VERTEX
  8
PLAN_1
  6
CONTINUOUS
 10
2.208638
 20
-6.160650
  0
VERTEX
  8
PLAN_1
  6
CONTINUOUS
 10
2.220571
 20
-6.162240
  0
VERTEX
  8
PLAN_1
  6
CONTINUOUS
 10
2.226142
 20
-6.163831
  0
VERTEX
  8
PLAN_1
  6
CONTINUOUS
 10
2.231713
 20
-6.165421
  0
VERTEX
  8
PLAN_1
  6
CONTINUOUS
 10
2.236484
 20
-6.167811
  0
VERTEX
  8
PLAN_1
  6
CONTINUOUS
 10
2.241256
 20
-6.170992
  0
VERTEX
  8
PLAN_1
  6
CONTINUOUS
 10
2.246031
 20
-6.174173
  0
VERTEX
  8
PLAN_1
  6
CONTINUOUS
 10
2.250008
 20
-6.178154
  0
VERTEX
  8
PLAN_1
  6
CONTINUOUS
 10
2.253193
 20
-6.182130
  0
VERTEX
  8
PLAN_1
  6
CONTINUOUS
 10
2.256374
 20
-6.186902
  0
VERTEX
  8
PLAN_1
  6
CONTINUOUS
 10
2.258760
 20
-6.192472
  0
VERTEX
  8
PLAN_1
  6
CONTINUOUS
 10
2.260350
 20
-6.198839
  0
VERTEX
  8
PLAN_1
  6
CONTINUOUS
 10
2.261146
 20
-6.205996
  0
VERTEX
  8
PLAN_1
  6
CONTINUOUS
 10
2.261945
 20
-6.213157
  0
VERTEX
  8
PLAN_1
  6
CONTINUOUS
 10
2.261146
 20
-6.223500
  0
VERTEX
  8
PLAN_1
  6
CONTINUOUS
 10
2.259555
 20
-6.232252
  0
VERTEX
  8
PLAN_1
  6
CONTINUOUS
 10
2.256374
 20
-6.239413
  0
VERTEX
  8
PLAN_1
  6
CONTINUOUS
 10
2.252398
 20
-6.245776
  0
VERTEX
  8
PLAN_1
  6
CONTINUOUS
 10
2.248417
 20
-6.250551
  0
VERTEX
  8
PLAN_1
  6
CONTINUOUS
 10
2.243646
 20
-6.254528
  0
VERTEX
  8
PLAN_1
  6
CONTINUOUS
 10
2.238870
 20
-6.257709
  0
VERTEX
  8
PLAN_1
  6
CONTINUOUS
 10
2.234098
 20
-6.260894
  0
VERTEX
  8
PLAN_1
  6
CONTINUOUS
 10
2.238075
 20
-6.263280
  0
VERTEX
  8
PLAN_1
  6
CONTINUOUS
 10
2.242850
 20
-6.264870
  0
VERTEX
  8
PLAN_1
  6
CONTINUOUS
 10
2.246031
 20
-6.268051
  0
VERTEX
  8
PLAN_1
  6
CONTINUOUS
 10
2.250008
 20
-6.271236
  0
VERTEX
  8
PLAN_1
  6
CONTINUOUS
 10
2.253193
 20
-6.276008
  0
VERTEX
  8
PLAN_1
  6
CONTINUOUS
 10
2.255579
 20
-6.281579
  0
VERTEX
  8
PLAN_1
  6
CONTINUOUS
 10
2.257169
 20
-6.289531
  0
VERTEX
  8
PLAN_1
  6
CONTINUOUS
 10
2.257965
 20
-6.298283
  0
VERTEX
  8
PLAN_1
  6
CONTINUOUS
 10
2.259555
 20
-6.334882
  0
VERTEX
  8
PLAN_1
  6
CONTINUOUS
 10
2.259555
 20
-6.338858
  0
VERTEX
  8
PLAN_1
  6
CONTINUOUS
 10
2.260350
 20
-6.342043
  0
VERTEX
  8
PLAN_1
  6
CONTINUOUS
 10
2.260350
 20
-6.344429
  0
VERTEX
  8
PLAN_1
  6
CONTINUOUS
 10
2.261945
 20
-6.346815
  0
VERTEX
  8
PLAN_1
  6
CONTINUOUS
 10
2.262740
 20
-6.349201
  0
VERTEX
  8
PLAN_1
  6
CONTINUOUS
 10
2.264331
 20
-6.350791
  0
VERTEX
  8
PLAN_1
  6
CONTINUOUS
 10
2.266717
 20
-6.353181
  0
VERTEX
  8
PLAN_1
  6
CONTINUOUS
 10
2.269898
 20
-6.354772
  0
VERTEX
  8
PLAN_1
  6
CONTINUOUS
 10
2.269898
 20
-6.358748
  0
VERTEX
  8
PLAN_1
  6
CONTINUOUS
 10
2.236484
 20
-6.358748
  0
VERTEX
  8
PLAN_1
  6
CONTINUOUS
 10
2.234894
 20
-6.353976
  0
VERTEX
  8
PLAN_1
  6
CONTINUOUS
 10
2.234098
 20
-6.346815
  0
VERTEX
  8
PLAN_1
  6
CONTINUOUS
 10
2.233303
 20
-6.339654
  0
VERTEX
  8
PLAN_1
  6
CONTINUOUS
 10
2.232508
 20
-6.332496
  0
VERTEX
  8
PLAN_1
  6
CONTINUOUS
 10
2.232508
 20
-6.325335
  0
VERTEX
  8
PLAN_1
  6
CONTINUOUS
 10
2.231713
 20
-6.318173
  0
VERTEX
  8
PLAN_1
  6
CONTINUOUS
 10
2.231713
 20
-6.312606
  0
VERTEX
  8
PLAN_1
  6
CONTINUOUS
 10
2.231713
 20
-6.309421
  0
VERTEX
  8
PLAN_1
  6
CONTINUOUS
 10
2.231713
 20
-6.303059
  0
VERTEX
  8
PLAN_1
  6
CONTINUOUS
 10
2.230913
 20
-6.296693
  0
VERTEX
  8
PLAN_1
  6
CONTINUOUS
 10
2.229323
 20
-6.290331
  0
VERTEX
  8
PLAN_1
  6
CONTINUOUS
 10
2.226142
 20
-6.285555
  0
VERTEX
  8
PLAN_1
  6
CONTINUOUS
 10
2.224551
 20
-6.282374
  0
VERTEX
  8
PLAN_1
  6
CONTINUOUS
 10
2.221370
 20
-6.280783
  0
VERTEX
  8
PLAN_1
  6
CONTINUOUS
 10
2.218980
 20
-6.278394
  0
VERTEX
  8
PLAN_1
  6
CONTINUOUS
 10
2.215799
 20
-6.276803
  0
VERTEX
  8
PLAN_1
  6
CONTINUOUS
 10
2.211823
 20
-6.275213
  0
VERTEX
  8
PLAN_1
  6
CONTINUOUS
 10
2.207047
 20
-6.274417
  0
VERTEX
  8
PLAN_1
  6
CONTINUOUS
 10
2.202276
 20
-6.273622
  0
VERTEX
  8
PLAN_1
  6
CONTINUOUS
 10
2.196705
 20
-6.273622
  0
VERTEX
  8
PLAN_1
  6
CONTINUOUS
 10
2.131469
 20
-6.273622
  0
VERTEX
  8
PLAN_1
  6
CONTINUOUS
 10
2.131469
 20
-6.358748
  0
SEQEND
  8
0
  0
POLYLINE
  8
PLAN_1
  6
CONTINUOUS
 66
     1
 40
0.003000
 41
0.003000
  0
VERTEX
  8
PLAN_1
  6
CONTINUOUS
 10
2.131469
 20
-6.250551
  0
VERTEX
  8
PLAN_1
  6
CONTINUOUS
 10
2.193524
 20
-6.250551
  0
VERTEX
  8
PLAN_1
  6
CONTINUOUS
 10
2.200685
 20
-6.250551
  0
VERTEX
  8
PLAN_1
  6
CONTINUOUS
 10
2.207843
 20
-6.248961
  0
VERTEX
  8
PLAN_1
  6
CONTINUOUS
 10
2.215004
 20
-6.247366
  0
VERTEX
  8
PLAN_1
  6
CONTINUOUS
 10
2.221370
 20
-6.244185
  0
VERTEX
  8
PLAN_1
  6
CONTINUOUS
 10
2.223756
 20
-6.242594
  0
VERTEX
  8
PLAN_1
  6
CONTINUOUS
 10
2.226142
 20
-6.240209
  0
VERTEX
  8
PLAN_1
  6
CONTINUOUS
 10
2.228528
 20
-6.237024
  0
VERTEX
  8
PLAN_1
  6
CONTINUOUS
 10
2.230913
 20
-6.233843
  0
VERTEX
  8
PLAN_1
  6
CONTINUOUS
 10
2.231713
 20
-6.229866
  0
VERTEX
  8
PLAN_1
  6
CONTINUOUS
 10
2.233303
 20
-6.225886
  0
VERTEX
  8
PLAN_1
  6
CONTINUOUS
 10
2.234098
 20
-6.221114
  0
VERTEX
  8
PLAN_1
  6
CONTINUOUS
 10
2.234098
 20
-6.216339
  0
VERTEX
  8
PLAN_1
  6
CONTINUOUS
 10
2.234098
 20
-6.210772
  0
VERTEX
  8
PLAN_1
  6
CONTINUOUS
 10
2.233303
 20
-6.205996
  0
VERTEX
  8
PLAN_1
  6
CONTINUOUS
 10
2.231713
 20
-6.201224
  0
VERTEX
  8
PLAN_1
  6
CONTINUOUS
 10
2.230118
 20
-6.198043
  0
VERTEX
  8
PLAN_1
  6
CONTINUOUS
 10
2.228528
 20
-6.194858
  0
VERTEX
  8
PLAN_1
  6
CONTINUOUS
 10
2.226142
 20
-6.191677
  0
VERTEX
  8
PLAN_1
  6
CONTINUOUS
 10
2.223756
 20
-6.190087
  0
VERTEX
  8
PLAN_1
  6
CONTINUOUS
 10
2.221370
 20
-6.187701
  0
VERTEX
  8
PLAN_1
  6
CONTINUOUS
 10
2.215799
 20
-6.185311
  0
VERTEX
  8
PLAN_1
  6
CONTINUOUS
 10
2.209433
 20
-6.183720
  0
VERTEX
  8
PLAN_1
  6
CONTINUOUS
 10
2.203866
 20
-6.182925
  0
VERTEX
  8
PLAN_1
  6
CONTINUOUS
 10
2.198295
 20
-6.182925
  0
VERTEX
  8
PLAN_1
  6
CONTINUOUS
 10
2.131469
 20
-6.182925
  0
VERTEX
  8
PLAN_1
  6
CONTINUOUS
 10
2.131469
 20
-6.250551
  0
SEQEND
  8
0
  0
SOLID
  8
PLAN_1
 10
2.333547
 20
-6.358748
 11
2.304110
 21
-6.358748
 12
2.333547
 22
-6.329311
 13
2.304110
 23
-6.329311
  0
POLYLINE
  8
PLAN_1
  6
CONTINUOUS
 66
     1
 40
0.003000
 41
0.003000
  0
VERTEX
  8
PLAN_1
  6
CONTINUOUS
 10
2.333547
 20
-6.358748
  0
VERTEX
  8
PLAN_1
  6
CONTINUOUS
 10
2.304110
 20
-6.358748
  0
VERTEX
  8
PLAN_1
  6
CONTINUOUS
 10
2.304110
 20
-6.329311
  0
VERTEX
  8
PLAN_1
  6
CONTINUOUS
 10
2.333547
 20
-6.329311
  0
VERTEX
  8
PLAN_1
  6
CONTINUOUS
 10
2.333547
 20
-6.358748
  0
SEQEND
  8
0
  0
POLYLINE
  8
PLAN_1
  6
CONTINUOUS
 66
     1
 40
0.003000
 41
0.003000
  0
VERTEX
  8
PLAN_1
  6
CONTINUOUS
 10
2.528465
 20
-6.358748
  0
VERTEX
  8
PLAN_1
  6
CONTINUOUS
 10
2.381280
 20
-6.358748
  0
VERTEX
  8
PLAN_1
  6
CONTINUOUS
 10
2.381280
 20
-6.159854
  0
VERTEX
  8
PLAN_1
  6
CONTINUOUS
 10
2.526075
 20
-6.159854
  0
VERTEX
  8
PLAN_1
  6
CONTINUOUS
 10
2.526075
 20
-6.183720
  0
VERTEX
  8
PLAN_1
  6
CONTINUOUS
 10
2.408331
 20
-6.183720
  0
VERTEX
  8
PLAN_1
  6
CONTINUOUS
 10
2.408331
 20
-6.244980
  0
VERTEX
  8
PLAN_1
  6
CONTINUOUS
 10
2.517327
 20
-6.244980
  0
VERTEX
  8
PLAN_1
  6
CONTINUOUS
 10
2.517327
 20
-6.268846
  0
VERTEX
  8
PLAN_1
  6
CONTINUOUS
 10
2.408331
 20
-6.268846
  0
VERTEX
  8
PLAN_1
  6
CONTINUOUS
 10
2.408331
 20
-6.334882
  0
VERTEX
  8
PLAN_1
  6
CONTINUOUS
 10
2.528465
 20
-6.334882
  0
VERTEX
  8
PLAN_1
  6
CONTINUOUS
 10
2.528465
 20
-6.358748
  0
SEQEND
  8
0
  0
POLYLINE
  8
PLAN_1
  6
CONTINUOUS
 66
     1
 40
0.003000
 41
0.003000
  0
VERTEX
  8
PLAN_1
  6
CONTINUOUS
 10
2.593701
 20
-6.358748
  0
VERTEX
  8
PLAN_1
  6
CONTINUOUS
 10
2.566650
 20
-6.358748
  0
VERTEX
  8
PLAN_1
  6
CONTINUOUS
 10
2.566650
 20
-6.159854
  0
VERTEX
  8
PLAN_1
  6
CONTINUOUS
 10
2.656551
 20
-6.159854
  0
VERTEX
  8
PLAN_1
  6
CONTINUOUS
 10
2.662917
 20
-6.159854
  0
VERTEX
  8
PLAN_1
  6
CONTINUOUS
 10
2.669280
 20
-6.160650
  0
VERTEX
  8
PLAN_1
  6
CONTINUOUS
 10
2.675646
 20
-6.162240
  0
VERTEX
  8
PLAN_1
  6
CONTINUOUS
 10
2.681217
 20
-6.163831
  0
VERTEX
  8
PLAN_1
  6
CONTINUOUS
 10
2.685988
 20
-6.166217
  0
VERTEX
  8
PLAN_1
  6
CONTINUOUS
 10
2.690764
 20
-6.169402
  0
VERTEX
  8
PLAN_1
  6
CONTINUOUS
 10
2.695535
 20
-6.171787
  0
VERTEX
  8
PLAN_1
  6
CONTINUOUS
 10
2.699512
 20
-6.175764
  0
VERTEX
  8
PLAN_1
  6
CONTINUOUS
 10
2.703492
 20
-6.179744
  0
VERTEX
  8
PLAN_1
  6
CONTINUOUS
 10
2.706673
 20
-6.183720
  0
VERTEX
  8
PLAN_1
  6
CONTINUOUS
 10
2.709059
 20
-6.188496
  0
VERTEX
  8
PLAN_1
  6
CONTINUOUS
 10
2.711449
 20
-6.193268
  0
VERTEX
  8
PLAN_1
  6
CONTINUOUS
 10
2.713039
 20
-6.198839
  0
VERTEX
  8
PLAN_1
  6
CONTINUOUS
 10
2.714630
 20
-6.204406
  0
VERTEX
  8
PLAN_1
  6
CONTINUOUS
 10
2.715425
 20
-6.209976
  0
VERTEX
  8
PLAN_1
  6
CONTINUOUS
 10
2.715425
 20
-6.215543
  0
VERTEX
  8
PLAN_1
  6
CONTINUOUS
 10
2.715425
 20
-6.221114
  0
VERTEX
  8
PLAN_1
  6
CONTINUOUS
 10
2.714630
 20
-6.226681
  0
VERTEX
  8
PLAN_1
  6
CONTINUOUS
 10
2.713835
 20
-6.231457
  0
VERTEX
  8
PLAN_1
  6
CONTINUOUS
 10
2.712244
 20
-6.237024
  0
VERTEX
  8
PLAN_1
  6
CONTINUOUS
 10
2.710650
 20
-6.241799
  0
VERTEX
  8
PLAN_1
  6
CONTINUOUS
 10
2.708264
 20
-6.246571
  0
VERTEX
  8
PLAN_1
  6
CONTINUOUS
 10
2.705083
 20
-6.251346
  0
VERTEX
  8
PLAN_1
  6
CONTINUOUS
 10
2.701902
 20
-6.256118
  0
VERTEX
  8
PLAN_1
  6
CONTINUOUS
 10
2.697921
 20
-6.260098
  0
VERTEX
  8
PLAN_1
  6
CONTINUOUS
 10
2.693945
 20
-6.263280
  0
VERTEX
  8
PLAN_1
  6
CONTINUOUS
 10
2.689169
 20
-6.266461
  0
VERTEX
  8
PLAN_1
  6
CONTINUOUS
 10
2.683602
 20
-6.269646
  0
VERTEX
  8
PLAN_1
  6
CONTINUOUS
 10
2.678031
 20
-6.272031
  0
VERTEX
  8
PLAN_1
  6
CONTINUOUS
 10
2.670874
 20
-6.273622
  0
VERTEX
  8
PLAN_1
  6
CONTINUOUS
 10
2.663713
 20
-6.274417
  0
VERTEX
  8
PLAN_1
  6
CONTINUOUS
 10
2.656551
 20
-6.275213
  0
VERTEX
  8
PLAN_1
  6
CONTINUOUS
 10
2.593701
 20
-6.275213
  0
VERTEX
  8
PLAN_1
  6
CONTINUOUS
 10
2.593701
 20
-6.358748
  0
SEQEND
  8
0
  0
POLYLINE
  8
PLAN_1
  6
CONTINUOUS
 66
     1
 40
0.003000
 41
0.003000
  0
VERTEX
  8
PLAN_1
  6
CONTINUOUS
 10
2.593701
 20
-6.252142
  0
VERTEX
  8
PLAN_1
  6
CONTINUOUS
 10
2.647004
 20
-6.252142
  0
VERTEX
  8
PLAN_1
  6
CONTINUOUS
 10
2.655756
 20
-6.251346
  0
VERTEX
  8
PLAN_1
  6
CONTINUOUS
 10
2.663713
 20
-6.249756
  0
VERTEX
  8
PLAN_1
  6
CONTINUOUS
 10
2.670075
 20
-6.247366
  0
VERTEX
  8
PLAN_1
  6
CONTINUOUS
 10
2.676441
 20
-6.244185
  0
VERTEX
  8
PLAN_1
  6
CONTINUOUS
 10
2.678827
 20
-6.241799
  0
VERTEX
  8
PLAN_1
  6
CONTINUOUS
 10
2.681217
 20
-6.239413
  0
VERTEX
  8
PLAN_1
  6
CONTINUOUS
 10
2.682807
 20
-6.236228
  0
VERTEX
  8
PLAN_1
  6
CONTINUOUS
 10
2.684398
 20
-6.233047
  0
VERTEX
  8
PLAN_1
  6
CONTINUOUS
 10
2.685988
 20
-6.229071
  0
VERTEX
  8
PLAN_1
  6
CONTINUOUS
 10
2.686783
 20
-6.225091
  0
VERTEX
  8
PLAN_1
  6
CONTINUOUS
 10
2.687579
 20
-6.221114
  0
VERTEX
  8
PLAN_1
  6
CONTINUOUS
 10
2.687579
 20
-6.216339
  0
VERTEX
  8
PLAN_1
  6
CONTINUOUS
 10
2.687579
 20
-6.211567
  0
VERTEX
  8
PLAN_1
  6
CONTINUOUS
 10
2.686783
 20
-6.207587
  0
VERTEX
  8
PLAN_1
  6
CONTINUOUS
 10
2.685988
 20
-6.203610
  0
VERTEX
  8
PLAN_1
  6
CONTINUOUS
 10
2.684398
 20
-6.200429
  0
VERTEX
  8
PLAN_1
  6
CONTINUOUS
 10
2.682807
 20
-6.197244
  0
VERTEX
  8
PLAN_1
  6
CONTINUOUS
 10
2.681217
 20
-6.194858
  0
VERTEX
  8
PLAN_1
  6
CONTINUOUS
 10
2.678827
 20
-6.191677
  0
VERTEX
  8
PLAN_1
  6
CONTINUOUS
 10
2.676441
 20
-6.190087
  0
VERTEX
  8
PLAN_1
  6
CONTINUOUS
 10
2.670075
 20
-6.186902
  0
VERTEX
  8
PLAN_1
  6
CONTINUOUS
 10
2.663713
 20
-6.184516
  0
VERTEX
  8
PLAN_1
  6
CONTINUOUS
 10
2.656551
 20
-6.182925
  0
VERTEX
  8
PLAN_1
  6
CONTINUOUS
 10
2.647799
 20
-6.182925
  0
VERTEX
  8
PLAN_1
  6
CONTINUOUS
 10
2.593701
 20
-6.182925
  0
VERTEX
  8
PLAN_1
  6
CONTINUOUS
 10
2.593701
 20
-6.252142
  0
SEQEND
  8
0
  0
POLYLINE
  8
PLAN_1
  6
CONTINUOUS
 66
     1
 40
0.003000
 41
0.003000
  0
VERTEX
  8
PLAN_1
  6
CONTINUOUS
 10
2.868972
 20
-6.217929
  0
VERTEX
  8
PLAN_1
  6
CONTINUOUS
 10
2.868972
 20
-6.212362
  0
VERTEX
  8
PLAN_1
  6
CONTINUOUS
 10
2.867382
 20
-6.207587
  0
VERTEX
  8
PLAN_1
  6
CONTINUOUS
 10
2.865791
 20
-6.202815
  0
VERTEX
  8
PLAN_1
  6
CONTINUOUS
 10
2.864197
 20
-6.198839
  0
VERTEX
  8
PLAN_1
  6
CONTINUOUS
 10
2.861811
 20
-6.194858
  0
VERTEX
  8
PLAN_1
  6
CONTINUOUS
 10
2.858630
 20
-6.191677
  0
VERTEX
  8
PLAN_1
  6
CONTINUOUS
 10
2.855449
 20
-6.188496
  0
VERTEX
  8
PLAN_1
  6
CONTINUOUS
 10
2.852264
 20
-6.186106
  0
VERTEX
  8
PLAN_1
  6
CONTINUOUS
 10
2.845106
 20
-6.182130
  0
VERTEX
  8
PLAN_1
  6
CONTINUOUS
 10
2.837150
 20
-6.179744
  0
VERTEX
  8
PLAN_1
  6
CONTINUOUS
 10
2.828398
 20
-6.178154
  0
VERTEX
  8
PLAN_1
  6
CONTINUOUS
 10
2.819646
 20
-6.177354
  0
VERTEX
  8
PLAN_1
  6
CONTINUOUS
 10
2.813283
 20
-6.178154
  0
VERTEX
  8
PLAN_1
  6
CONTINUOUS
 10
2.805327
 20
-6.178949
  0
VERTEX
  8
PLAN_1
  6
CONTINUOUS
 10
2.798165
 20
-6.180539
  0
VERTEX
  8
PLAN_1
  6
CONTINUOUS
 10
2.791004
 20
-6.183720
  0
VERTEX
  8
PLAN_1
  6
CONTINUOUS
 10
2.787028
 20
-6.185311
  0
VERTEX
  8
PLAN_1
  6
CONTINUOUS
 10
2.783846
 20
-6.188496
  0
VERTEX
  8
PLAN_1
  6
CONTINUOUS
 10
2.781457
 20
-6.190882
  0
VERTEX
  8
PLAN_1
  6
CONTINUOUS
 10
2.779071
 20
-6.194063
  0
VERTEX
  8
PLAN_1
  6
CONTINUOUS
 10
2.776685
 20
-6.198043
  0
VERTEX
  8
PLAN_1
  6
CONTINUOUS
 10
2.775890
 20
-6.202020
  0
VERTEX
  8
PLAN_1
  6
CONTINUOUS
 10
2.774299
 20
-6.206791
  0
VERTEX
  8
PLAN_1
  6
CONTINUOUS
 10
2.774299
 20
-6.212362
  0
VERTEX
  8
PLAN_1
  6
CONTINUOUS
 10
2.775094
 20
-6.217929
  0
VERTEX
  8
PLAN_1
  6
CONTINUOUS
 10
2.776685
 20
-6.223500
  0
VERTEX
  8
PLAN_1
  6
CONTINUOUS
 10
2.778276
 20
-6.227476
  0
VERTEX
  8
PLAN_1
  6
CONTINUOUS
 10
2.781457
 20
-6.230661
  0
VERTEX
  8
PLAN_1
  6
CONTINUOUS
 10
2.785437
 20
-6.233047
  0
VERTEX
  8
PLAN_1
  6
CONTINUOUS
 10
2.789413
 20
-6.234638
  0
VERTEX
  8
PLAN_1
  6
CONTINUOUS
 10
2.793394
 20
-6.236228
  0
VERTEX
  8
PLAN_1
  6
CONTINUOUS
 10
2.798165
 20
-6.237819
  0
VERTEX
  8
PLAN_1
  6
CONTINUOUS
 10
2.854654
 20
-6.250551
  0
VERTEX
  8
PLAN_1
  6
CONTINUOUS
 10
2.864197
 20
-6.253732
  0
VERTEX
  8
PLAN_1
  6
CONTINUOUS
 10
2.872949
 20
-6.256913
  0
VERTEX
  8
PLAN_1
  6
CONTINUOUS
 10
2.880110
 20
-6.261689
  0
VERTEX
  8
PLAN_1
  6
CONTINUOUS
 10
2.887272
 20
-6.268051
  0
VERTEX
  8
PLAN_1
  6
CONTINUOUS
 10
2.889657
 20
-6.271236
  0
VERTEX
  8
PLAN_1
  6
CONTINUOUS
 10
2.892839
 20
-6.275213
  0
VERTEX
  8
PLAN_1
  6
CONTINUOUS
 10
2.894429
 20
-6.279189
  0
VERTEX
  8
PLAN_1
  6
CONTINUOUS
 10
2.896819
 20
-6.283169
  0
VERTEX
  8
PLAN_1
  6
CONTINUOUS
 10
2.898409
 20
-6.287941
  0
VERTEX
  8
PLAN_1
  6
CONTINUOUS
 10
2.899205
 20
-6.292717
  0
VERTEX
  8
PLAN_1
  6
CONTINUOUS
 10
2.900000
 20
-6.298283
  0
VERTEX
  8
PLAN_1
  6
CONTINUOUS
 10
2.900000
 20
-6.303854
  0
VERTEX
  8
PLAN_1
  6
CONTINUOUS
 10
2.899205
 20
-6.312606
  0
VERTEX
  8
PLAN_1
  6
CONTINUOUS
 10
2.898409
 20
-6.320563
  0
VERTEX
  8
PLAN_1
  6
CONTINUOUS
 10
2.896024
 20
-6.326925
  0
VERTEX
  8
PLAN_1
  6
CONTINUOUS
 10
2.892839
 20
-6.333291
  0
VERTEX
  8
PLAN_1
  6
CONTINUOUS
 10
2.888862
 20
-6.338858
  0
VERTEX
  8
PLAN_1
  6
CONTINUOUS
 10
2.884087
 20
-6.343634
  0
VERTEX
  8
PLAN_1
  6
CONTINUOUS
 10
2.879315
 20
-6.348406
  0
VERTEX
  8
PLAN_1
  6
CONTINUOUS
 10
2.873744
 20
-6.351591
  0
VERTEX
  8
PLAN_1
  6
CONTINUOUS
 10
2.868177
 20
-6.354772
  0
VERTEX
  8
PLAN_1
  6
CONTINUOUS
 10
2.861811
 20
-6.357953
  0
VERTEX
  8
PLAN_1
  6
CONTINUOUS
 10
2.855449
 20
-6.359543
  0
VERTEX
  8
PLAN_1
  6
CONTINUOUS
 10
2.848287
 20
-6.361933
  0
VERTEX
  8
PLAN_1
  6
CONTINUOUS
 10
2.834764
 20
-6.363524
  0
VERTEX
  8
PLAN_1
  6
CONTINUOUS
 10
2.822031
 20
-6.364319
  0
VERTEX
  8
PLAN_1
  6
CONTINUOUS
 10
2.809303
 20
-6.363524
  0
VERTEX
  8
PLAN_1
  6
CONTINUOUS
 10
2.798165
 20
-6.362728
  0
VERTEX
  8
PLAN_1
  6
CONTINUOUS
 10
2.789413
 20
-6.360339
  0
VERTEX
  8
PLAN_1
  6
CONTINUOUS
 10
2.781457
 20
-6.357953
  0
VERTEX
  8
PLAN_1
  6
CONTINUOUS
 10
2.775094
 20
-6.354772
  0
VERTEX
  8
PLAN_1
  6
CONTINUOUS
 10
2.769524
 20
-6.351591
  0
VERTEX
  8
PLAN_1
  6
CONTINUOUS
 10
2.765547
 20
-6.348406
  0
VERTEX
  8
PLAN_1
  6
CONTINUOUS
 10
2.761567
 20
-6.345224
  0
VERTEX
  8
PLAN_1
  6
CONTINUOUS
 10
2.756000
 20
-6.339654
  0
VERTEX
  8
PLAN_1
  6
CONTINUOUS
 10
2.751224
 20
-6.333291
  0
VERTEX
  8
PLAN_1
  6
CONTINUOUS
 10
2.748043
 20
-6.327720
  0
VERTEX
  8
PLAN_1
  6
CONTINUOUS
 10
2.745657
 20
-6.321358
  0
VERTEX
  8
PLAN_1
  6
CONTINUOUS
 10
2.743272
 20
-6.314992
  0
VERTEX
  8
PLAN_1
  6
CONTINUOUS
 10
2.742476
 20
-6.308626
  0
VERTEX
  8
PLAN_1
  6
CONTINUOUS
 10
2.741677
 20
-6.301469
  0
VERTEX
  8
PLAN_1
  6
CONTINUOUS
 10
2.741677
 20
-6.294307
  0
VERTEX
  8
PLAN_1
  6
CONTINUOUS
 10
2.767138
 20
-6.294307
  0
VERTEX
  8
PLAN_1
  6
CONTINUOUS
 10
2.767138
 20
-6.301469
  0
VERTEX
  8
PLAN_1
  6
CONTINUOUS
 10
2.767933
 20
-6.307035
  0
VERTEX
  8
PLAN_1
  6
CONTINUOUS
 10
2.769524
 20
-6.312606
  0
VERTEX
  8
PLAN_1
  6
CONTINUOUS
 10
2.771909
 20
-6.317378
  0
VERTEX
  8
PLAN_1
  6
CONTINUOUS
 10
2.774299
 20
-6.321358
  0
VERTEX
  8
PLAN_1
  6
CONTINUOUS
 10
2.777480
 20
-6.325335
  0
VERTEX
  8
PLAN_1
  6
CONTINUOUS
 10
2.780661
 20
-6.328516
  0
VERTEX
  8
PLAN_1
  6
CONTINUOUS
 10
2.784642
 20
-6.331701
  0
VERTEX
  8
PLAN_1
  6
CONTINUOUS
 10
2.788618
 20
-6.334087
  0
VERTEX
  8
PLAN_1
  6
CONTINUOUS
 10
2.793394
 20
-6.335677
  0
VERTEX
  8
PLAN_1
  6
CONTINUOUS
 10
2.797370
 20
-6.338063
  0
VERTEX
  8
PLAN_1
  6
CONTINUOUS
 10
2.802142
 20
-6.338858
  0
VERTEX
  8
PLAN_1
  6
CONTINUOUS
 10
2.811689
 20
-6.340449
  0
VERTEX
  8
PLAN_1
  6
CONTINUOUS
 10
2.822031
 20
-6.341248
  0
VERTEX
  8
PLAN_1
  6
CONTINUOUS
 10
2.829193
 20
-6.341248
  0
VERTEX
  8
PLAN_1
  6
CONTINUOUS
 10
2.837945
 20
-6.340449
  0
VERTEX
  8
PLAN_1
  6
CONTINUOUS
 10
2.846697
 20
-6.338063
  0
VERTEX
  8
PLAN_1
  6
CONTINUOUS
 10
2.855449
 20
-6.334882
  0
VERTEX
  8
PLAN_1
  6
CONTINUOUS
 10
2.858630
 20
-6.333291
  0
VERTEX
  8
PLAN_1
  6
CONTINUOUS
 10
2.862606
 20
-6.330906
  0
VERTEX
  8
PLAN_1
  6
CONTINUOUS
 10
2.865791
 20
-6.328516
  0
VERTEX
  8
PLAN_1
  6
CONTINUOUS
 10
2.868177
 20
-6.325335
  0
VERTEX
  8
PLAN_1
  6
CONTINUOUS
 10
2.870563
 20
-6.321358
  0
VERTEX
  8
PLAN_1
  6
CONTINUOUS
 10
2.872154
 20
-6.317378
  0
VERTEX
  8
PLAN_1
  6
CONTINUOUS
 10
2.873744
 20
-6.312606
  0
VERTEX
  8
PLAN_1
  6
CONTINUOUS
 10
2.873744
 20
-6.307831
  0
VERTEX
  8
PLAN_1
  6
CONTINUOUS
 10
2.873744
 20
-6.300673
  0
VERTEX
  8
PLAN_1
  6
CONTINUOUS
 10
2.872154
 20
-6.294307
  0
VERTEX
  8
PLAN_1
  6
CONTINUOUS
 10
2.868972
 20
-6.289531
  0
VERTEX
  8
PLAN_1
  6
CONTINUOUS
 10
2.864996
 20
-6.285555
  0
VERTEX
  8
PLAN_1
  6
CONTINUOUS
 10
2.859425
 20
-6.281579
  0
VERTEX
  8
PLAN_1
  6
CONTINUOUS
 10
2.852264
 20
-6.278394
  0
VERTEX
  8
PLAN_1
  6
CONTINUOUS
 10
2.842717
 20
-6.275213
  0
VERTEX
  8
PLAN_1
  6
CONTINUOUS
 10
2.831579
 20
-6.272827
  0
VERTEX
  8
PLAN_1
  6
CONTINUOUS
 10
2.791004
 20
-6.263280
  0
VERTEX
  8
PLAN_1
  6
CONTINUOUS
 10
2.785437
 20
-6.261689
  0
VERTEX
  8
PLAN_1
  6
CONTINUOUS
 10
2.778276
 20
-6.259303
  0
VERTEX
  8
PLAN_1
  6
CONTINUOUS
 10
2.771114
 20
-6.256118
  0
VERTEX
  8
PLAN_1
  6
CONTINUOUS
 10
2.764752
 20
-6.251346
  0
VERTEX
  8
PLAN_1
  6
CONTINUOUS
 10
2.761567
 20
-6.248961
  0
VERTEX
  8
PLAN_1
  6
CONTINUOUS
 10
2.758386
 20
-6.245776
  0
VERTEX
  8
PLAN_1
  6
CONTINUOUS
 10
2.755205
 20
-6.241799
  0
VERTEX
  8
PLAN_1
  6
CONTINUOUS
 10
2.752819
 20
-6.237819
  0
VERTEX
  8
PLAN_1
  6
CONTINUOUS
 10
2.751224
 20
-6.233047
  0
VERTEX
  8
PLAN_1
  6
CONTINUOUS
 10
2.749634
 20
-6.228272
  0
VERTEX
  8
PLAN_1
  6
CONTINUOUS
 10
2.748839
 20
-6.222705
  0
VERTEX
  8
PLAN_1
  6
CONTINUOUS
 10
2.748043
 20
-6.216339
  0
VERTEX
  8
PLAN_1
  6
CONTINUOUS
 10
2.748043
 20
-6.209976
  0
VERTEX
  8
PLAN_1
  6
CONTINUOUS
 10
2.748839
 20
-6.204406
  0
VERTEX
  8
PLAN_1
  6
CONTINUOUS
 10
2.750429
 20
-6.198839
  0
VERTEX
  8
PLAN_1
  6
CONTINUOUS
 10
2.752024
 20
-6.193268
  0
VERTEX
  8
PLAN_1
  6
CONTINUOUS
 10
2.754409
 20
-6.187701
  0
VERTEX
  8
PLAN_1
  6
CONTINUOUS
 10
2.756795
 20
-6.182925
  0
VERTEX
  8
PLAN_1
  6
CONTINUOUS
 10
2.760772
 20
-6.178154
  0
VERTEX
  8
PLAN_1
  6
CONTINUOUS
 10
2.763957
 20
-6.173378
  0
VERTEX
  8
PLAN_1
  6
CONTINUOUS
 10
2.768728
 20
-6.169402
  0
VERTEX
  8
PLAN_1
  6
CONTINUOUS
 10
2.773504
 20
-6.165421
  0
VERTEX
  8
PLAN_1
  6
CONTINUOUS
 10
2.779071
 20
-6.162240
  0
VERTEX
  8
PLAN_1
  6
CONTINUOUS
 10
2.785437
 20
-6.159854
  0
VERTEX
  8
PLAN_1
  6
CONTINUOUS
 10
2.792594
 20
-6.157469
  0
VERTEX
  8
PLAN_1
  6
CONTINUOUS
 10
2.799756
 20
-6.155874
  0
VERTEX
  8
PLAN_1
  6
CONTINUOUS
 10
2.807713
 20
-6.155079
  0
VERTEX
  8
PLAN_1
  6
CONTINUOUS
 10
2.816465
 20
-6.154283
  0
VERTEX
  8
PLAN_1
  6
CONTINUOUS
 10
2.829193
 20
-6.155079
  0
VERTEX
  8
PLAN_1
  6
CONTINUOUS
 10
2.840331
 20
-6.156669
  0
VERTEX
  8
PLAN_1
  6
CONTINUOUS
 10
2.849878
 20
-6.158264
  0
VERTEX
  8
PLAN_1
  6
CONTINUOUS
 10
2.857835
 20
-6.161445
  0
VERTEX
  8
PLAN_1
  6
CONTINUOUS
 10
2.865791
 20
-6.164626
  0
VERTEX
  8
PLAN_1
  6
CONTINUOUS
 10
2.871358
 20
-6.168606
  0
VERTEX
  8
PLAN_1
  6
CONTINUOUS
 10
2.876929
 20
-6.173378
  0
VERTEX
  8
PLAN_1
  6
CONTINUOUS
 10
2.880906
 20
-6.178154
  0
VERTEX
  8
PLAN_1
  6
CONTINUOUS
 10
2.884886
 20
-6.182925
  0
VERTEX
  8
PLAN_1
  6
CONTINUOUS
 10
2.888067
 20
-6.188496
  0
VERTEX
  8
PLAN_1
  6
CONTINUOUS
 10
2.889657
 20
-6.193268
  0
VERTEX
  8
PLAN_1
  6
CONTINUOUS
 10
2.891248
 20
-6.198839
  0
VERTEX
  8
PLAN_1
  6
CONTINUOUS
 10
2.893634
 20
-6.209181
  0
VERTEX
  8
PLAN_1
  6
CONTINUOUS
 10
2.894429
 20
-6.217929
  0
VERTEX
  8
PLAN_1
  6
CONTINUOUS
 10
2.868972
 20
-6.217929
  0
SEQEND
  8
0
  0
POLYLINE
  8
PLAN_1
  6
CONTINUOUS
 66
     1
 40
0.007953
 41
0.007953
  0
VERTEX
  8
PLAN_1
  6
CONTINUOUS
 10
2.452087
 20
0.507126
  0
VERTEX
  8
PLAN_1
  6
CONTINUOUS
 10
2.452087
 20
-5.012622
  0
VERTEX
  8
PLAN_1
  6
CONTINUOUS
 10
0.210933
 20
-5.073882
  0
VERTEX
  8
PLAN_1
  6
CONTINUOUS
 10
-0.962551
 20
-5.073882
  0
VERTEX
  8
PLAN_1
  6
CONTINUOUS
 10
-0.962551
 20
0.571571
  0
VERTEX
  8
PLAN_1
  6
CONTINUOUS
 10
0.210933
 20
0.571571
  0
VERTEX
  8
PLAN_1
  6
CONTINUOUS
 10
2.452087
 20
0.507126
  0
SEQEND
  8
0
  0
POLYLINE
  8
PLAN_1
  6
CONTINUOUS
 66
     1
 40
0.007953
 41
0.007953
  0
VERTEX
  8
PLAN_1
  6
CONTINUOUS
 10
-2.120126
 20
2.036236
  0
VERTEX
  8
PLAN_1
  6
CONTINUOUS
 10
-2.120126
 20
3.025146
  0
VERTEX
  8
PLAN_1
  6
CONTINUOUS
 10
-1.738244
 20
3.025146
  0
VERTEX
  8
PLAN_1
  6
CONTINUOUS
 10
-1.738244
 20
2.272524
  0
SEQEND
  8
0
  0
POLYLINE
  8
PLAN_1
  6
CONTINUOUS
 66
     1
 40
0.007953
 41
0.007953
  0
VERTEX
  8
PLAN_1
  6
CONTINUOUS
 10
-1.744610
 20
2.087949
  0
VERTEX
  8
PLAN_1
  6
CONTINUOUS
 10
-1.744610
 20
-1.159618
  0
VERTEX
  8
PLAN_1
  6
CONTINUOUS
 10
-2.120921
 20
-1.159618
  0
VERTEX
  8
PLAN_1
  6
CONTINUOUS
 10
-2.120126
 20
1.867571
  0
SEQEND
  8
0
  0
POLYLINE
  8
PLAN_1
  6
CONTINUOUS
 66
     1
 40
0.007953
 41
0.007953
  0
VERTEX
  8
PLAN_1
  6
CONTINUOUS
 10
-1.404102
 20
3.025146
  0
VERTEX
  8
PLAN_1
  6
CONTINUOUS
 10
-1.404102
 20
6.109618
  0
VERTEX
  8
PLAN_1
  6
CONTINUOUS
 10
-2.486890
 20
6.109618
  0
VERTEX
  8
PLAN_1
  6
CONTINUOUS
 10
-2.486890
 20
3.025146
  0
VERTEX
  8
PLAN_1
  6
CONTINUOUS
 10
-1.404102
 20
3.025146
  0
SEQEND
  8
0
  0
POLYLINE
  8
PLAN_1
  6
CONTINUOUS
 66
     1
 40
0.007953
 41
0.007953
  0
VERTEX
  8
PLAN_1
  6
CONTINUOUS
 10
-1.744610
 20
-1.161209
  0
VERTEX
  8
PLAN_1
  6
CONTINUOUS
 10
-2.316634
 20
-1.161209
  0
VERTEX
  8
PLAN_1
  6
CONTINUOUS
 10
-2.316634
 20
-1.936106
  0
VERTEX
  8
PLAN_1
  6
CONTINUOUS
 10
-2.124102
 20
-1.936106
  0
SEQEND
  8
0
  0
POLYLINE
  8
PLAN_1
  6
CONTINUOUS
 66
     1
 40
0.005567
 41
0.005567
  0
VERTEX
  8
PLAN_1
  6
CONTINUOUS
 10
-2.316634
 20
-1.708571
  0
VERTEX
  8
PLAN_1
  6
CONTINUOUS
 10
-2.316634
 20
-1.360902
  0
VERTEX
  8
PLAN_1
  6
CONTINUOUS
 10
-2.355618
 20
-1.360902
  0
VERTEX
  8
PLAN_1
  6
CONTINUOUS
 10
-2.355618
 20
-1.708571
  0
VERTEX
  8
PLAN_1
  6
CONTINUOUS
 10
-2.316634
 20
-1.708571
  0
SEQEND
  8
0
  0
POLYLINE
  8
PLAN_1
  6
CONTINUOUS
 66
     1
 40
0.005567
 41
0.005567
  0
VERTEX
  8
PLAN_1
  6
CONTINUOUS
 10
-2.500413
 20
-1.360902
  0
VERTEX
  8
PLAN_1
  6
CONTINUOUS
 10
-2.503594
 20
-1.367264
  0
VERTEX
  8
PLAN_1
  6
CONTINUOUS
 10
-2.505984
 20
-1.374425
  0
VERTEX
  8
PLAN_1
  6
CONTINUOUS
 10
-2.507575
 20
-1.381587
  0
VERTEX
  8
PLAN_1
  6
CONTINUOUS
 10
-2.509165
 20
-1.388744
  0
VERTEX
  8
PLAN_1
  6
CONTINUOUS
 10
-2.509165
 20
-1.395110
  0
VERTEX
  8
PLAN_1
  6
CONTINUOUS
 10
-2.509165
 20
-1.401476
  0
VERTEX
  8
PLAN_1
  6
CONTINUOUS
 10
-2.509165
 20
-1.407839
  0
VERTEX
  8
PLAN_1
  6
CONTINUOUS
 10
-2.508370
 20
-1.413409
  0
VERTEX
  8
PLAN_1
  6
CONTINUOUS
 10
-2.505984
 20
-1.423752
  0
VERTEX
  8
PLAN_1
  6
CONTINUOUS
 10
-2.503594
 20
-1.431709
  0
VERTEX
  8
PLAN_1
  6
CONTINUOUS
 10
-2.501209
 20
-1.437276
  0
VERTEX
  8
PLAN_1
  6
CONTINUOUS
 10
-2.500413
 20
-1.438866
  0
VERTEX
  8
PLAN_1
  6
CONTINUOUS
 10
-2.501209
 20
-1.443642
  0
VERTEX
  8
PLAN_1
  6
CONTINUOUS
 10
-2.503594
 20
-1.456370
  0
VERTEX
  8
PLAN_1
  6
CONTINUOUS
 10
-2.505984
 20
-1.476260
  0
VERTEX
  8
PLAN_1
  6
CONTINUOUS
 10
-2.508370
 20
-1.500921
  0
VERTEX
  8
PLAN_1
  6
CONTINUOUS
 10
-2.509165
 20
-1.515244
  0
VERTEX
  8
PLAN_1
  6
CONTINUOUS
 10
-2.509961
 20
-1.529563
  0
VERTEX
  8
PLAN_1
  6
CONTINUOUS
 10
-2.509961
 20
-1.545476
  0
VERTEX
  8
PLAN_1
  6
CONTINUOUS
 10
-2.509961
 20
-1.561386
  0
VERTEX
  8
PLAN_1
  6
CONTINUOUS
 10
-2.508370
 20
-1.577299
  0
VERTEX
  8
PLAN_1
  6
CONTINUOUS
 10
-2.506780
 20
-1.593209
  0
VERTEX
  8
PLAN_1
  6
CONTINUOUS
 10
-2.504390
 20
-1.609917
  0
VERTEX
  8
PLAN_1
  6
CONTINUOUS
 10
-2.500413
 20
-1.625831
  0
VERTEX
  8
PLAN_1
  6
CONTINUOUS
 10
-2.501209
 20
-1.627421
  0
VERTEX
  8
PLAN_1
  6
CONTINUOUS
 10
-2.503594
 20
-1.632988
  0
VERTEX
  8
PLAN_1
  6
CONTINUOUS
 10
-2.505984
 20
-1.640150
  0
VERTEX
  8
PLAN_1
  6
CONTINUOUS
 10
-2.508370
 20
-1.650492
  0
VERTEX
  8
PLAN_1
  6
CONTINUOUS
 10
-2.509165
 20
-1.656858
  0
VERTEX
  8
PLAN_1
  6
CONTINUOUS
 10
-2.509961
 20
-1.663220
  0
VERTEX
  8
PLAN_1
  6
CONTINUOUS
 10
-2.509961
 20
-1.670382
  0
VERTEX
  8
PLAN_1
  6
CONTINUOUS
 10
-2.509165
 20
-1.677543
  0
VERTEX
  8
PLAN_1
  6
CONTINUOUS
 10
-2.508370
 20
-1.684701
  0
VERTEX
  8
PLAN_1
  6
CONTINUOUS
 10
-2.505984
 20
-1.692657
  0
VERTEX
  8
PLAN_1
  6
CONTINUOUS
 10
-2.503594
 20
-1.700614
  0
VERTEX
  8
PLAN_1
  6
CONTINUOUS
 10
-2.499618
 20
-1.708571
  0
SEQEND
  8
0
  0
POLYLINE
  8
PLAN_1
  6
CONTINUOUS
 66
     1
 40
0.005567
 41
0.005567
  0
VERTEX
  8
PLAN_1
  6
CONTINUOUS
 10
-2.499618
 20
-1.708571
  0
VERTEX
  8
PLAN_1
  6
CONTINUOUS
 10
-2.355618
 20
-1.708571
  0
VERTEX
  8
PLAN_1
  6
CONTINUOUS
 10
-2.355618
 20
-1.360902
  0
VERTEX
  8
PLAN_1
  6
CONTINUOUS
 10
-2.500413
 20
-1.360902
  0
SEQEND
  8
0
  0
POLYLINE
  8
PLAN_1
  6
CONTINUOUS
 66
     1
 40
0.003976
 41
0.003976
  0
VERTEX
  8
PLAN_1
  6
CONTINUOUS
 10
2.605634
 20
0.033756
  0
VERTEX
  8
PLAN_1
  6
CONTINUOUS
 10
2.296949
 20
0.033756
  0
SEQEND
  8
0
  0
POLYLINE
  8
PLAN_1
  6
CONTINUOUS
 66
     1
 40
0.003976
 41
0.003976
  0
VERTEX
  8
PLAN_1
  6
CONTINUOUS
 10
2.605634
 20
-4.532091
  0
VERTEX
  8
PLAN_1
  6
CONTINUOUS
 10
2.296949
 20
-4.530500
  0
SEQEND
  8
0
  0
POLYLINE
  8
PLAN_1
 62
     5
  6
CONTINUOUS
 66
     1
 40
0.003000
 41
0.003000
  0
VERTEX
  8
PLAN_1
 62
     5
  6
CONTINUOUS
 10
2.274673
 20
-0.034665
  0
VERTEX
  8
PLAN_1
 62
     5
  6
CONTINUOUS
 10
2.274673
 20
-0.043417
  0
SEQEND
  8
0
  0
POLYLINE
  8
PLAN_1
 62
     5
  6
CONTINUOUS
 66
     1
 40
0.003000
 41
0.003000
  0
VERTEX
  8
PLAN_1
 62
     5
  6
CONTINUOUS
 10
2.274673
 20
-0.051370
  0
VERTEX
  8
PLAN_1
 62
     5
  6
CONTINUOUS
 10
2.274673
 20
-0.060122
  0
SEQEND
  8
0
  0
POLYLINE
  8
PLAN_1
 62
     5
  6
CONTINUOUS
 66
     1
 40
0.003000
 41
0.003000
  0
VERTEX
  8
PLAN_1
 62
     5
  6
CONTINUOUS
 10
2.274673
 20
-0.068079
  0
VERTEX
  8
PLAN_1
 62
     5
  6
CONTINUOUS
 10
2.274673
 20
-0.076831
  0
SEQEND
  8
0
  0
POLYLINE
  8
PLAN_1
 62
     5
  6
CONTINUOUS
 66
     1
 40
0.003000
 41
0.003000
  0
VERTEX
  8
PLAN_1
 62
     5
  6
CONTINUOUS
 10
2.274673
 20
-0.084787
  0
VERTEX
  8
PLAN_1
 62
     5
  6
CONTINUOUS
 10
2.274673
 20
-0.093539
  0
SEQEND
  8
0
  0
POLYLINE
  8
PLAN_1
 62
     5
  6
CONTINUOUS
 66
     1
 40
0.003000
 41
0.003000
  0
VERTEX
  8
PLAN_1
 62
     5
  6
CONTINUOUS
 10
2.274673
 20
-0.101492
  0
VERTEX
  8
PLAN_1
 62
     5
  6
CONTINUOUS
 10
2.274673
 20
-0.110244
  0
SEQEND
  8
0
  0
POLYLINE
  8
PLAN_1
 62
     5
  6
CONTINUOUS
 66
     1
 40
0.003000
 41
0.003000
  0
VERTEX
  8
PLAN_1
 62
     5
  6
CONTINUOUS
 10
2.274673
 20
-0.118201
  0
VERTEX
  8
PLAN_1
 62
     5
  6
CONTINUOUS
 10
2.274673
 20
-0.126157
  0
SEQEND
  8
0
  0
POLYLINE
  8
PLAN_1
 62
     5
  6
CONTINUOUS
 66
     1
 40
0.003000
 41
0.003000
  0
VERTEX
  8
PLAN_1
 62
     5
  6
CONTINUOUS
 10
2.274673
 20
-0.134909
  0
VERTEX
  8
PLAN_1
 62
     5
  6
CONTINUOUS
 10
2.274673
 20
-0.142862
  0
SEQEND
  8
0
  0
POLYLINE
  8
PLAN_1
 62
     5
  6
CONTINUOUS
 66
     1
 40
0.003000
 41
0.003000
  0
VERTEX
  8
PLAN_1
 62
     5
  6
CONTINUOUS
 10
2.274673
 20
-0.151614
  0
VERTEX
  8
PLAN_1
 62
     5
  6
CONTINUOUS
 10
2.274673
 20
-0.159571
  0
SEQEND
  8
0
  0
POLYLINE
  8
PLAN_1
 62
     5
  6
CONTINUOUS
 66
     1
 40
0.003000
 41
0.003000
  0
VERTEX
  8
PLAN_1
 62
     5
  6
CONTINUOUS
 10
2.274673
 20
-0.168323
  0
VERTEX
  8
PLAN_1
 62
     5
  6
CONTINUOUS
 10
2.274673
 20
-0.176280
  0
SEQEND
  8
0
  0
POLYLINE
  8
PLAN_1
 62
     5
  6
CONTINUOUS
 66
     1
 40
0.003000
 41
0.003000
  0
VERTEX
  8
PLAN_1
 62
     5
  6
CONTINUOUS
 10
2.274673
 20
-0.185031
  0
VERTEX
  8
PLAN_1
 62
     5
  6
CONTINUOUS
 10
2.274673
 20
-0.192984
  0
SEQEND
  8
0
  0
POLYLINE
  8
PLAN_1
 62
     5
  6
CONTINUOUS
 66
     1
 40
0.003000
 41
0.003000
  0
VERTEX
  8
PLAN_1
 62
     5
  6
CONTINUOUS
 10
2.274673
 20
-0.201736
  0
VERTEX
  8
PLAN_1
 62
     5
  6
CONTINUOUS
 10
2.274673
 20
-0.209693
  0
SEQEND
  8
0
  0
POLYLINE
  8
PLAN_1
 62
     5
  6
CONTINUOUS
 66
     1
 40
0.003000
 41
0.003000
  0
VERTEX
  8
PLAN_1
 62
     5
  6
CONTINUOUS
 10
2.274673
 20
-0.218445
  0
VERTEX
  8
PLAN_1
 62
     5
  6
CONTINUOUS
 10
2.274673
 20
-0.226402
  0
SEQEND
  8
0
  0
POLYLINE
  8
PLAN_1
 62
     5
  6
CONTINUOUS
 66
     1
 40
0.003000
 41
0.003000
  0
VERTEX
  8
PLAN_1
 62
     5
  6
CONTINUOUS
 10
2.274673
 20
-0.235150
  0
VERTEX
  8
PLAN_1
 62
     5
  6
CONTINUOUS
 10
2.274673
 20
-0.243106
  0
SEQEND
  8
0
  0
POLYLINE
  8
PLAN_1
 62
     5
  6
CONTINUOUS
 66
     1
 40
0.003000
 41
0.003000
  0
VERTEX
  8
PLAN_1
 62
     5
  6
CONTINUOUS
 10
2.274673
 20
-0.251858
  0
VERTEX
  8
PLAN_1
 62
     5
  6
CONTINUOUS
 10
2.274673
 20
-0.259815
  0
SEQEND
  8
0
  0
POLYLINE
  8
PLAN_1
 62
     5
  6
CONTINUOUS
 66
     1
 40
0.003000
 41
0.003000
  0
VERTEX
  8
PLAN_1
 62
     5
  6
CONTINUOUS
 10
2.274673
 20
-0.267772
  0
VERTEX
  8
PLAN_1
 62
     5
  6
CONTINUOUS
 10
2.274673
 20
-0.276524
  0
SEQEND
  8
0
  0
POLYLINE
  8
PLAN_1
 62
     5
  6
CONTINUOUS
 66
     1
 40
0.003000
 41
0.003000
  0
VERTEX
  8
PLAN_1
 62
     5
  6
CONTINUOUS
 10
2.274673
 20
-0.284476
  0
VERTEX
  8
PLAN_1
 62
     5
  6
CONTINUOUS
 10
2.274673
 20
-0.293228
  0
SEQEND
  8
0
  0
POLYLINE
  8
PLAN_1
 62
     5
  6
CONTINUOUS
 66
     1
 40
0.003000
 41
0.003000
  0
VERTEX
  8
PLAN_1
 62
     5
  6
CONTINUOUS
 10
2.274673
 20
-0.301185
  0
VERTEX
  8
PLAN_1
 62
     5
  6
CONTINUOUS
 10
2.274673
 20
-0.309937
  0
SEQEND
  8
0
  0
POLYLINE
  8
PLAN_1
 62
     5
  6
CONTINUOUS
 66
     1
 40
0.003000
 41
0.003000
  0
VERTEX
  8
PLAN_1
 62
     5
  6
CONTINUOUS
 10
2.274673
 20
-0.317894
  0
VERTEX
  8
PLAN_1
 62
     5
  6
CONTINUOUS
 10
2.274673
 20
-0.326642
  0
SEQEND
  8
0
  0
POLYLINE
  8
PLAN_1
 62
     5
  6
CONTINUOUS
 66
     1
 40
0.003000
 41
0.003000
  0
VERTEX
  8
PLAN_1
 62
     5
  6
CONTINUOUS
 10
2.274673
 20
-0.334598
  0
VERTEX
  8
PLAN_1
 62
     5
  6
CONTINUOUS
 10
2.274673
 20
-0.343350
  0
SEQEND
  8
0
  0
POLYLINE
  8
PLAN_1
 62
     5
  6
CONTINUOUS
 66
     1
 40
0.003000
 41
0.003000
  0
VERTEX
  8
PLAN_1
 62
     5
  6
CONTINUOUS
 10
2.274673
 20
-0.351307
  0
VERTEX
  8
PLAN_1
 62
     5
  6
CONTINUOUS
 10
2.274673
 20
-0.360059
  0
SEQEND
  8
0
  0
POLYLINE
  8
PLAN_1
 62
     5
  6
CONTINUOUS
 66
     1
 40
0.003000
 41
0.003000
  0
VERTEX
  8
PLAN_1
 62
     5
  6
CONTINUOUS
 10
2.274673
 20
-0.368012
  0
VERTEX
  8
PLAN_1
 62
     5
  6
CONTINUOUS
 10
2.274673
 20
-0.376764
  0
SEQEND
  8
0
  0
POLYLINE
  8
PLAN_1
 62
     5
  6
CONTINUOUS
 66
     1
 40
0.003000
 41
0.003000
  0
VERTEX
  8
PLAN_1
 62
     5
  6
CONTINUOUS
 10
2.274673
 20
-0.384720
  0
VERTEX
  8
PLAN_1
 62
     5
  6
CONTINUOUS
 10
2.274673
 20
-0.393472
  0
SEQEND
  8
0
  0
POLYLINE
  8
PLAN_1
 62
     5
  6
CONTINUOUS
 66
     1
 40
0.003000
 41
0.003000
  0
VERTEX
  8
PLAN_1
 62
     5
  6
CONTINUOUS
 10
2.274673
 20
-0.401429
  0
VERTEX
  8
PLAN_1
 62
     5
  6
CONTINUOUS
 10
2.274673
 20
-0.409386
  0
SEQEND
  8
0
  0
POLYLINE
  8
PLAN_1
 62
     5
  6
CONTINUOUS
 66
     1
 40
0.003000
 41
0.003000
  0
VERTEX
  8
PLAN_1
 62
     5
  6
CONTINUOUS
 10
2.274673
 20
-0.418134
  0
VERTEX
  8
PLAN_1
 62
     5
  6
CONTINUOUS
 10
2.274673
 20
-0.426091
  0
SEQEND
  8
0
  0
POLYLINE
  8
PLAN_1
 62
     5
  6
CONTINUOUS
 66
     1
 40
0.003000
 41
0.003000
  0
VERTEX
  8
PLAN_1
 62
     5
  6
CONTINUOUS
 10
2.274673
 20
-0.434843
  0
VERTEX
  8
PLAN_1
 62
     5
  6
CONTINUOUS
 10
2.274673
 20
-0.442799
  0
SEQEND
  8
0
  0
POLYLINE
  8
PLAN_1
 62
     5
  6
CONTINUOUS
 66
     1
 40
0.003000
 41
0.003000
  0
VERTEX
  8
PLAN_1
 62
     5
  6
CONTINUOUS
 10
2.274673
 20
-0.451551
  0
VERTEX
  8
PLAN_1
 62
     5
  6
CONTINUOUS
 10
2.274673
 20
-0.459504
  0
SEQEND
  8
0
  0
POLYLINE
  8
PLAN_1
 62
     5
  6
CONTINUOUS
 66
     1
 40
0.003000
 41
0.003000
  0
VERTEX
  8
PLAN_1
 62
     5
  6
CONTINUOUS
 10
2.274673
 20
-0.468256
  0
VERTEX
  8
PLAN_1
 62
     5
  6
CONTINUOUS
 10
2.274673
 20
-0.476213
  0
SEQEND
  8
0
  0
POLYLINE
  8
PLAN_1
 62
     5
  6
CONTINUOUS
 66
     1
 40
0.003000
 41
0.003000
  0
VERTEX
  8
PLAN_1
 62
     5
  6
CONTINUOUS
 10
2.274673
 20
-0.484965
  0
VERTEX
  8
PLAN_1
 62
     5
  6
CONTINUOUS
 10
2.274673
 20
-0.492921
  0
SEQEND
  8
0
  0
POLYLINE
  8
PLAN_1
 62
     5
  6
CONTINUOUS
 66
     1
 40
0.003000
 41
0.003000
  0
VERTEX
  8
PLAN_1
 62
     5
  6
CONTINUOUS
 10
2.274673
 20
-0.501673
  0
VERTEX
  8
PLAN_1
 62
     5
  6
CONTINUOUS
 10
2.274673
 20
-0.509626
  0
SEQEND
  8
0
  0
POLYLINE
  8
PLAN_1
 62
     5
  6
CONTINUOUS
 66
     1
 40
0.003000
 41
0.003000
  0
VERTEX
  8
PLAN_1
 62
     5
  6
CONTINUOUS
 10
2.274673
 20
-0.518378
  0
VERTEX
  8
PLAN_1
 62
     5
  6
CONTINUOUS
 10
2.274673
 20
-0.526335
  0
SEQEND
  8
0
  0
POLYLINE
  8
PLAN_1
 62
     5
  6
CONTINUOUS
 66
     1
 40
0.003000
 41
0.003000
  0
VERTEX
  8
PLAN_1
 62
     5
  6
CONTINUOUS
 10
2.274673
 20
-0.534291
  0
VERTEX
  8
PLAN_1
 62
     5
  6
CONTINUOUS
 10
2.274673
 20
-0.543043
  0
SEQEND
  8
0
  0
POLYLINE
  8
PLAN_1
 62
     5
  6
CONTINUOUS
 66
     1
 40
0.003000
 41
0.003000
  0
VERTEX
  8
PLAN_1
 62
     5
  6
CONTINUOUS
 10
2.274673
 20
-0.550996
  0
VERTEX
  8
PLAN_1
 62
     5
  6
CONTINUOUS
 10
2.274673
 20
-0.559748
  0
SEQEND
  8
0
  0
POLYLINE
  8
PLAN_1
 62
     5
  6
CONTINUOUS
 66
     1
 40
0.003000
 41
0.003000
  0
VERTEX
  8
PLAN_1
 62
     5
  6
CONTINUOUS
 10
2.274673
 20
-0.567705
  0
VERTEX
  8
PLAN_1
 62
     5
  6
CONTINUOUS
 10
2.274673
 20
-0.576457
  0
SEQEND
  8
0
  0
POLYLINE
  8
PLAN_1
 62
     5
  6
CONTINUOUS
 66
     1
 40
0.003000
 41
0.003000
  0
VERTEX
  8
PLAN_1
 62
     5
  6
CONTINUOUS
 10
2.274673
 20
-0.584413
  0
VERTEX
  8
PLAN_1
 62
     5
  6
CONTINUOUS
 10
2.274673
 20
-0.593165
  0
SEQEND
  8
0
  0
POLYLINE
  8
PLAN_1
 62
     5
  6
CONTINUOUS
 66
     1
 40
0.003000
 41
0.003000
  0
VERTEX
  8
PLAN_1
 62
     5
  6
CONTINUOUS
 10
2.274673
 20
-0.601118
  0
VERTEX
  8
PLAN_1
 62
     5
  6
CONTINUOUS
 10
2.274673
 20
-0.609870
  0
SEQEND
  8
0
  0
POLYLINE
  8
PLAN_1
 62
     5
  6
CONTINUOUS
 66
     1
 40
0.003000
 41
0.003000
  0
VERTEX
  8
PLAN_1
 62
     5
  6
CONTINUOUS
 10
2.274673
 20
-0.617827
  0
VERTEX
  8
PLAN_1
 62
     5
  6
CONTINUOUS
 10
2.274673
 20
-0.626579
  0
SEQEND
  8
0
  0
POLYLINE
  8
PLAN_1
 62
     5
  6
CONTINUOUS
 66
     1
 40
0.003000
 41
0.003000
  0
VERTEX
  8
PLAN_1
 62
     5
  6
CONTINUOUS
 10
2.274673
 20
-0.634535
  0
VERTEX
  8
PLAN_1
 62
     5
  6
CONTINUOUS
 10
2.274673
 20
-0.643283
  0
SEQEND
  8
0
  0
POLYLINE
  8
PLAN_1
 62
     5
  6
CONTINUOUS
 66
     1
 40
0.003000
 41
0.003000
  0
VERTEX
  8
PLAN_1
 62
     5
  6
CONTINUOUS
 10
2.274673
 20
-0.651240
  0
VERTEX
  8
PLAN_1
 62
     5
  6
CONTINUOUS
 10
2.274673
 20
-0.659992
  0
SEQEND
  8
0
  0
POLYLINE
  8
PLAN_1
 62
     5
  6
CONTINUOUS
 66
     1
 40
0.003000
 41
0.003000
  0
VERTEX
  8
PLAN_1
 62
     5
  6
CONTINUOUS
 10
2.274673
 20
-0.667949
  0
VERTEX
  8
PLAN_1
 62
     5
  6
CONTINUOUS
 10
2.274673
 20
-0.675906
  0
SEQEND
  8
0
  0
POLYLINE
  8
PLAN_1
 62
     5
  6
CONTINUOUS
 66
     1
 40
0.003000
 41
0.003000
  0
VERTEX
  8
PLAN_1
 62
     5
  6
CONTINUOUS
 10
2.274673
 20
-0.684654
  0
VERTEX
  8
PLAN_1
 62
     5
  6
CONTINUOUS
 10
2.274673
 20
-0.692610
  0
SEQEND
  8
0
  0
POLYLINE
  8
PLAN_1
 62
     5
  6
CONTINUOUS
 66
     1
 40
0.003000
 41
0.003000
  0
VERTEX
  8
PLAN_1
 62
     5
  6
CONTINUOUS
 10
2.274673
 20
-0.701362
  0
VERTEX
  8
PLAN_1
 62
     5
  6
CONTINUOUS
 10
2.274673
 20
-0.709319
  0
SEQEND
  8
0
  0
POLYLINE
  8
PLAN_1
 62
     5
  6
CONTINUOUS
 66
     1
 40
0.003000
 41
0.003000
  0
VERTEX
  8
PLAN_1
 62
     5
  6
CONTINUOUS
 10
2.274673
 20
-0.718071
  0
VERTEX
  8
PLAN_1
 62
     5
  6
CONTINUOUS
 10
2.274673
 20
-0.726028
  0
SEQEND
  8
0
  0
POLYLINE
  8
PLAN_1
 62
     5
  6
CONTINUOUS
 66
     1
 40
0.003000
 41
0.003000
  0
VERTEX
  8
PLAN_1
 62
     5
  6
CONTINUOUS
 10
2.274673
 20
-0.734776
  0
VERTEX
  8
PLAN_1
 62
     5
  6
CONTINUOUS
 10
2.274673
 20
-0.742732
  0
SEQEND
  8
0
  0
POLYLINE
  8
PLAN_1
 62
     5
  6
CONTINUOUS
 66
     1
 40
0.003000
 41
0.003000
  0
VERTEX
  8
PLAN_1
 62
     5
  6
CONTINUOUS
 10
2.274673
 20
-0.751484
  0
VERTEX
  8
PLAN_1
 62
     5
  6
CONTINUOUS
 10
2.274673
 20
-0.759441
  0
SEQEND
  8
0
  0
POLYLINE
  8
PLAN_1
 62
     5
  6
CONTINUOUS
 66
     1
 40
0.003000
 41
0.003000
  0
VERTEX
  8
PLAN_1
 62
     5
  6
CONTINUOUS
 10
2.274673
 20
-0.768193
  0
VERTEX
  8
PLAN_1
 62
     5
  6
CONTINUOUS
 10
2.274673
 20
-0.776146
  0
SEQEND
  8
0
  0
POLYLINE
  8
PLAN_1
 62
     5
  6
CONTINUOUS
 66
     1
 40
0.003000
 41
0.003000
  0
VERTEX
  8
PLAN_1
 62
     5
  6
CONTINUOUS
 10
2.274673
 20
-0.784898
  0
VERTEX
  8
PLAN_1
 62
     5
  6
CONTINUOUS
 10
2.274673
 20
-0.792854
  0
SEQEND
  8
0
  0
POLYLINE
  8
PLAN_1
 62
     5
  6
CONTINUOUS
 66
     1
 40
0.003000
 41
0.003000
  0
VERTEX
  8
PLAN_1
 62
     5
  6
CONTINUOUS
 10
2.274673
 20
-0.800811
  0
VERTEX
  8
PLAN_1
 62
     5
  6
CONTINUOUS
 10
2.274673
 20
-0.809563
  0
SEQEND
  8
0
  0
POLYLINE
  8
PLAN_1
 62
     5
  6
CONTINUOUS
 66
     1
 40
0.003000
 41
0.003000
  0
VERTEX
  8
PLAN_1
 62
     5
  6
CONTINUOUS
 10
2.274673
 20
-0.817520
  0
VERTEX
  8
PLAN_1
 62
     5
  6
CONTINUOUS
 10
2.274673
 20
-0.826268
  0
SEQEND
  8
0
  0
POLYLINE
  8
PLAN_1
 62
     5
  6
CONTINUOUS
 66
     1
 40
0.003000
 41
0.003000
  0
VERTEX
  8
PLAN_1
 62
     5
  6
CONTINUOUS
 10
2.274673
 20
-0.834224
  0
VERTEX
  8
PLAN_1
 62
     5
  6
CONTINUOUS
 10
2.274673
 20
-0.842976
  0
SEQEND
  8
0
  0
POLYLINE
  8
PLAN_1
 62
     5
  6
CONTINUOUS
 66
     1
 40
0.003000
 41
0.003000
  0
VERTEX
  8
PLAN_1
 62
     5
  6
CONTINUOUS
 10
2.274673
 20
-0.850933
  0
VERTEX
  8
PLAN_1
 62
     5
  6
CONTINUOUS
 10
2.274673
 20
-0.859685
  0
SEQEND
  8
0
  0
POLYLINE
  8
PLAN_1
 62
     5
  6
CONTINUOUS
 66
     1
 40
0.003000
 41
0.003000
  0
VERTEX
  8
PLAN_1
 62
     5
  6
CONTINUOUS
 10
2.274673
 20
-0.867638
  0
VERTEX
  8
PLAN_1
 62
     5
  6
CONTINUOUS
 10
2.274673
 20
-0.876390
  0
SEQEND
  8
0
  0
POLYLINE
  8
PLAN_1
 62
     5
  6
CONTINUOUS
 66
     1
 40
0.003000
 41
0.003000
  0
VERTEX
  8
PLAN_1
 62
     5
  6
CONTINUOUS
 10
2.274673
 20
-0.884346
  0
VERTEX
  8
PLAN_1
 62
     5
  6
CONTINUOUS
 10
2.274673
 20
-0.893098
  0
SEQEND
  8
0
  0
POLYLINE
  8
PLAN_1
 62
     5
  6
CONTINUOUS
 66
     1
 40
0.003000
 41
0.003000
  0
VERTEX
  8
PLAN_1
 62
     5
  6
CONTINUOUS
 10
2.274673
 20
-0.901055
  0
VERTEX
  8
PLAN_1
 62
     5
  6
CONTINUOUS
 10
2.274673
 20
-0.909807
  0
SEQEND
  8
0
  0
POLYLINE
  8
PLAN_1
 62
     5
  6
CONTINUOUS
 66
     1
 40
0.003000
 41
0.003000
  0
VERTEX
  8
PLAN_1
 62
     5
  6
CONTINUOUS
 10
2.274673
 20
-0.917760
  0
VERTEX
  8
PLAN_1
 62
     5
  6
CONTINUOUS
 10
2.274673
 20
-0.926512
  0
SEQEND
  8
0
  0
POLYLINE
  8
PLAN_1
 62
     5
  6
CONTINUOUS
 66
     1
 40
0.003000
 41
0.003000
  0
VERTEX
  8
PLAN_1
 62
     5
  6
CONTINUOUS
 10
2.274673
 20
-0.934469
  0
VERTEX
  8
PLAN_1
 62
     5
  6
CONTINUOUS
 10
2.274673
 20
-0.942425
  0
SEQEND
  8
0
  0
POLYLINE
  8
PLAN_1
 62
     5
  6
CONTINUOUS
 66
     1
 40
0.003000
 41
0.003000
  0
VERTEX
  8
PLAN_1
 62
     5
  6
CONTINUOUS
 10
2.274673
 20
-0.951177
  0
VERTEX
  8
PLAN_1
 62
     5
  6
CONTINUOUS
 10
2.274673
 20
-0.959130
  0
SEQEND
  8
0
  0
POLYLINE
  8
PLAN_1
 62
     5
  6
CONTINUOUS
 66
     1
 40
0.003000
 41
0.003000
  0
VERTEX
  8
PLAN_1
 62
     5
  6
CONTINUOUS
 10
2.274673
 20
-0.967882
  0
VERTEX
  8
PLAN_1
 62
     5
  6
CONTINUOUS
 10
2.274673
 20
-0.975839
  0
SEQEND
  8
0
  0
POLYLINE
  8
PLAN_1
 62
     5
  6
CONTINUOUS
 66
     1
 40
0.003000
 41
0.003000
  0
VERTEX
  8
PLAN_1
 62
     5
  6
CONTINUOUS
 10
2.274673
 20
-0.984591
  0
VERTEX
  8
PLAN_1
 62
     5
  6
CONTINUOUS
 10
2.274673
 20
-0.992547
  0
SEQEND
  8
0
  0
POLYLINE
  8
PLAN_1
 62
     5
  6
CONTINUOUS
 66
     1
 40
0.003000
 41
0.003000
  0
VERTEX
  8
PLAN_1
 62
     5
  6
CONTINUOUS
 10
2.274673
 20
-1.001299
  0
VERTEX
  8
PLAN_1
 62
     5
  6
CONTINUOUS
 10
2.274673
 20
-1.009252
  0
SEQEND
  8
0
  0
POLYLINE
  8
PLAN_1
 62
     5
  6
CONTINUOUS
 66
     1
 40
0.003000
 41
0.003000
  0
VERTEX
  8
PLAN_1
 62
     5
  6
CONTINUOUS
 10
2.274673
 20
-1.018004
  0
VERTEX
  8
PLAN_1
 62
     5
  6
CONTINUOUS
 10
2.274673
 20
-1.025961
  0
SEQEND
  8
0
  0
POLYLINE
  8
PLAN_1
 62
     5
  6
CONTINUOUS
 66
     1
 40
0.003000
 41
0.003000
  0
VERTEX
  8
PLAN_1
 62
     5
  6
CONTINUOUS
 10
2.274673
 20
-1.034713
  0
VERTEX
  8
PLAN_1
 62
     5
  6
CONTINUOUS
 10
2.274673
 20
-1.042669
  0
SEQEND
  8
0
  0
POLYLINE
  8
PLAN_1
 62
     5
  6
CONTINUOUS
 66
     1
 40
0.003000
 41
0.003000
  0
VERTEX
  8
PLAN_1
 62
     5
  6
CONTINUOUS
 10
2.274673
 20
-1.051417
  0
VERTEX
  8
PLAN_1
 62
     5
  6
CONTINUOUS
 10
2.274673
 20
-1.059374
  0
SEQEND
  8
0
  0
POLYLINE
  8
PLAN_1
 62
     5
  6
CONTINUOUS
 66
     1
 40
0.003000
 41
0.003000
  0
VERTEX
  8
PLAN_1
 62
     5
  6
CONTINUOUS
 10
2.274673
 20
-1.067331
  0
VERTEX
  8
PLAN_1
 62
     5
  6
CONTINUOUS
 10
2.274673
 20
-1.076083
  0
SEQEND
  8
0
  0
POLYLINE
  8
PLAN_1
 62
     5
  6
CONTINUOUS
 66
     1
 40
0.003000
 41
0.003000
  0
VERTEX
  8
PLAN_1
 62
     5
  6
CONTINUOUS
 10
2.274673
 20
-1.084039
  0
VERTEX
  8
PLAN_1
 62
     5
  6
CONTINUOUS
 10
2.274673
 20
-1.092787
  0
SEQEND
  8
0
  0
POLYLINE
  8
PLAN_1
 62
     5
  6
CONTINUOUS
 66
     1
 40
0.003000
 41
0.003000
  0
VERTEX
  8
PLAN_1
 62
     5
  6
CONTINUOUS
 10
2.274673
 20
-1.100744
  0
VERTEX
  8
PLAN_1
 62
     5
  6
CONTINUOUS
 10
2.274673
 20
-1.109496
  0
SEQEND
  8
0
  0
POLYLINE
  8
PLAN_1
 62
     5
  6
CONTINUOUS
 66
     1
 40
0.003000
 41
0.003000
  0
VERTEX
  8
PLAN_1
 62
     5
  6
CONTINUOUS
 10
2.274673
 20
-1.117453
  0
VERTEX
  8
PLAN_1
 62
     5
  6
CONTINUOUS
 10
2.274673
 20
-1.126205
  0
SEQEND
  8
0
  0
POLYLINE
  8
PLAN_1
 62
     5
  6
CONTINUOUS
 66
     1
 40
0.003000
 41
0.003000
  0
VERTEX
  8
PLAN_1
 62
     5
  6
CONTINUOUS
 10
2.274673
 20
-1.134161
  0
VERTEX
  8
PLAN_1
 62
     5
  6
CONTINUOUS
 10
2.274673
 20
-1.142909
  0
SEQEND
  8
0
  0
POLYLINE
  8
PLAN_1
 62
     5
  6
CONTINUOUS
 66
     1
 40
0.003000
 41
0.003000
  0
VERTEX
  8
PLAN_1
 62
     5
  6
CONTINUOUS
 10
2.274673
 20
-1.150866
  0
VERTEX
  8
PLAN_1
 62
     5
  6
CONTINUOUS
 10
2.274673
 20
-1.159618
  0
SEQEND
  8
0
  0
POLYLINE
  8
PLAN_1
 62
     5
  6
CONTINUOUS
 66
     1
 40
0.003000
 41
0.003000
  0
VERTEX
  8
PLAN_1
 62
     5
  6
CONTINUOUS
 10
2.274673
 20
-1.167575
  0
VERTEX
  8
PLAN_1
 62
     5
  6
CONTINUOUS
 10
2.274673
 20
-1.176327
  0
SEQEND
  8
0
  0
POLYLINE
  8
PLAN_1
 62
     5
  6
CONTINUOUS
 66
     1
 40
0.003000
 41
0.003000
  0
VERTEX
  8
PLAN_1
 62
     5
  6
CONTINUOUS
 10
2.274673
 20
-1.184280
  0
VERTEX
  8
PLAN_1
 62
     5
  6
CONTINUOUS
 10
2.274673
 20
-1.193031
  0
SEQEND
  8
0
  0
POLYLINE
  8
PLAN_1
 62
     5
  6
CONTINUOUS
 66
     1
 40
0.003000
 41
0.003000
  0
VERTEX
  8
PLAN_1
 62
     5
  6
CONTINUOUS
 10
2.274673
 20
-1.200988
  0
VERTEX
  8
PLAN_1
 62
     5
  6
CONTINUOUS
 10
2.274673
 20
-1.208945
  0
SEQEND
  8
0
  0
POLYLINE
  8
PLAN_1
 62
     5
  6
CONTINUOUS
 66
     1
 40
0.003000
 41
0.003000
  0
VERTEX
  8
PLAN_1
 62
     5
  6
CONTINUOUS
 10
2.274673
 20
-1.217697
  0
VERTEX
  8
PLAN_1
 62
     5
  6
CONTINUOUS
 10
2.274673
 20
-1.225650
  0
SEQEND
  8
0
  0
POLYLINE
  8
PLAN_1
 62
     5
  6
CONTINUOUS
 66
     1
 40
0.003000
 41
0.003000
  0
VERTEX
  8
PLAN_1
 62
     5
  6
CONTINUOUS
 10
2.274673
 20
-1.234402
  0
VERTEX
  8
PLAN_1
 62
     5
  6
CONTINUOUS
 10
2.274673
 20
-1.242358
  0
SEQEND
  8
0
  0
POLYLINE
  8
PLAN_1
 62
     5
  6
CONTINUOUS
 66
     1
 40
0.003000
 41
0.003000
  0
VERTEX
  8
PLAN_1
 62
     5
  6
CONTINUOUS
 10
2.274673
 20
-1.251110
  0
VERTEX
  8
PLAN_1
 62
     5
  6
CONTINUOUS
 10
2.274673
 20
-1.259067
  0
SEQEND
  8
0
  0
POLYLINE
  8
PLAN_1
 62
     5
  6
CONTINUOUS
 66
     1
 40
0.003000
 41
0.003000
  0
VERTEX
  8
PLAN_1
 62
     5
  6
CONTINUOUS
 10
2.274673
 20
-1.267819
  0
VERTEX
  8
PLAN_1
 62
     5
  6
CONTINUOUS
 10
2.274673
 20
-1.275772
  0
SEQEND
  8
0
  0
POLYLINE
  8
PLAN_1
 62
     5
  6
CONTINUOUS
 66
     1
 40
0.003000
 41
0.003000
  0
VERTEX
  8
PLAN_1
 62
     5
  6
CONTINUOUS
 10
2.274673
 20
-1.284524
  0
VERTEX
  8
PLAN_1
 62
     5
  6
CONTINUOUS
 10
2.274673
 20
-1.292480
  0
SEQEND
  8
0
  0
POLYLINE
  8
PLAN_1
 62
     5
  6
CONTINUOUS
 66
     1
 40
0.003000
 41
0.003000
  0
VERTEX
  8
PLAN_1
 62
     5
  6
CONTINUOUS
 10
2.274673
 20
-1.301232
  0
VERTEX
  8
PLAN_1
 62
     5
  6
CONTINUOUS
 10
2.274673
 20
-1.309189
  0
SEQEND
  8
0
  0
POLYLINE
  8
PLAN_1
 62
     5
  6
CONTINUOUS
 66
     1
 40
0.003000
 41
0.003000
  0
VERTEX
  8
PLAN_1
 62
     5
  6
CONTINUOUS
 10
2.274673
 20
-1.317941
  0
VERTEX
  8
PLAN_1
 62
     5
  6
CONTINUOUS
 10
2.274673
 20
-1.325894
  0
SEQEND
  8
0
  0
POLYLINE
  8
PLAN_1
 62
     5
  6
CONTINUOUS
 66
     1
 40
0.003000
 41
0.003000
  0
VERTEX
  8
PLAN_1
 62
     5
  6
CONTINUOUS
 10
2.274673
 20
-1.333850
  0
VERTEX
  8
PLAN_1
 62
     5
  6
CONTINUOUS
 10
2.274673
 20
-1.342602
  0
SEQEND
  8
0
  0
POLYLINE
  8
PLAN_1
 62
     5
  6
CONTINUOUS
 66
     1
 40
0.003000
 41
0.003000
  0
VERTEX
  8
PLAN_1
 62
     5
  6
CONTINUOUS
 10
2.274673
 20
-1.350559
  0
VERTEX
  8
PLAN_1
 62
     5
  6
CONTINUOUS
 10
2.274673
 20
-1.359311
  0
SEQEND
  8
0
  0
POLYLINE
  8
PLAN_1
 62
     5
  6
CONTINUOUS
 66
     1
 40
0.003000
 41
0.003000
  0
VERTEX
  8
PLAN_1
 62
     5
  6
CONTINUOUS
 10
2.274673
 20
-1.367264
  0
VERTEX
  8
PLAN_1
 62
     5
  6
CONTINUOUS
 10
2.274673
 20
-1.376016
  0
SEQEND
  8
0
  0
POLYLINE
  8
PLAN_1
 62
     5
  6
CONTINUOUS
 66
     1
 40
0.003000
 41
0.003000
  0
VERTEX
  8
PLAN_1
 62
     5
  6
CONTINUOUS
 10
2.274673
 20
-1.383972
  0
VERTEX
  8
PLAN_1
 62
     5
  6
CONTINUOUS
 10
2.274673
 20
-1.392724
  0
SEQEND
  8
0
  0
POLYLINE
  8
PLAN_1
 62
     5
  6
CONTINUOUS
 66
     1
 40
0.003000
 41
0.003000
  0
VERTEX
  8
PLAN_1
 62
     5
  6
CONTINUOUS
 10
2.274673
 20
-1.400681
  0
VERTEX
  8
PLAN_1
 62
     5
  6
CONTINUOUS
 10
2.274673
 20
-1.409429
  0
SEQEND
  8
0
  0
POLYLINE
  8
PLAN_1
 62
     5
  6
CONTINUOUS
 66
     1
 40
0.003000
 41
0.003000
  0
VERTEX
  8
PLAN_1
 62
     5
  6
CONTINUOUS
 10
2.274673
 20
-1.417386
  0
VERTEX
  8
PLAN_1
 62
     5
  6
CONTINUOUS
 10
2.274673
 20
-1.426138
  0
SEQEND
  8
0
  0
POLYLINE
  8
PLAN_1
 62
     5
  6
CONTINUOUS
 66
     1
 40
0.003000
 41
0.003000
  0
VERTEX
  8
PLAN_1
 62
     5
  6
CONTINUOUS
 10
2.274673
 20
-1.434094
  0
VERTEX
  8
PLAN_1
 62
     5
  6
CONTINUOUS
 10
2.274673
 20
-1.442846
  0
SEQEND
  8
0
  0
POLYLINE
  8
PLAN_1
 62
     5
  6
CONTINUOUS
 66
     1
 40
0.003000
 41
0.003000
  0
VERTEX
  8
PLAN_1
 62
     5
  6
CONTINUOUS
 10
2.274673
 20
-1.450803
  0
VERTEX
  8
PLAN_1
 62
     5
  6
CONTINUOUS
 10
2.274673
 20
-1.459551
  0
SEQEND
  8
0
  0
POLYLINE
  8
PLAN_1
 62
     5
  6
CONTINUOUS
 66
     1
 40
0.003000
 41
0.003000
  0
VERTEX
  8
PLAN_1
 62
     5
  6
CONTINUOUS
 10
2.274673
 20
-1.467508
  0
VERTEX
  8
PLAN_1
 62
     5
  6
CONTINUOUS
 10
2.274673
 20
-1.475465
  0
SEQEND
  8
0
  0
POLYLINE
  8
PLAN_1
 62
     5
  6
CONTINUOUS
 66
     1
 40
0.003000
 41
0.003000
  0
VERTEX
  8
PLAN_1
 62
     5
  6
CONTINUOUS
 10
2.274673
 20
-1.484217
  0
VERTEX
  8
PLAN_1
 62
     5
  6
CONTINUOUS
 10
2.274673
 20
-1.492173
  0
SEQEND
  8
0
  0
POLYLINE
  8
PLAN_1
 62
     5
  6
CONTINUOUS
 66
     1
 40
0.003000
 41
0.003000
  0
VERTEX
  8
PLAN_1
 62
     5
  6
CONTINUOUS
 10
2.274673
 20
-1.500921
  0
VERTEX
  8
PLAN_1
 62
     5
  6
CONTINUOUS
 10
2.274673
 20
-1.508878
  0
SEQEND
  8
0
  0
POLYLINE
  8
PLAN_1
 62
     5
  6
CONTINUOUS
 66
     1
 40
0.003000
 41
0.003000
  0
VERTEX
  8
PLAN_1
 62
     5
  6
CONTINUOUS
 10
2.274673
 20
-1.517630
  0
VERTEX
  8
PLAN_1
 62
     5
  6
CONTINUOUS
 10
2.274673
 20
-1.525587
  0
SEQEND
  8
0
  0
POLYLINE
  8
PLAN_1
 62
     5
  6
CONTINUOUS
 66
     1
 40
0.003000
 41
0.003000
  0
VERTEX
  8
PLAN_1
 62
     5
  6
CONTINUOUS
 10
2.274673
 20
-1.534339
  0
VERTEX
  8
PLAN_1
 62
     5
  6
CONTINUOUS
 10
2.274673
 20
-1.542295
  0
SEQEND
  8
0
  0
POLYLINE
  8
PLAN_1
 62
     5
  6
CONTINUOUS
 66
     1
 40
0.003000
 41
0.003000
  0
VERTEX
  8
PLAN_1
 62
     5
  6
CONTINUOUS
 10
2.274673
 20
-1.551043
  0
VERTEX
  8
PLAN_1
 62
     5
  6
CONTINUOUS
 10
2.274673
 20
-1.559000
  0
SEQEND
  8
0
  0
POLYLINE
  8
PLAN_1
 62
     5
  6
CONTINUOUS
 66
     1
 40
0.003000
 41
0.003000
  0
VERTEX
  8
PLAN_1
 62
     5
  6
CONTINUOUS
 10
2.274673
 20
-1.567752
  0
VERTEX
  8
PLAN_1
 62
     5
  6
CONTINUOUS
 10
2.274673
 20
-1.575709
  0
SEQEND
  8
0
  0
POLYLINE
  8
PLAN_1
 62
     5
  6
CONTINUOUS
 66
     1
 40
0.003000
 41
0.003000
  0
VERTEX
  8
PLAN_1
 62
     5
  6
CONTINUOUS
 10
2.274673
 20
-1.584461
  0
VERTEX
  8
PLAN_1
 62
     5
  6
CONTINUOUS
 10
2.274673
 20
-1.592413
  0
SEQEND
  8
0
  0
POLYLINE
  8
PLAN_1
 62
     5
  6
CONTINUOUS
 66
     1
 40
0.003000
 41
0.003000
  0
VERTEX
  8
PLAN_1
 62
     5
  6
CONTINUOUS
 10
2.274673
 20
-1.600370
  0
VERTEX
  8
PLAN_1
 62
     5
  6
CONTINUOUS
 10
2.274673
 20
-1.609122
  0
SEQEND
  8
0
  0
POLYLINE
  8
PLAN_1
 62
     5
  6
CONTINUOUS
 66
     1
 40
0.003000
 41
0.003000
  0
VERTEX
  8
PLAN_1
 62
     5
  6
CONTINUOUS
 10
2.274673
 20
-1.617079
  0
VERTEX
  8
PLAN_1
 62
     5
  6
CONTINUOUS
 10
2.274673
 20
-1.625831
  0
SEQEND
  8
0
  0
POLYLINE
  8
PLAN_1
 62
     5
  6
CONTINUOUS
 66
     1
 40
0.003000
 41
0.003000
  0
VERTEX
  8
PLAN_1
 62
     5
  6
CONTINUOUS
 10
2.274673
 20
-1.633783
  0
VERTEX
  8
PLAN_1
 62
     5
  6
CONTINUOUS
 10
2.274673
 20
-1.642535
  0
SEQEND
  8
0
  0
POLYLINE
  8
PLAN_1
 62
     5
  6
CONTINUOUS
 66
     1
 40
0.003000
 41
0.003000
  0
VERTEX
  8
PLAN_1
 62
     5
  6
CONTINUOUS
 10
2.274673
 20
-1.650492
  0
VERTEX
  8
PLAN_1
 62
     5
  6
CONTINUOUS
 10
2.274673
 20
-1.659244
  0
SEQEND
  8
0
  0
POLYLINE
  8
PLAN_1
 62
     5
  6
CONTINUOUS
 66
     1
 40
0.003000
 41
0.003000
  0
VERTEX
  8
PLAN_1
 62
     5
  6
CONTINUOUS
 10
2.274673
 20
-1.667201
  0
VERTEX
  8
PLAN_1
 62
     5
  6
CONTINUOUS
 10
2.274673
 20
-1.675953
  0
SEQEND
  8
0
  0
POLYLINE
  8
PLAN_1
 62
     5
  6
CONTINUOUS
 66
     1
 40
0.003000
 41
0.003000
  0
VERTEX
  8
PLAN_1
 62
     5
  6
CONTINUOUS
 10
2.274673
 20
-1.683906
  0
VERTEX
  8
PLAN_1
 62
     5
  6
CONTINUOUS
 10
2.274673
 20
-1.692657
  0
SEQEND
  8
0
  0
POLYLINE
  8
PLAN_1
 62
     5
  6
CONTINUOUS
 66
     1
 40
0.003000
 41
0.003000
  0
VERTEX
  8
PLAN_1
 62
     5
  6
CONTINUOUS
 10
2.274673
 20
-1.700614
  0
VERTEX
  8
PLAN_1
 62
     5
  6
CONTINUOUS
 10
2.274673
 20
-1.709366
  0
SEQEND
  8
0
  0
POLYLINE
  8
PLAN_1
 62
     5
  6
CONTINUOUS
 66
     1
 40
0.003000
 41
0.003000
  0
VERTEX
  8
PLAN_1
 62
     5
  6
CONTINUOUS
 10
2.274673
 20
-1.717323
  0
VERTEX
  8
PLAN_1
 62
     5
  6
CONTINUOUS
 10
2.274673
 20
-1.726075
  0
SEQEND
  8
0
  0
POLYLINE
  8
PLAN_1
 62
     5
  6
CONTINUOUS
 66
     1
 40
0.003000
 41
0.003000
  0
VERTEX
  8
PLAN_1
 62
     5
  6
CONTINUOUS
 10
2.274673
 20
-1.734028
  0
VERTEX
  8
PLAN_1
 62
     5
  6
CONTINUOUS
 10
2.274673
 20
-1.741984
  0
SEQEND
  8
0
  0
POLYLINE
  8
PLAN_1
 62
     5
  6
CONTINUOUS
 66
     1
 40
0.003000
 41
0.003000
  0
VERTEX
  8
PLAN_1
 62
     5
  6
CONTINUOUS
 10
2.274673
 20
-1.750736
  0
VERTEX
  8
PLAN_1
 62
     5
  6
CONTINUOUS
 10
2.274673
 20
-1.758693
  0
SEQEND
  8
0
  0
POLYLINE
  8
PLAN_1
 62
     5
  6
CONTINUOUS
 66
     1
 40
0.003000
 41
0.003000
  0
VERTEX
  8
PLAN_1
 62
     5
  6
CONTINUOUS
 10
2.274673
 20
-1.767445
  0
VERTEX
  8
PLAN_1
 62
     5
  6
CONTINUOUS
 10
2.274673
 20
-1.775398
  0
SEQEND
  8
0
  0
POLYLINE
  8
PLAN_1
 62
     5
  6
CONTINUOUS
 66
     1
 40
0.003000
 41
0.003000
  0
VERTEX
  8
PLAN_1
 62
     5
  6
CONTINUOUS
 10
2.274673
 20
-1.784150
  0
VERTEX
  8
PLAN_1
 62
     5
  6
CONTINUOUS
 10
2.274673
 20
-1.792106
  0
SEQEND
  8
0
  0
POLYLINE
  8
PLAN_1
 62
     5
  6
CONTINUOUS
 66
     1
 40
0.003000
 41
0.003000
  0
VERTEX
  8
PLAN_1
 62
     5
  6
CONTINUOUS
 10
2.274673
 20
-1.800858
  0
VERTEX
  8
PLAN_1
 62
     5
  6
CONTINUOUS
 10
2.274673
 20
-1.808815
  0
SEQEND
  8
0
  0
POLYLINE
  8
PLAN_1
 62
     5
  6
CONTINUOUS
 66
     1
 40
0.003000
 41
0.003000
  0
VERTEX
  8
PLAN_1
 62
     5
  6
CONTINUOUS
 10
2.274673
 20
-1.817563
  0
VERTEX
  8
PLAN_1
 62
     5
  6
CONTINUOUS
 10
2.274673
 20
-1.825520
  0
SEQEND
  8
0
  0
POLYLINE
  8
PLAN_1
 62
     5
  6
CONTINUOUS
 66
     1
 40
0.003000
 41
0.003000
  0
VERTEX
  8
PLAN_1
 62
     5
  6
CONTINUOUS
 10
2.274673
 20
-1.834272
  0
VERTEX
  8
PLAN_1
 62
     5
  6
CONTINUOUS
 10
2.274673
 20
-1.842228
  0
SEQEND
  8
0
  0
POLYLINE
  8
PLAN_1
 62
     5
  6
CONTINUOUS
 66
     1
 40
0.003000
 41
0.003000
  0
VERTEX
  8
PLAN_1
 62
     5
  6
CONTINUOUS
 10
2.274673
 20
-1.850980
  0
VERTEX
  8
PLAN_1
 62
     5
  6
CONTINUOUS
 10
2.274673
 20
-1.858937
  0
SEQEND
  8
0
  0
POLYLINE
  8
PLAN_1
 62
     5
  6
CONTINUOUS
 66
     1
 40
0.003000
 41
0.003000
  0
VERTEX
  8
PLAN_1
 62
     5
  6
CONTINUOUS
 10
2.274673
 20
-1.866890
  0
VERTEX
  8
PLAN_1
 62
     5
  6
CONTINUOUS
 10
2.274673
 20
-1.875642
  0
SEQEND
  8
0
  0
POLYLINE
  8
PLAN_1
 62
     5
  6
CONTINUOUS
 66
     1
 40
0.003000
 41
0.003000
  0
VERTEX
  8
PLAN_1
 62
     5
  6
CONTINUOUS
 10
2.274673
 20
-1.883598
  0
VERTEX
  8
PLAN_1
 62
     5
  6
CONTINUOUS
 10
2.274673
 20
-1.892350
  0
SEQEND
  8
0
  0
POLYLINE
  8
PLAN_1
 62
     5
  6
CONTINUOUS
 66
     1
 40
0.003000
 41
0.003000
  0
VERTEX
  8
PLAN_1
 62
     5
  6
CONTINUOUS
 10
2.274673
 20
-1.900307
  0
VERTEX
  8
PLAN_1
 62
     5
  6
CONTINUOUS
 10
2.274673
 20
-1.909055
  0
SEQEND
  8
0
  0
POLYLINE
  8
PLAN_1
 62
     5
  6
CONTINUOUS
 66
     1
 40
0.003000
 41
0.003000
  0
VERTEX
  8
PLAN_1
 62
     5
  6
CONTINUOUS
 10
2.274673
 20
-1.917012
  0
VERTEX
  8
PLAN_1
 62
     5
  6
CONTINUOUS
 10
2.274673
 20
-1.925764
  0
SEQEND
  8
0
  0
POLYLINE
  8
PLAN_1
 62
     5
  6
CONTINUOUS
 66
     1
 40
0.003000
 41
0.003000
  0
VERTEX
  8
PLAN_1
 62
     5
  6
CONTINUOUS
 10
2.274673
 20
-1.933720
  0
VERTEX
  8
PLAN_1
 62
     5
  6
CONTINUOUS
 10
2.274673
 20
-1.942472
  0
SEQEND
  8
0
  0
POLYLINE
  8
PLAN_1
 62
     5
  6
CONTINUOUS
 66
     1
 40
0.003000
 41
0.003000
  0
VERTEX
  8
PLAN_1
 62
     5
  6
CONTINUOUS
 10
2.274673
 20
-1.950425
  0
VERTEX
  8
PLAN_1
 62
     5
  6
CONTINUOUS
 10
2.274673
 20
-1.959177
  0
SEQEND
  8
0
  0
POLYLINE
  8
PLAN_1
 62
     5
  6
CONTINUOUS
 66
     1
 40
0.003000
 41
0.003000
  0
VERTEX
  8
PLAN_1
 62
     5
  6
CONTINUOUS
 10
2.274673
 20
-1.967134
  0
VERTEX
  8
PLAN_1
 62
     5
  6
CONTINUOUS
 10
2.274673
 20
-1.975886
  0
SEQEND
  8
0
  0
POLYLINE
  8
PLAN_1
 62
     5
  6
CONTINUOUS
 66
     1
 40
0.003000
 41
0.003000
  0
VERTEX
  8
PLAN_1
 62
     5
  6
CONTINUOUS
 10
2.274673
 20
-1.983843
  0
VERTEX
  8
PLAN_1
 62
     5
  6
CONTINUOUS
 10
2.274673
 20
-1.992594
  0
SEQEND
  8
0
  0
POLYLINE
  8
PLAN_1
 62
     5
  6
CONTINUOUS
 66
     1
 40
0.003000
 41
0.003000
  0
VERTEX
  8
PLAN_1
 62
     5
  6
CONTINUOUS
 10
2.274673
 20
-2.000547
  0
VERTEX
  8
PLAN_1
 62
     5
  6
CONTINUOUS
 10
2.274673
 20
-2.008504
  0
SEQEND
  8
0
  0
POLYLINE
  8
PLAN_1
 62
     5
  6
CONTINUOUS
 66
     1
 40
0.003000
 41
0.003000
  0
VERTEX
  8
PLAN_1
 62
     5
  6
CONTINUOUS
 10
2.274673
 20
-2.017256
  0
VERTEX
  8
PLAN_1
 62
     5
  6
CONTINUOUS
 10
2.274673
 20
-2.025213
  0
SEQEND
  8
0
  0
POLYLINE
  8
PLAN_1
 62
     5
  6
CONTINUOUS
 66
     1
 40
0.003000
 41
0.003000
  0
VERTEX
  8
PLAN_1
 62
     5
  6
CONTINUOUS
 10
2.274673
 20
-2.033965
  0
VERTEX
  8
PLAN_1
 62
     5
  6
CONTINUOUS
 10
2.274673
 20
-2.041917
  0
SEQEND
  8
0
  0
POLYLINE
  8
PLAN_1
 62
     5
  6
CONTINUOUS
 66
     1
 40
0.003000
 41
0.003000
  0
VERTEX
  8
PLAN_1
 62
     5
  6
CONTINUOUS
 10
2.274673
 20
-2.050669
  0
VERTEX
  8
PLAN_1
 62
     5
  6
CONTINUOUS
 10
2.274673
 20
-2.058626
  0
SEQEND
  8
0
  0
POLYLINE
  8
PLAN_1
 62
     5
  6
CONTINUOUS
 66
     1
 40
0.003000
 41
0.003000
  0
VERTEX
  8
PLAN_1
 62
     5
  6
CONTINUOUS
 10
2.274673
 20
-2.067378
  0
VERTEX
  8
PLAN_1
 62
     5
  6
CONTINUOUS
 10
2.274673
 20
-2.075335
  0
SEQEND
  8
0
  0
POLYLINE
  8
PLAN_1
 62
     5
  6
CONTINUOUS
 66
     1
 40
0.003000
 41
0.003000
  0
VERTEX
  8
PLAN_1
 62
     5
  6
CONTINUOUS
 10
2.274673
 20
-2.084087
  0
VERTEX
  8
PLAN_1
 62
     5
  6
CONTINUOUS
 10
2.274673
 20
-2.092039
  0
SEQEND
  8
0
  0
POLYLINE
  8
PLAN_1
 62
     5
  6
CONTINUOUS
 66
     1
 40
0.003000
 41
0.003000
  0
VERTEX
  8
PLAN_1
 62
     5
  6
CONTINUOUS
 10
2.274673
 20
-2.100791
  0
VERTEX
  8
PLAN_1
 62
     5
  6
CONTINUOUS
 10
2.274673
 20
-2.108748
  0
SEQEND
  8
0
  0
POLYLINE
  8
PLAN_1
 62
     5
  6
CONTINUOUS
 66
     1
 40
0.003000
 41
0.003000
  0
VERTEX
  8
PLAN_1
 62
     5
  6
CONTINUOUS
 10
2.274673
 20
-2.117500
  0
VERTEX
  8
PLAN_1
 62
     5
  6
CONTINUOUS
 10
2.274673
 20
-2.125457
  0
SEQEND
  8
0
  0
POLYLINE
  8
PLAN_1
 62
     5
  6
CONTINUOUS
 66
     1
 40
0.003000
 41
0.003000
  0
VERTEX
  8
PLAN_1
 62
     5
  6
CONTINUOUS
 10
2.274673
 20
-2.133409
  0
VERTEX
  8
PLAN_1
 62
     5
  6
CONTINUOUS
 10
2.274673
 20
-2.142161
  0
SEQEND
  8
0
  0
POLYLINE
  8
PLAN_1
 62
     5
  6
CONTINUOUS
 66
     1
 40
0.003000
 41
0.003000
  0
VERTEX
  8
PLAN_1
 62
     5
  6
CONTINUOUS
 10
2.274673
 20
-2.150118
  0
VERTEX
  8
PLAN_1
 62
     5
  6
CONTINUOUS
 10
2.274673
 20
-2.158870
  0
SEQEND
  8
0
  0
POLYLINE
  8
PLAN_1
 62
     5
  6
CONTINUOUS
 66
     1
 40
0.003000
 41
0.003000
  0
VERTEX
  8
PLAN_1
 62
     5
  6
CONTINUOUS
 10
2.274673
 20
-2.166827
  0
VERTEX
  8
PLAN_1
 62
     5
  6
CONTINUOUS
 10
2.274673
 20
-2.175579
  0
SEQEND
  8
0
  0
POLYLINE
  8
PLAN_1
 62
     5
  6
CONTINUOUS
 66
     1
 40
0.003000
 41
0.003000
  0
VERTEX
  8
PLAN_1
 62
     5
  6
CONTINUOUS
 10
2.274673
 20
-2.183531
  0
VERTEX
  8
PLAN_1
 62
     5
  6
CONTINUOUS
 10
2.274673
 20
-2.192283
  0
SEQEND
  8
0
  0
POLYLINE
  8
PLAN_1
 62
     5
  6
CONTINUOUS
 66
     1
 40
0.003000
 41
0.003000
  0
VERTEX
  8
PLAN_1
 62
     5
  6
CONTINUOUS
 10
2.274673
 20
-2.200240
  0
VERTEX
  8
PLAN_1
 62
     5
  6
CONTINUOUS
 10
2.274673
 20
-2.208992
  0
SEQEND
  8
0
  0
POLYLINE
  8
PLAN_1
 62
     5
  6
CONTINUOUS
 66
     1
 40
0.003000
 41
0.003000
  0
VERTEX
  8
PLAN_1
 62
     5
  6
CONTINUOUS
 10
2.274673
 20
-2.216949
  0
VERTEX
  8
PLAN_1
 62
     5
  6
CONTINUOUS
 10
2.274673
 20
-2.225697
  0
SEQEND
  8
0
  0
POLYLINE
  8
PLAN_1
 62
     5
  6
CONTINUOUS
 66
     1
 40
0.003000
 41
0.003000
  0
VERTEX
  8
PLAN_1
 62
     5
  6
CONTINUOUS
 10
2.274673
 20
-2.233654
  0
VERTEX
  8
PLAN_1
 62
     5
  6
CONTINUOUS
 10
2.274673
 20
-2.242406
  0
SEQEND
  8
0
  0
POLYLINE
  8
PLAN_1
 62
     5
  6
CONTINUOUS
 66
     1
 40
0.003000
 41
0.003000
  0
VERTEX
  8
PLAN_1
 62
     5
  6
CONTINUOUS
 10
2.274673
 20
-2.250362
  0
VERTEX
  8
PLAN_1
 62
     5
  6
CONTINUOUS
 10
2.274673
 20
-2.259114
  0
SEQEND
  8
0
  0
POLYLINE
  8
PLAN_1
 62
     5
  6
CONTINUOUS
 66
     1
 40
0.003000
 41
0.003000
  0
VERTEX
  8
PLAN_1
 62
     5
  6
CONTINUOUS
 10
2.274673
 20
-2.267067
  0
VERTEX
  8
PLAN_1
 62
     5
  6
CONTINUOUS
 10
2.274673
 20
-2.275024
  0
SEQEND
  8
0
  0
POLYLINE
  8
PLAN_1
 62
     5
  6
CONTINUOUS
 66
     1
 40
0.003000
 41
0.003000
  0
VERTEX
  8
PLAN_1
 62
     5
  6
CONTINUOUS
 10
2.274673
 20
-2.283776
  0
VERTEX
  8
PLAN_1
 62
     5
  6
CONTINUOUS
 10
2.274673
 20
-2.291732
  0
SEQEND
  8
0
  0
POLYLINE
  8
PLAN_1
 62
     5
  6
CONTINUOUS
 66
     1
 40
0.003000
 41
0.003000
  0
VERTEX
  8
PLAN_1
 62
     5
  6
CONTINUOUS
 10
2.274673
 20
-2.300484
  0
VERTEX
  8
PLAN_1
 62
     5
  6
CONTINUOUS
 10
2.274673
 20
-2.308441
  0
SEQEND
  8
0
  0
POLYLINE
  8
PLAN_1
 62
     5
  6
CONTINUOUS
 66
     1
 40
0.003000
 41
0.003000
  0
VERTEX
  8
PLAN_1
 62
     5
  6
CONTINUOUS
 10
2.274673
 20
-2.317189
  0
VERTEX
  8
PLAN_1
 62
     5
  6
CONTINUOUS
 10
2.274673
 20
-2.325146
  0
SEQEND
  8
0
  0
POLYLINE
  8
PLAN_1
 62
     5
  6
CONTINUOUS
 66
     1
 40
0.003000
 41
0.003000
  0
VERTEX
  8
PLAN_1
 62
     5
  6
CONTINUOUS
 10
2.274673
 20
-2.333898
  0
VERTEX
  8
PLAN_1
 62
     5
  6
CONTINUOUS
 10
2.274673
 20
-2.341854
  0
SEQEND
  8
0
  0
POLYLINE
  8
PLAN_1
 62
     5
  6
CONTINUOUS
 66
     1
 40
0.003000
 41
0.003000
  0
VERTEX
  8
PLAN_1
 62
     5
  6
CONTINUOUS
 10
2.274673
 20
-2.350606
  0
VERTEX
  8
PLAN_1
 62
     5
  6
CONTINUOUS
 10
2.274673
 20
-2.358559
  0
SEQEND
  8
0
  0
POLYLINE
  8
PLAN_1
 62
     5
  6
CONTINUOUS
 66
     1
 40
0.003000
 41
0.003000
  0
VERTEX
  8
PLAN_1
 62
     5
  6
CONTINUOUS
 10
2.274673
 20
-2.367311
  0
VERTEX
  8
PLAN_1
 62
     5
  6
CONTINUOUS
 10
2.274673
 20
-2.375268
  0
SEQEND
  8
0
  0
POLYLINE
  8
PLAN_1
 62
     5
  6
CONTINUOUS
 66
     1
 40
0.003000
 41
0.003000
  0
VERTEX
  8
PLAN_1
 62
     5
  6
CONTINUOUS
 10
2.274673
 20
-2.384020
  0
VERTEX
  8
PLAN_1
 62
     5
  6
CONTINUOUS
 10
2.274673
 20
-2.391976
  0
SEQEND
  8
0
  0
POLYLINE
  8
PLAN_1
 62
     5
  6
CONTINUOUS
 66
     1
 40
0.003000
 41
0.003000
  0
VERTEX
  8
PLAN_1
 62
     5
  6
CONTINUOUS
 10
2.274673
 20
-2.399933
  0
VERTEX
  8
PLAN_1
 62
     5
  6
CONTINUOUS
 10
2.274673
 20
-2.408681
  0
SEQEND
  8
0
  0
POLYLINE
  8
PLAN_1
 62
     5
  6
CONTINUOUS
 66
     1
 40
0.003000
 41
0.003000
  0
VERTEX
  8
PLAN_1
 62
     5
  6
CONTINUOUS
 10
2.274673
 20
-2.416638
  0
VERTEX
  8
PLAN_1
 62
     5
  6
CONTINUOUS
 10
2.274673
 20
-2.425390
  0
SEQEND
  8
0
  0
POLYLINE
  8
PLAN_1
 62
     5
  6
CONTINUOUS
 66
     1
 40
0.003000
 41
0.003000
  0
VERTEX
  8
PLAN_1
 62
     5
  6
CONTINUOUS
 10
2.274673
 20
-2.433346
  0
VERTEX
  8
PLAN_1
 62
     5
  6
CONTINUOUS
 10
2.274673
 20
-2.442098
  0
SEQEND
  8
0
  0
POLYLINE
  8
PLAN_1
 62
     5
  6
CONTINUOUS
 66
     1
 40
0.003000
 41
0.003000
  0
VERTEX
  8
PLAN_1
 62
     5
  6
CONTINUOUS
 10
2.274673
 20
-2.450051
  0
VERTEX
  8
PLAN_1
 62
     5
  6
CONTINUOUS
 10
2.274673
 20
-2.458803
  0
SEQEND
  8
0
  0
POLYLINE
  8
PLAN_1
 62
     5
  6
CONTINUOUS
 66
     1
 40
0.003000
 41
0.003000
  0
VERTEX
  8
PLAN_1
 62
     5
  6
CONTINUOUS
 10
2.274673
 20
-2.466760
  0
VERTEX
  8
PLAN_1
 62
     5
  6
CONTINUOUS
 10
2.274673
 20
-2.475512
  0
SEQEND
  8
0
  0
POLYLINE
  8
PLAN_1
 62
     5
  6
CONTINUOUS
 66
     1
 40
0.003000
 41
0.003000
  0
VERTEX
  8
PLAN_1
 62
     5
  6
CONTINUOUS
 10
2.274673
 20
-2.483469
  0
VERTEX
  8
PLAN_1
 62
     5
  6
CONTINUOUS
 10
2.274673
 20
-2.492220
  0
SEQEND
  8
0
  0
POLYLINE
  8
PLAN_1
 62
     5
  6
CONTINUOUS
 66
     1
 40
0.003000
 41
0.003000
  0
VERTEX
  8
PLAN_1
 62
     5
  6
CONTINUOUS
 10
2.274673
 20
-2.500173
  0
VERTEX
  8
PLAN_1
 62
     5
  6
CONTINUOUS
 10
2.274673
 20
-2.508925
  0
SEQEND
  8
0
  0
POLYLINE
  8
PLAN_1
 62
     5
  6
CONTINUOUS
 66
     1
 40
0.003000
 41
0.003000
  0
VERTEX
  8
PLAN_1
 62
     5
  6
CONTINUOUS
 10
2.274673
 20
-2.516882
  0
VERTEX
  8
PLAN_1
 62
     5
  6
CONTINUOUS
 10
2.274673
 20
-2.525634
  0
SEQEND
  8
0
  0
POLYLINE
  8
PLAN_1
 62
     5
  6
CONTINUOUS
 66
     1
 40
0.003000
 41
0.003000
  0
VERTEX
  8
PLAN_1
 62
     5
  6
CONTINUOUS
 10
2.274673
 20
-2.533591
  0
VERTEX
  8
PLAN_1
 62
     5
  6
CONTINUOUS
 10
2.274673
 20
-2.541543
  0
SEQEND
  8
0
  0
POLYLINE
  8
PLAN_1
 62
     5
  6
CONTINUOUS
 66
     1
 40
0.003000
 41
0.003000
  0
VERTEX
  8
PLAN_1
 62
     5
  6
CONTINUOUS
 10
2.274673
 20
-2.550295
  0
VERTEX
  8
PLAN_1
 62
     5
  6
CONTINUOUS
 10
2.274673
 20
-2.558252
  0
SEQEND
  8
0
  0
POLYLINE
  8
PLAN_1
 62
     5
  6
CONTINUOUS
 66
     1
 40
0.003000
 41
0.003000
  0
VERTEX
  8
PLAN_1
 62
     5
  6
CONTINUOUS
 10
2.274673
 20
-2.567004
  0
VERTEX
  8
PLAN_1
 62
     5
  6
CONTINUOUS
 10
2.274673
 20
-2.574961
  0
SEQEND
  8
0
  0
POLYLINE
  8
PLAN_1
 62
     5
  6
CONTINUOUS
 66
     1
 40
0.003000
 41
0.003000
  0
VERTEX
  8
PLAN_1
 62
     5
  6
CONTINUOUS
 10
2.274673
 20
-2.583713
  0
VERTEX
  8
PLAN_1
 62
     5
  6
CONTINUOUS
 10
2.274673
 20
-2.591665
  0
SEQEND
  8
0
  0
POLYLINE
  8
PLAN_1
 62
     5
  6
CONTINUOUS
 66
     1
 40
0.003000
 41
0.003000
  0
VERTEX
  8
PLAN_1
 62
     5
  6
CONTINUOUS
 10
2.274673
 20
-2.600417
  0
VERTEX
  8
PLAN_1
 62
     5
  6
CONTINUOUS
 10
2.274673
 20
-2.608374
  0
SEQEND
  8
0
  0
POLYLINE
  8
PLAN_1
 62
     5
  6
CONTINUOUS
 66
     1
 40
0.003000
 41
0.003000
  0
VERTEX
  8
PLAN_1
 62
     5
  6
CONTINUOUS
 10
2.274673
 20
-2.617126
  0
VERTEX
  8
PLAN_1
 62
     5
  6
CONTINUOUS
 10
2.274673
 20
-2.625083
  0
SEQEND
  8
0
  0
POLYLINE
  8
PLAN_1
 62
     5
  6
CONTINUOUS
 66
     1
 40
0.003000
 41
0.003000
  0
VERTEX
  8
PLAN_1
 62
     5
  6
CONTINUOUS
 10
2.274673
 20
-2.633831
  0
VERTEX
  8
PLAN_1
 62
     5
  6
CONTINUOUS
 10
2.274673
 20
-2.641787
  0
SEQEND
  8
0
  0
POLYLINE
  8
PLAN_1
 62
     5
  6
CONTINUOUS
 66
     1
 40
0.003000
 41
0.003000
  0
VERTEX
  8
PLAN_1
 62
     5
  6
CONTINUOUS
 10
2.274673
 20
-2.650539
  0
VERTEX
  8
PLAN_1
 62
     5
  6
CONTINUOUS
 10
2.274673
 20
-2.658496
  0
SEQEND
  8
0
  0
POLYLINE
  8
PLAN_1
 62
     5
  6
CONTINUOUS
 66
     1
 40
0.003000
 41
0.003000
  0
VERTEX
  8
PLAN_1
 62
     5
  6
CONTINUOUS
 10
2.274673
 20
-2.666453
  0
VERTEX
  8
PLAN_1
 62
     5
  6
CONTINUOUS
 10
2.274673
 20
-2.675201
  0
SEQEND
  8
0
  0
POLYLINE
  8
PLAN_1
 62
     5
  6
CONTINUOUS
 66
     1
 40
0.003000
 41
0.003000
  0
VERTEX
  8
PLAN_1
 62
     5
  6
CONTINUOUS
 10
2.274673
 20
-2.683157
  0
VERTEX
  8
PLAN_1
 62
     5
  6
CONTINUOUS
 10
2.274673
 20
-2.691909
  0
SEQEND
  8
0
  0
POLYLINE
  8
PLAN_1
 62
     5
  6
CONTINUOUS
 66
     1
 40
0.003000
 41
0.003000
  0
VERTEX
  8
PLAN_1
 62
     5
  6
CONTINUOUS
 10
2.274673
 20
-2.699866
  0
VERTEX
  8
PLAN_1
 62
     5
  6
CONTINUOUS
 10
2.274673
 20
-2.708618
  0
SEQEND
  8
0
  0
POLYLINE
  8
PLAN_1
 62
     5
  6
CONTINUOUS
 66
     1
 40
0.003000
 41
0.003000
  0
VERTEX
  8
PLAN_1
 62
     5
  6
CONTINUOUS
 10
2.274673
 20
-2.716575
  0
VERTEX
  8
PLAN_1
 62
     5
  6
CONTINUOUS
 10
2.274673
 20
-2.725323
  0
SEQEND
  8
0
  0
POLYLINE
  8
PLAN_1
 62
     5
  6
CONTINUOUS
 66
     1
 40
0.003000
 41
0.003000
  0
VERTEX
  8
PLAN_1
 62
     5
  6
CONTINUOUS
 10
2.274673
 20
-2.733280
  0
VERTEX
  8
PLAN_1
 62
     5
  6
CONTINUOUS
 10
2.274673
 20
-2.742031
  0
SEQEND
  8
0
  0
POLYLINE
  8
PLAN_1
 62
     5
  6
CONTINUOUS
 66
     1
 40
0.003000
 41
0.003000
  0
VERTEX
  8
PLAN_1
 62
     5
  6
CONTINUOUS
 10
2.274673
 20
-2.749988
  0
VERTEX
  8
PLAN_1
 62
     5
  6
CONTINUOUS
 10
2.274673
 20
-2.758740
  0
SEQEND
  8
0
  0
POLYLINE
  8
PLAN_1
 62
     5
  6
CONTINUOUS
 66
     1
 40
0.003000
 41
0.003000
  0
VERTEX
  8
PLAN_1
 62
     5
  6
CONTINUOUS
 10
2.274673
 20
-2.766693
  0
VERTEX
  8
PLAN_1
 62
     5
  6
CONTINUOUS
 10
2.274673
 20
-2.775445
  0
SEQEND
  8
0
  0
POLYLINE
  8
PLAN_1
 62
     5
  6
CONTINUOUS
 66
     1
 40
0.003000
 41
0.003000
  0
VERTEX
  8
PLAN_1
 62
     5
  6
CONTINUOUS
 10
2.274673
 20
-2.783402
  0
VERTEX
  8
PLAN_1
 62
     5
  6
CONTINUOUS
 10
2.274673
 20
-2.792154
  0
SEQEND
  8
0
  0
POLYLINE
  8
PLAN_1
 62
     5
  6
CONTINUOUS
 66
     1
 40
0.003000
 41
0.003000
  0
VERTEX
  8
PLAN_1
 62
     5
  6
CONTINUOUS
 10
2.274673
 20
-2.800110
  0
VERTEX
  8
PLAN_1
 62
     5
  6
CONTINUOUS
 10
2.274673
 20
-2.808063
  0
SEQEND
  8
0
  0
POLYLINE
  8
PLAN_1
 62
     5
  6
CONTINUOUS
 66
     1
 40
0.003000
 41
0.003000
  0
VERTEX
  8
PLAN_1
 62
     5
  6
CONTINUOUS
 10
2.274673
 20
-2.816815
  0
VERTEX
  8
PLAN_1
 62
     5
  6
CONTINUOUS
 10
2.274673
 20
-2.824772
  0
SEQEND
  8
0
  0
POLYLINE
  8
PLAN_1
 62
     5
  6
CONTINUOUS
 66
     1
 40
0.003000
 41
0.003000
  0
VERTEX
  8
PLAN_1
 62
     5
  6
CONTINUOUS
 10
2.274673
 20
-2.833524
  0
VERTEX
  8
PLAN_1
 62
     5
  6
CONTINUOUS
 10
2.274673
 20
-2.841480
  0
SEQEND
  8
0
  0
POLYLINE
  8
PLAN_1
 62
     5
  6
CONTINUOUS
 66
     1
 40
0.003000
 41
0.003000
  0
VERTEX
  8
PLAN_1
 62
     5
  6
CONTINUOUS
 10
2.274673
 20
-2.850232
  0
VERTEX
  8
PLAN_1
 62
     5
  6
CONTINUOUS
 10
2.274673
 20
-2.858185
  0
SEQEND
  8
0
  0
POLYLINE
  8
PLAN_1
 62
     5
  6
CONTINUOUS
 66
     1
 40
0.003000
 41
0.003000
  0
VERTEX
  8
PLAN_1
 62
     5
  6
CONTINUOUS
 10
2.274673
 20
-2.866937
  0
VERTEX
  8
PLAN_1
 62
     5
  6
CONTINUOUS
 10
2.274673
 20
-2.874894
  0
SEQEND
  8
0
  0
POLYLINE
  8
PLAN_1
 62
     5
  6
CONTINUOUS
 66
     1
 40
0.003000
 41
0.003000
  0
VERTEX
  8
PLAN_1
 62
     5
  6
CONTINUOUS
 10
2.274673
 20
-2.883646
  0
VERTEX
  8
PLAN_1
 62
     5
  6
CONTINUOUS
 10
2.274673
 20
-2.891602
  0
SEQEND
  8
0
  0
POLYLINE
  8
PLAN_1
 62
     5
  6
CONTINUOUS
 66
     1
 40
0.003000
 41
0.003000
  0
VERTEX
  8
PLAN_1
 62
     5
  6
CONTINUOUS
 10
2.274673
 20
-2.900354
  0
VERTEX
  8
PLAN_1
 62
     5
  6
CONTINUOUS
 10
2.274673
 20
-2.908307
  0
SEQEND
  8
0
  0
POLYLINE
  8
PLAN_1
 62
     5
  6
CONTINUOUS
 66
     1
 40
0.003000
 41
0.003000
  0
VERTEX
  8
PLAN_1
 62
     5
  6
CONTINUOUS
 10
2.274673
 20
-2.917059
  0
VERTEX
  8
PLAN_1
 62
     5
  6
CONTINUOUS
 10
2.274673
 20
-2.925016
  0
SEQEND
  8
0
  0
POLYLINE
  8
PLAN_1
 62
     5
  6
CONTINUOUS
 66
     1
 40
0.003000
 41
0.003000
  0
VERTEX
  8
PLAN_1
 62
     5
  6
CONTINUOUS
 10
2.274673
 20
-2.932972
  0
VERTEX
  8
PLAN_1
 62
     5
  6
CONTINUOUS
 10
2.274673
 20
-2.941724
  0
SEQEND
  8
0
  0
POLYLINE
  8
PLAN_1
 62
     5
  6
CONTINUOUS
 66
     1
 40
0.003000
 41
0.003000
  0
VERTEX
  8
PLAN_1
 62
     5
  6
CONTINUOUS
 10
2.274673
 20
-2.949677
  0
VERTEX
  8
PLAN_1
 62
     5
  6
CONTINUOUS
 10
2.274673
 20
-2.958429
  0
SEQEND
  8
0
  0
POLYLINE
  8
PLAN_1
 62
     5
  6
CONTINUOUS
 66
     1
 40
0.003000
 41
0.003000
  0
VERTEX
  8
PLAN_1
 62
     5
  6
CONTINUOUS
 10
2.274673
 20
-2.966386
  0
VERTEX
  8
PLAN_1
 62
     5
  6
CONTINUOUS
 10
2.274673
 20
-2.975138
  0
SEQEND
  8
0
  0
POLYLINE
  8
PLAN_1
 62
     5
  6
CONTINUOUS
 66
     1
 40
0.003000
 41
0.003000
  0
VERTEX
  8
PLAN_1
 62
     5
  6
CONTINUOUS
 10
2.274673
 20
-2.983094
  0
VERTEX
  8
PLAN_1
 62
     5
  6
CONTINUOUS
 10
2.274673
 20
-2.991843
  0
SEQEND
  8
0
  0
POLYLINE
  8
PLAN_1
 62
     5
  6
CONTINUOUS
 66
     1
 40
0.003000
 41
0.003000
  0
VERTEX
  8
PLAN_1
 62
     5
  6
CONTINUOUS
 10
2.274673
 20
-2.999799
  0
VERTEX
  8
PLAN_1
 62
     5
  6
CONTINUOUS
 10
2.274673
 20
-3.008551
  0
SEQEND
  8
0
  0
POLYLINE
  8
PLAN_1
 62
     5
  6
CONTINUOUS
 66
     1
 40
0.003000
 41
0.003000
  0
VERTEX
  8
PLAN_1
 62
     5
  6
CONTINUOUS
 10
2.274673
 20
-3.016508
  0
VERTEX
  8
PLAN_1
 62
     5
  6
CONTINUOUS
 10
2.274673
 20
-3.025260
  0
SEQEND
  8
0
  0
POLYLINE
  8
PLAN_1
 62
     5
  6
CONTINUOUS
 66
     1
 40
0.003000
 41
0.003000
  0
VERTEX
  8
PLAN_1
 62
     5
  6
CONTINUOUS
 10
2.274673
 20
-3.033217
  0
VERTEX
  8
PLAN_1
 62
     5
  6
CONTINUOUS
 10
2.274673
 20
-3.041965
  0
SEQEND
  8
0
  0
POLYLINE
  8
PLAN_1
 62
     5
  6
CONTINUOUS
 66
     1
 40
0.003000
 41
0.003000
  0
VERTEX
  8
PLAN_1
 62
     5
  6
CONTINUOUS
 10
2.274673
 20
-3.049921
  0
VERTEX
  8
PLAN_1
 62
     5
  6
CONTINUOUS
 10
2.274673
 20
-3.058673
  0
SEQEND
  8
0
  0
POLYLINE
  8
PLAN_1
 62
     5
  6
CONTINUOUS
 66
     1
 40
0.003000
 41
0.003000
  0
VERTEX
  8
PLAN_1
 62
     5
  6
CONTINUOUS
 10
2.274673
 20
-3.066630
  0
VERTEX
  8
PLAN_1
 62
     5
  6
CONTINUOUS
 10
2.274673
 20
-3.074587
  0
SEQEND
  8
0
  0
POLYLINE
  8
PLAN_1
 62
     5
  6
CONTINUOUS
 66
     1
 40
0.003000
 41
0.003000
  0
VERTEX
  8
PLAN_1
 62
     5
  6
CONTINUOUS
 10
2.274673
 20
-3.083335
  0
VERTEX
  8
PLAN_1
 62
     5
  6
CONTINUOUS
 10
2.274673
 20
-3.091291
  0
SEQEND
  8
0
  0
POLYLINE
  8
PLAN_1
 62
     5
  6
CONTINUOUS
 66
     1
 40
0.003000
 41
0.003000
  0
VERTEX
  8
PLAN_1
 62
     5
  6
CONTINUOUS
 10
2.274673
 20
-3.100043
  0
VERTEX
  8
PLAN_1
 62
     5
  6
CONTINUOUS
 10
2.274673
 20
-3.108000
  0
SEQEND
  8
0
  0
POLYLINE
  8
PLAN_1
 62
     5
  6
CONTINUOUS
 66
     1
 40
0.003000
 41
0.003000
  0
VERTEX
  8
PLAN_1
 62
     5
  6
CONTINUOUS
 10
2.274673
 20
-3.116752
  0
VERTEX
  8
PLAN_1
 62
     5
  6
CONTINUOUS
 10
2.274673
 20
-3.124705
  0
SEQEND
  8
0
  0
POLYLINE
  8
PLAN_1
 62
     5
  6
CONTINUOUS
 66
     1
 40
0.003000
 41
0.003000
  0
VERTEX
  8
PLAN_1
 62
     5
  6
CONTINUOUS
 10
2.274673
 20
-3.133457
  0
VERTEX
  8
PLAN_1
 62
     5
  6
CONTINUOUS
 10
2.274673
 20
-3.141413
  0
SEQEND
  8
0
  0
POLYLINE
  8
PLAN_1
 62
     5
  6
CONTINUOUS
 66
     1
 40
0.003000
 41
0.003000
  0
VERTEX
  8
PLAN_1
 62
     5
  6
CONTINUOUS
 10
2.274673
 20
-3.150165
  0
VERTEX
  8
PLAN_1
 62
     5
  6
CONTINUOUS
 10
2.274673
 20
-3.158122
  0
SEQEND
  8
0
  0
POLYLINE
  8
PLAN_1
 62
     5
  6
CONTINUOUS
 66
     1
 40
0.003000
 41
0.003000
  0
VERTEX
  8
PLAN_1
 62
     5
  6
CONTINUOUS
 10
2.274673
 20
-3.166874
  0
VERTEX
  8
PLAN_1
 62
     5
  6
CONTINUOUS
 10
2.274673
 20
-3.174827
  0
SEQEND
  8
0
  0
POLYLINE
  8
PLAN_1
 62
     5
  6
CONTINUOUS
 66
     1
 40
0.003000
 41
0.003000
  0
VERTEX
  8
PLAN_1
 62
     5
  6
CONTINUOUS
 10
2.274673
 20
-3.183579
  0
VERTEX
  8
PLAN_1
 62
     5
  6
CONTINUOUS
 10
2.274673
 20
-3.191535
  0
SEQEND
  8
0
  0
POLYLINE
  8
PLAN_1
 62
     5
  6
CONTINUOUS
 66
     1
 40
0.003000
 41
0.003000
  0
VERTEX
  8
PLAN_1
 62
     5
  6
CONTINUOUS
 10
2.274673
 20
-3.199492
  0
VERTEX
  8
PLAN_1
 62
     5
  6
CONTINUOUS
 10
2.274673
 20
-3.208244
  0
SEQEND
  8
0
  0
POLYLINE
  8
PLAN_1
 62
     5
  6
CONTINUOUS
 66
     1
 40
0.003000
 41
0.003000
  0
VERTEX
  8
PLAN_1
 62
     5
  6
CONTINUOUS
 10
2.274673
 20
-3.216197
  0
VERTEX
  8
PLAN_1
 62
     5
  6
CONTINUOUS
 10
2.274673
 20
-3.224949
  0
SEQEND
  8
0
  0
POLYLINE
  8
PLAN_1
 62
     5
  6
CONTINUOUS
 66
     1
 40
0.003000
 41
0.003000
  0
VERTEX
  8
PLAN_1
 62
     5
  6
CONTINUOUS
 10
2.274673
 20
-3.232906
  0
VERTEX
  8
PLAN_1
 62
     5
  6
CONTINUOUS
 10
2.274673
 20
-3.241657
  0
SEQEND
  8
0
  0
POLYLINE
  8
PLAN_1
 62
     5
  6
CONTINUOUS
 66
     1
 40
0.003000
 41
0.003000
  0
VERTEX
  8
PLAN_1
 62
     5
  6
CONTINUOUS
 10
2.274673
 20
-3.249614
  0
VERTEX
  8
PLAN_1
 62
     5
  6
CONTINUOUS
 10
2.274673
 20
-3.258366
  0
SEQEND
  8
0
  0
POLYLINE
  8
PLAN_1
 62
     5
  6
CONTINUOUS
 66
     1
 40
0.003000
 41
0.003000
  0
VERTEX
  8
PLAN_1
 62
     5
  6
CONTINUOUS
 10
2.274673
 20
-3.266319
  0
VERTEX
  8
PLAN_1
 62
     5
  6
CONTINUOUS
 10
2.274673
 20
-3.275071
  0
SEQEND
  8
0
  0
POLYLINE
  8
PLAN_1
 62
     5
  6
CONTINUOUS
 66
     1
 40
0.003000
 41
0.003000
  0
VERTEX
  8
PLAN_1
 62
     5
  6
CONTINUOUS
 10
2.274673
 20
-3.283028
  0
VERTEX
  8
PLAN_1
 62
     5
  6
CONTINUOUS
 10
2.274673
 20
-3.291780
  0
SEQEND
  8
0
  0
POLYLINE
  8
PLAN_1
 62
     5
  6
CONTINUOUS
 66
     1
 40
0.003000
 41
0.003000
  0
VERTEX
  8
PLAN_1
 62
     5
  6
CONTINUOUS
 10
2.274673
 20
-3.299736
  0
VERTEX
  8
PLAN_1
 62
     5
  6
CONTINUOUS
 10
2.274673
 20
-3.308484
  0
SEQEND
  8
0
  0
POLYLINE
  8
PLAN_1
 62
     5
  6
CONTINUOUS
 66
     1
 40
0.003000
 41
0.003000
  0
VERTEX
  8
PLAN_1
 62
     5
  6
CONTINUOUS
 10
2.274673
 20
-3.316441
  0
VERTEX
  8
PLAN_1
 62
     5
  6
CONTINUOUS
 10
2.274673
 20
-3.325193
  0
SEQEND
  8
0
  0
POLYLINE
  8
PLAN_1
 62
     5
  6
CONTINUOUS
 66
     1
 40
0.003000
 41
0.003000
  0
VERTEX
  8
PLAN_1
 62
     5
  6
CONTINUOUS
 10
2.274673
 20
-3.333150
  0
VERTEX
  8
PLAN_1
 62
     5
  6
CONTINUOUS
 10
2.274673
 20
-3.341106
  0
SEQEND
  8
0
  0
POLYLINE
  8
PLAN_1
 62
     5
  6
CONTINUOUS
 66
     1
 40
0.003000
 41
0.003000
  0
VERTEX
  8
PLAN_1
 62
     5
  6
CONTINUOUS
 10
2.274673
 20
-3.349858
  0
VERTEX
  8
PLAN_1
 62
     5
  6
CONTINUOUS
 10
2.274673
 20
-3.357811
  0
SEQEND
  8
0
  0
POLYLINE
  8
PLAN_1
 62
     5
  6
CONTINUOUS
 66
     1
 40
0.003000
 41
0.003000
  0
VERTEX
  8
PLAN_1
 62
     5
  6
CONTINUOUS
 10
2.274673
 20
-3.366563
  0
VERTEX
  8
PLAN_1
 62
     5
  6
CONTINUOUS
 10
2.274673
 20
-3.374520
  0
SEQEND
  8
0
  0
POLYLINE
  8
PLAN_1
 62
     5
  6
CONTINUOUS
 66
     1
 40
0.003000
 41
0.003000
  0
VERTEX
  8
PLAN_1
 62
     5
  6
CONTINUOUS
 10
2.274673
 20
-3.383272
  0
VERTEX
  8
PLAN_1
 62
     5
  6
CONTINUOUS
 10
2.274673
 20
-3.391228
  0
SEQEND
  8
0
  0
POLYLINE
  8
PLAN_1
 62
     5
  6
CONTINUOUS
 66
     1
 40
0.003000
 41
0.003000
  0
VERTEX
  8
PLAN_1
 62
     5
  6
CONTINUOUS
 10
2.274673
 20
-3.399976
  0
VERTEX
  8
PLAN_1
 62
     5
  6
CONTINUOUS
 10
2.274673
 20
-3.407933
  0
SEQEND
  8
0
  0
POLYLINE
  8
PLAN_1
 62
     5
  6
CONTINUOUS
 66
     1
 40
0.003000
 41
0.003000
  0
VERTEX
  8
PLAN_1
 62
     5
  6
CONTINUOUS
 10
2.274673
 20
-3.416685
  0
VERTEX
  8
PLAN_1
 62
     5
  6
CONTINUOUS
 10
2.274673
 20
-3.424642
  0
SEQEND
  8
0
  0
POLYLINE
  8
PLAN_1
 62
     5
  6
CONTINUOUS
 66
     1
 40
0.003000
 41
0.003000
  0
VERTEX
  8
PLAN_1
 62
     5
  6
CONTINUOUS
 10
2.274673
 20
-3.433394
  0
VERTEX
  8
PLAN_1
 62
     5
  6
CONTINUOUS
 10
2.274673
 20
-3.441350
  0
SEQEND
  8
0
  0
POLYLINE
  8
PLAN_1
 62
     5
  6
CONTINUOUS
 66
     1
 40
0.003000
 41
0.003000
  0
VERTEX
  8
PLAN_1
 62
     5
  6
CONTINUOUS
 10
2.274673
 20
-3.450098
  0
VERTEX
  8
PLAN_1
 62
     5
  6
CONTINUOUS
 10
2.274673
 20
-3.458055
  0
SEQEND
  8
0
  0
POLYLINE
  8
PLAN_1
 62
     5
  6
CONTINUOUS
 66
     1
 40
0.003000
 41
0.003000
  0
VERTEX
  8
PLAN_1
 62
     5
  6
CONTINUOUS
 10
2.274673
 20
-3.466012
  0
VERTEX
  8
PLAN_1
 62
     5
  6
CONTINUOUS
 10
2.274673
 20
-3.474764
  0
SEQEND
  8
0
  0
POLYLINE
  8
PLAN_1
 62
     5
  6
CONTINUOUS
 66
     1
 40
0.003000
 41
0.003000
  0
VERTEX
  8
PLAN_1
 62
     5
  6
CONTINUOUS
 10
2.274673
 20
-3.482720
  0
VERTEX
  8
PLAN_1
 62
     5
  6
CONTINUOUS
 10
2.274673
 20
-3.491469
  0
SEQEND
  8
0
  0
POLYLINE
  8
PLAN_1
 62
     5
  6
CONTINUOUS
 66
     1
 40
0.003000
 41
0.003000
  0
VERTEX
  8
PLAN_1
 62
     5
  6
CONTINUOUS
 10
2.274673
 20
-3.499425
  0
VERTEX
  8
PLAN_1
 62
     5
  6
CONTINUOUS
 10
2.274673
 20
-3.508177
  0
SEQEND
  8
0
  0
POLYLINE
  8
PLAN_1
 62
     5
  6
CONTINUOUS
 66
     1
 40
0.003000
 41
0.003000
  0
VERTEX
  8
PLAN_1
 62
     5
  6
CONTINUOUS
 10
2.274673
 20
-3.516134
  0
VERTEX
  8
PLAN_1
 62
     5
  6
CONTINUOUS
 10
2.274673
 20
-3.524886
  0
SEQEND
  8
0
  0
POLYLINE
  8
PLAN_1
 62
     5
  6
CONTINUOUS
 66
     1
 40
0.003000
 41
0.003000
  0
VERTEX
  8
PLAN_1
 62
     5
  6
CONTINUOUS
 10
2.274673
 20
-3.532839
  0
VERTEX
  8
PLAN_1
 62
     5
  6
CONTINUOUS
 10
2.274673
 20
-3.541591
  0
SEQEND
  8
0
  0
POLYLINE
  8
PLAN_1
 62
     5
  6
CONTINUOUS
 66
     1
 40
0.003000
 41
0.003000
  0
VERTEX
  8
PLAN_1
 62
     5
  6
CONTINUOUS
 10
2.274673
 20
-3.549547
  0
VERTEX
  8
PLAN_1
 62
     5
  6
CONTINUOUS
 10
2.274673
 20
-3.558299
  0
SEQEND
  8
0
  0
POLYLINE
  8
PLAN_1
 62
     5
  6
CONTINUOUS
 66
     1
 40
0.003000
 41
0.003000
  0
VERTEX
  8
PLAN_1
 62
     5
  6
CONTINUOUS
 10
2.274673
 20
-3.566256
  0
VERTEX
  8
PLAN_1
 62
     5
  6
CONTINUOUS
 10
2.274673
 20
-3.575008
  0
SEQEND
  8
0
  0
POLYLINE
  8
PLAN_1
 62
     5
  6
CONTINUOUS
 66
     1
 40
0.003000
 41
0.003000
  0
VERTEX
  8
PLAN_1
 62
     5
  6
CONTINUOUS
 10
2.274673
 20
-3.582961
  0
VERTEX
  8
PLAN_1
 62
     5
  6
CONTINUOUS
 10
2.274673
 20
-3.591713
  0
SEQEND
  8
0
  0
POLYLINE
  8
PLAN_1
 62
     5
  6
CONTINUOUS
 66
     1
 40
0.003000
 41
0.003000
  0
VERTEX
  8
PLAN_1
 62
     5
  6
CONTINUOUS
 10
2.274673
 20
-3.599669
  0
VERTEX
  8
PLAN_1
 62
     5
  6
CONTINUOUS
 10
2.274673
 20
-3.607626
  0
SEQEND
  8
0
  0
POLYLINE
  8
PLAN_1
 62
     5
  6
CONTINUOUS
 66
     1
 40
0.003000
 41
0.003000
  0
VERTEX
  8
PLAN_1
 62
     5
  6
CONTINUOUS
 10
2.274673
 20
-3.616378
  0
VERTEX
  8
PLAN_1
 62
     5
  6
CONTINUOUS
 10
2.274673
 20
-3.624331
  0
SEQEND
  8
0
  0
POLYLINE
  8
PLAN_1
 62
     5
  6
CONTINUOUS
 66
     1
 40
0.003000
 41
0.003000
  0
VERTEX
  8
PLAN_1
 62
     5
  6
CONTINUOUS
 10
2.274673
 20
-3.633083
  0
VERTEX
  8
PLAN_1
 62
     5
  6
CONTINUOUS
 10
2.274673
 20
-3.641039
  0
SEQEND
  8
0
  0
POLYLINE
  8
PLAN_1
 62
     5
  6
CONTINUOUS
 66
     1
 40
0.003000
 41
0.003000
  0
VERTEX
  8
PLAN_1
 62
     5
  6
CONTINUOUS
 10
2.274673
 20
-3.649791
  0
VERTEX
  8
PLAN_1
 62
     5
  6
CONTINUOUS
 10
2.274673
 20
-3.657748
  0
SEQEND
  8
0
  0
POLYLINE
  8
PLAN_1
 62
     5
  6
CONTINUOUS
 66
     1
 40
0.003000
 41
0.003000
  0
VERTEX
  8
PLAN_1
 62
     5
  6
CONTINUOUS
 10
2.274673
 20
-3.666500
  0
VERTEX
  8
PLAN_1
 62
     5
  6
CONTINUOUS
 10
2.274673
 20
-3.674453
  0
SEQEND
  8
0
  0
POLYLINE
  8
PLAN_1
 62
     5
  6
CONTINUOUS
 66
     1
 40
0.003000
 41
0.003000
  0
VERTEX
  8
PLAN_1
 62
     5
  6
CONTINUOUS
 10
2.274673
 20
-3.683205
  0
VERTEX
  8
PLAN_1
 62
     5
  6
CONTINUOUS
 10
2.274673
 20
-3.691161
  0
SEQEND
  8
0
  0
POLYLINE
  8
PLAN_1
 62
     5
  6
CONTINUOUS
 66
     1
 40
0.003000
 41
0.003000
  0
VERTEX
  8
PLAN_1
 62
     5
  6
CONTINUOUS
 10
2.274673
 20
-3.699913
  0
VERTEX
  8
PLAN_1
 62
     5
  6
CONTINUOUS
 10
2.274673
 20
-3.707870
  0
SEQEND
  8
0
  0
POLYLINE
  8
PLAN_1
 62
     5
  6
CONTINUOUS
 66
     1
 40
0.003000
 41
0.003000
  0
VERTEX
  8
PLAN_1
 62
     5
  6
CONTINUOUS
 10
2.274673
 20
-3.716618
  0
VERTEX
  8
PLAN_1
 62
     5
  6
CONTINUOUS
 10
2.274673
 20
-3.724575
  0
SEQEND
  8
0
  0
POLYLINE
  8
PLAN_1
 62
     5
  6
CONTINUOUS
 66
     1
 40
0.003000
 41
0.003000
  0
VERTEX
  8
PLAN_1
 62
     5
  6
CONTINUOUS
 10
2.274673
 20
-3.732531
  0
VERTEX
  8
PLAN_1
 62
     5
  6
CONTINUOUS
 10
2.274673
 20
-3.741283
  0
SEQEND
  8
0
  0
POLYLINE
  8
PLAN_1
 62
     5
  6
CONTINUOUS
 66
     1
 40
0.003000
 41
0.003000
  0
VERTEX
  8
PLAN_1
 62
     5
  6
CONTINUOUS
 10
2.274673
 20
-3.749240
  0
VERTEX
  8
PLAN_1
 62
     5
  6
CONTINUOUS
 10
2.274673
 20
-3.757992
  0
SEQEND
  8
0
  0
POLYLINE
  8
PLAN_1
 62
     5
  6
CONTINUOUS
 66
     1
 40
0.003000
 41
0.003000
  0
VERTEX
  8
PLAN_1
 62
     5
  6
CONTINUOUS
 10
2.274673
 20
-3.765945
  0
VERTEX
  8
PLAN_1
 62
     5
  6
CONTINUOUS
 10
2.274673
 20
-3.774697
  0
SEQEND
  8
0
  0
POLYLINE
  8
PLAN_1
 62
     5
  6
CONTINUOUS
 66
     1
 40
0.003000
 41
0.003000
  0
VERTEX
  8
PLAN_1
 62
     5
  6
CONTINUOUS
 10
2.274673
 20
-3.782654
  0
VERTEX
  8
PLAN_1
 62
     5
  6
CONTINUOUS
 10
2.274673
 20
-3.791406
  0
SEQEND
  8
0
  0
POLYLINE
  8
PLAN_1
 62
     5
  6
CONTINUOUS
 66
     1
 40
0.003000
 41
0.003000
  0
VERTEX
  8
PLAN_1
 62
     5
  6
CONTINUOUS
 10
2.274673
 20
-3.799362
  0
VERTEX
  8
PLAN_1
 62
     5
  6
CONTINUOUS
 10
2.274673
 20
-3.808110
  0
SEQEND
  8
0
  0
POLYLINE
  8
PLAN_1
 62
     5
  6
CONTINUOUS
 66
     1
 40
0.003000
 41
0.003000
  0
VERTEX
  8
PLAN_1
 62
     5
  6
CONTINUOUS
 10
2.274673
 20
-3.816067
  0
VERTEX
  8
PLAN_1
 62
     5
  6
CONTINUOUS
 10
2.274673
 20
-3.824819
  0
SEQEND
  8
0
  0
POLYLINE
  8
PLAN_1
 62
     5
  6
CONTINUOUS
 66
     1
 40
0.003000
 41
0.003000
  0
VERTEX
  8
PLAN_1
 62
     5
  6
CONTINUOUS
 10
2.274673
 20
-3.832776
  0
VERTEX
  8
PLAN_1
 62
     5
  6
CONTINUOUS
 10
2.274673
 20
-3.841528
  0
SEQEND
  8
0
  0
POLYLINE
  8
PLAN_1
 62
     5
  6
CONTINUOUS
 66
     1
 40
0.003000
 41
0.003000
  0
VERTEX
  8
PLAN_1
 62
     5
  6
CONTINUOUS
 10
2.274673
 20
-3.849480
  0
VERTEX
  8
PLAN_1
 62
     5
  6
CONTINUOUS
 10
2.274673
 20
-3.858232
  0
SEQEND
  8
0
  0
POLYLINE
  8
PLAN_1
 62
     5
  6
CONTINUOUS
 66
     1
 40
0.003000
 41
0.003000
  0
VERTEX
  8
PLAN_1
 62
     5
  6
CONTINUOUS
 10
2.274673
 20
-3.866189
  0
VERTEX
  8
PLAN_1
 62
     5
  6
CONTINUOUS
 10
2.274673
 20
-3.874146
  0
SEQEND
  8
0
  0
POLYLINE
  8
PLAN_1
 62
     5
  6
CONTINUOUS
 66
     1
 40
0.003000
 41
0.003000
  0
VERTEX
  8
PLAN_1
 62
     5
  6
CONTINUOUS
 10
2.274673
 20
-3.882898
  0
VERTEX
  8
PLAN_1
 62
     5
  6
CONTINUOUS
 10
2.274673
 20
-3.890854
  0
SEQEND
  8
0
  0
POLYLINE
  8
PLAN_1
 62
     5
  6
CONTINUOUS
 66
     1
 40
0.003000
 41
0.003000
  0
VERTEX
  8
PLAN_1
 62
     5
  6
CONTINUOUS
 10
2.274673
 20
-3.899602
  0
VERTEX
  8
PLAN_1
 62
     5
  6
CONTINUOUS
 10
2.274673
 20
-3.907559
  0
SEQEND
  8
0
  0
POLYLINE
  8
PLAN_1
 62
     5
  6
CONTINUOUS
 66
     1
 40
0.003000
 41
0.003000
  0
VERTEX
  8
PLAN_1
 62
     5
  6
CONTINUOUS
 10
2.274673
 20
-3.916311
  0
VERTEX
  8
PLAN_1
 62
     5
  6
CONTINUOUS
 10
2.274673
 20
-3.924268
  0
SEQEND
  8
0
  0
POLYLINE
  8
PLAN_1
 62
     5
  6
CONTINUOUS
 66
     1
 40
0.003000
 41
0.003000
  0
VERTEX
  8
PLAN_1
 62
     5
  6
CONTINUOUS
 10
2.274673
 20
-3.933020
  0
VERTEX
  8
PLAN_1
 62
     5
  6
CONTINUOUS
 10
2.274673
 20
-3.940972
  0
SEQEND
  8
0
  0
POLYLINE
  8
PLAN_1
 62
     5
  6
CONTINUOUS
 66
     1
 40
0.003000
 41
0.003000
  0
VERTEX
  8
PLAN_1
 62
     5
  6
CONTINUOUS
 10
2.274673
 20
-3.949724
  0
VERTEX
  8
PLAN_1
 62
     5
  6
CONTINUOUS
 10
2.274673
 20
-3.957681
  0
SEQEND
  8
0
  0
POLYLINE
  8
PLAN_1
 62
     5
  6
CONTINUOUS
 66
     1
 40
0.003000
 41
0.003000
  0
VERTEX
  8
PLAN_1
 62
     5
  6
CONTINUOUS
 10
2.274673
 20
-3.966433
  0
VERTEX
  8
PLAN_1
 62
     5
  6
CONTINUOUS
 10
2.274673
 20
-3.974390
  0
SEQEND
  8
0
  0
POLYLINE
  8
PLAN_1
 62
     5
  6
CONTINUOUS
 66
     1
 40
0.003000
 41
0.003000
  0
VERTEX
  8
PLAN_1
 62
     5
  6
CONTINUOUS
 10
2.274673
 20
-3.983142
  0
VERTEX
  8
PLAN_1
 62
     5
  6
CONTINUOUS
 10
2.274673
 20
-3.991094
  0
SEQEND
  8
0
  0
POLYLINE
  8
PLAN_1
 62
     5
  6
CONTINUOUS
 66
     1
 40
0.003000
 41
0.003000
  0
VERTEX
  8
PLAN_1
 62
     5
  6
CONTINUOUS
 10
2.274673
 20
-3.999051
  0
VERTEX
  8
PLAN_1
 62
     5
  6
CONTINUOUS
 10
2.274673
 20
-4.007803
  0
SEQEND
  8
0
  0
POLYLINE
  8
PLAN_1
 62
     5
  6
CONTINUOUS
 66
     1
 40
0.003000
 41
0.003000
  0
VERTEX
  8
PLAN_1
 62
     5
  6
CONTINUOUS
 10
2.274673
 20
-4.015760
  0
VERTEX
  8
PLAN_1
 62
     5
  6
CONTINUOUS
 10
2.274673
 20
-4.024512
  0
SEQEND
  8
0
  0
POLYLINE
  8
PLAN_1
 62
     5
  6
CONTINUOUS
 66
     1
 40
0.003000
 41
0.003000
  0
VERTEX
  8
PLAN_1
 62
     5
  6
CONTINUOUS
 10
2.274673
 20
-4.032465
  0
VERTEX
  8
PLAN_1
 62
     5
  6
CONTINUOUS
 10
2.274673
 20
-4.041217
  0
SEQEND
  8
0
  0
POLYLINE
  8
PLAN_1
 62
     5
  6
CONTINUOUS
 66
     1
 40
0.003000
 41
0.003000
  0
VERTEX
  8
PLAN_1
 62
     5
  6
CONTINUOUS
 10
2.274673
 20
-4.049173
  0
VERTEX
  8
PLAN_1
 62
     5
  6
CONTINUOUS
 10
2.274673
 20
-4.057925
  0
SEQEND
  8
0
  0
POLYLINE
  8
PLAN_1
 62
     5
  6
CONTINUOUS
 66
     1
 40
0.003000
 41
0.003000
  0
VERTEX
  8
PLAN_1
 62
     5
  6
CONTINUOUS
 10
2.274673
 20
-4.065882
  0
VERTEX
  8
PLAN_1
 62
     5
  6
CONTINUOUS
 10
2.274673
 20
-4.074634
  0
SEQEND
  8
0
  0
POLYLINE
  8
PLAN_1
 62
     5
  6
CONTINUOUS
 66
     1
 40
0.003000
 41
0.003000
  0
VERTEX
  8
PLAN_1
 62
     5
  6
CONTINUOUS
 10
2.274673
 20
-4.082587
  0
VERTEX
  8
PLAN_1
 62
     5
  6
CONTINUOUS
 10
2.274673
 20
-4.091339
  0
SEQEND
  8
0
  0
POLYLINE
  8
PLAN_1
 62
     5
  6
CONTINUOUS
 66
     1
 40
0.003000
 41
0.003000
  0
VERTEX
  8
PLAN_1
 62
     5
  6
CONTINUOUS
 10
2.274673
 20
-4.099295
  0
VERTEX
  8
PLAN_1
 62
     5
  6
CONTINUOUS
 10
2.274673
 20
-4.108047
  0
SEQEND
  8
0
  0
POLYLINE
  8
PLAN_1
 62
     5
  6
CONTINUOUS
 66
     1
 40
0.003000
 41
0.003000
  0
VERTEX
  8
PLAN_1
 62
     5
  6
CONTINUOUS
 10
2.274673
 20
-4.116004
  0
VERTEX
  8
PLAN_1
 62
     5
  6
CONTINUOUS
 10
2.274673
 20
-4.124752
  0
SEQEND
  8
0
  0
POLYLINE
  8
PLAN_1
 62
     5
  6
CONTINUOUS
 66
     1
 40
0.003000
 41
0.003000
  0
VERTEX
  8
PLAN_1
 62
     5
  6
CONTINUOUS
 10
2.274673
 20
-4.132709
  0
VERTEX
  8
PLAN_1
 62
     5
  6
CONTINUOUS
 10
2.274673
 20
-4.140665
  0
SEQEND
  8
0
  0
POLYLINE
  8
PLAN_1
 62
     5
  6
CONTINUOUS
 66
     1
 40
0.003000
 41
0.003000
  0
VERTEX
  8
PLAN_1
 62
     5
  6
CONTINUOUS
 10
2.274673
 20
-4.149417
  0
VERTEX
  8
PLAN_1
 62
     5
  6
CONTINUOUS
 10
2.274673
 20
-4.157374
  0
SEQEND
  8
0
  0
POLYLINE
  8
PLAN_1
 62
     5
  6
CONTINUOUS
 66
     1
 40
0.003000
 41
0.003000
  0
VERTEX
  8
PLAN_1
 62
     5
  6
CONTINUOUS
 10
2.274673
 20
-4.166126
  0
VERTEX
  8
PLAN_1
 62
     5
  6
CONTINUOUS
 10
2.274673
 20
-4.174079
  0
SEQEND
  8
0
  0
POLYLINE
  8
PLAN_1
 62
     5
  6
CONTINUOUS
 66
     1
 40
0.003000
 41
0.003000
  0
VERTEX
  8
PLAN_1
 62
     5
  6
CONTINUOUS
 10
2.274673
 20
-4.182831
  0
VERTEX
  8
PLAN_1
 62
     5
  6
CONTINUOUS
 10
2.274673
 20
-4.190787
  0
SEQEND
  8
0
  0
POLYLINE
  8
PLAN_1
 62
     5
  6
CONTINUOUS
 66
     1
 40
0.003000
 41
0.003000
  0
VERTEX
  8
PLAN_1
 62
     5
  6
CONTINUOUS
 10
2.274673
 20
-4.199539
  0
VERTEX
  8
PLAN_1
 62
     5
  6
CONTINUOUS
 10
2.274673
 20
-4.207496
  0
SEQEND
  8
0
  0
POLYLINE
  8
PLAN_1
 62
     5
  6
CONTINUOUS
 66
     1
 40
0.003000
 41
0.003000
  0
VERTEX
  8
PLAN_1
 62
     5
  6
CONTINUOUS
 10
2.274673
 20
-4.216244
  0
VERTEX
  8
PLAN_1
 62
     5
  6
CONTINUOUS
 10
2.274673
 20
-4.224201
  0
SEQEND
  8
0
  0
POLYLINE
  8
PLAN_1
 62
     5
  6
CONTINUOUS
 66
     1
 40
0.003000
 41
0.003000
  0
VERTEX
  8
PLAN_1
 62
     5
  6
CONTINUOUS
 10
2.274673
 20
-4.232953
  0
VERTEX
  8
PLAN_1
 62
     5
  6
CONTINUOUS
 10
2.274673
 20
-4.240909
  0
SEQEND
  8
0
  0
POLYLINE
  8
PLAN_1
 62
     5
  6
CONTINUOUS
 66
     1
 40
0.003000
 41
0.003000
  0
VERTEX
  8
PLAN_1
 62
     5
  6
CONTINUOUS
 10
2.274673
 20
-4.249661
  0
VERTEX
  8
PLAN_1
 62
     5
  6
CONTINUOUS
 10
2.274673
 20
-4.257614
  0
SEQEND
  8
0
  0
POLYLINE
  8
PLAN_1
 62
     5
  6
CONTINUOUS
 66
     1
 40
0.003000
 41
0.003000
  0
VERTEX
  8
PLAN_1
 62
     5
  6
CONTINUOUS
 10
2.274673
 20
-4.265571
  0
VERTEX
  8
PLAN_1
 62
     5
  6
CONTINUOUS
 10
2.274673
 20
-4.274323
  0
SEQEND
  8
0
  0
POLYLINE
  8
PLAN_1
 62
     5
  6
CONTINUOUS
 66
     1
 40
0.003000
 41
0.003000
  0
VERTEX
  8
PLAN_1
 62
     5
  6
CONTINUOUS
 10
2.274673
 20
-4.282280
  0
VERTEX
  8
PLAN_1
 62
     5
  6
CONTINUOUS
 10
2.274673
 20
-4.291031
  0
SEQEND
  8
0
  0
POLYLINE
  8
PLAN_1
 62
     5
  6
CONTINUOUS
 66
     1
 40
0.003000
 41
0.003000
  0
VERTEX
  8
PLAN_1
 62
     5
  6
CONTINUOUS
 10
2.274673
 20
-4.298988
  0
VERTEX
  8
PLAN_1
 62
     5
  6
CONTINUOUS
 10
2.274673
 20
-4.307736
  0
SEQEND
  8
0
  0
POLYLINE
  8
PLAN_1
 62
     5
  6
CONTINUOUS
 66
     1
 40
0.003000
 41
0.003000
  0
VERTEX
  8
PLAN_1
 62
     5
  6
CONTINUOUS
 10
2.274673
 20
-4.315693
  0
VERTEX
  8
PLAN_1
 62
     5
  6
CONTINUOUS
 10
2.274673
 20
-4.324445
  0
SEQEND
  8
0
  0
POLYLINE
  8
PLAN_1
 62
     5
  6
CONTINUOUS
 66
     1
 40
0.003000
 41
0.003000
  0
VERTEX
  8
PLAN_1
 62
     5
  6
CONTINUOUS
 10
2.274673
 20
-4.332402
  0
VERTEX
  8
PLAN_1
 62
     5
  6
CONTINUOUS
 10
2.274673
 20
-4.341154
  0
SEQEND
  8
0
  0
POLYLINE
  8
PLAN_1
 62
     5
  6
CONTINUOUS
 66
     1
 40
0.003000
 41
0.003000
  0
VERTEX
  8
PLAN_1
 62
     5
  6
CONTINUOUS
 10
2.274673
 20
-4.349106
  0
VERTEX
  8
PLAN_1
 62
     5
  6
CONTINUOUS
 10
2.274673
 20
-4.357858
  0
SEQEND
  8
0
  0
POLYLINE
  8
PLAN_1
 62
     5
  6
CONTINUOUS
 66
     1
 40
0.003000
 41
0.003000
  0
VERTEX
  8
PLAN_1
 62
     5
  6
CONTINUOUS
 10
2.274673
 20
-4.365815
  0
VERTEX
  8
PLAN_1
 62
     5
  6
CONTINUOUS
 10
2.274673
 20
-4.374567
  0
SEQEND
  8
0
  0
POLYLINE
  8
PLAN_1
 62
     5
  6
CONTINUOUS
 66
     1
 40
0.003000
 41
0.003000
  0
VERTEX
  8
PLAN_1
 62
     5
  6
CONTINUOUS
 10
2.274673
 20
-4.382524
  0
VERTEX
  8
PLAN_1
 62
     5
  6
CONTINUOUS
 10
2.274673
 20
-4.391276
  0
SEQEND
  8
0
  0
POLYLINE
  8
PLAN_1
 62
     5
  6
CONTINUOUS
 66
     1
 40
0.003000
 41
0.003000
  0
VERTEX
  8
PLAN_1
 62
     5
  6
CONTINUOUS
 10
2.274673
 20
-4.399228
  0
VERTEX
  8
PLAN_1
 62
     5
  6
CONTINUOUS
 10
2.274673
 20
-4.407185
  0
SEQEND
  8
0
  0
POLYLINE
  8
PLAN_1
 62
     5
  6
CONTINUOUS
 66
     1
 40
0.003000
 41
0.003000
  0
VERTEX
  8
PLAN_1
 62
     5
  6
CONTINUOUS
 10
2.274673
 20
-4.415937
  0
VERTEX
  8
PLAN_1
 62
     5
  6
CONTINUOUS
 10
2.274673
 20
-4.423894
  0
SEQEND
  8
0
  0
POLYLINE
  8
PLAN_1
 62
     5
  6
CONTINUOUS
 66
     1
 40
0.003000
 41
0.003000
  0
VERTEX
  8
PLAN_1
 62
     5
  6
CONTINUOUS
 10
2.274673
 20
-4.432646
  0
VERTEX
  8
PLAN_1
 62
     5
  6
CONTINUOUS
 10
2.274673
 20
-4.440598
  0
SEQEND
  8
0
  0
POLYLINE
  8
PLAN_1
  6
CONTINUOUS
 66
     1
 40
0.007953
 41
0.007953
  0
VERTEX
  8
PLAN_1
  6
CONTINUOUS
 10
0.210933
 20
-5.073882
  0
VERTEX
  8
PLAN_1
  6
CONTINUOUS
 10
0.210933
 20
0.571571
  0
SEQEND
  8
0
  0
POLYLINE
  8
PLAN_1
  6
CONTINUOUS
 66
     1
 40
0.003976
 41
0.003976
  0
VERTEX
  8
PLAN_1
  6
CONTINUOUS
 10
-1.634819
 20
2.327421
  0
VERTEX
  8
PLAN_1
  6
CONTINUOUS
 10
-2.217185
 20
1.988500
  0
SEQEND
  8
0
  0
POLYLINE
  8
PLAN_1
  6
CONTINUOUS
 66
     1
 40
0.003976
 41
0.003976
  0
VERTEX
  8
PLAN_1
  6
CONTINUOUS
 10
-2.241850
 20
1.805516
  0
VERTEX
  8
PLAN_1
  6
CONTINUOUS
 10
-1.651528
 20
2.144437
  0
SEQEND
  8
0
  0
POLYLINE
  8
PLAN_1
  6
CONTINUOUS
 66
     1
 40
0.007953
 41
0.007953
  0
VERTEX
  8
PLAN_1
  6
CONTINUOUS
 10
-2.123307
 20
-1.632988
  0
VERTEX
  8
PLAN_1
  6
CONTINUOUS
 10
-2.123307
 20
-2.404705
  0
VERTEX
  8
PLAN_1
  6
CONTINUOUS
 10
-0.961756
 20
-2.404705
  0
VERTEX
  8
PLAN_1
  6
CONTINUOUS
 10
-0.961756
 20
-0.858091
  0
VERTEX
  8
PLAN_1
  6
CONTINUOUS
 10
-1.745406
 20
-0.858091
  0
VERTEX
  8
PLAN_1
  6
CONTINUOUS
 10
-1.743815
 20
-1.633783
  0
VERTEX
  8
PLAN_1
  6
CONTINUOUS
 10
-2.123307
 20
-1.632988
  0
SEQEND
  8
0
  0
POLYLINE
  8
PLAN_1
  6
CONTINUOUS
 66
     1
 40
0.005567
 41
0.005567
  0
VERTEX
  8
PLAN_1
  6
CONTINUOUS
 10
-2.509961
 20
-1.399087
  0
VERTEX
  8
PLAN_1
  6
CONTINUOUS
 10
-2.509961
 20
-1.666406
  0
SEQEND
  8
0
  0
POLYLINE
  8
PLAN_1
  6
CONTINUOUS
 66
     1
 40
0.005567
 41
0.005567
  0
VERTEX
  8
PLAN_1
  6
CONTINUOUS
 10
-2.500413
 20
-1.625831
  0
VERTEX
  8
PLAN_1
  6
CONTINUOUS
 10
-2.355618
 20
-1.625831
  0
VERTEX
  8
PLAN_1
  6
CONTINUOUS
 10
-2.355618
 20
-1.438866
  0
VERTEX
  8
PLAN_1
  6
CONTINUOUS
 10
-2.500413
 20
-1.438866
  0
SEQEND
  8
0
  0
POLYLINE
  8
PLAN_1
 62
     2
  6
CONTINUOUS
 66
     1
 40
0.003976
 41
0.003976
  0
VERTEX
  8
PLAN_1
 62
     2
  6
CONTINUOUS
 10
-0.936299
 20
-5.388138
  0
VERTEX
  8
PLAN_1
 62
     2
  6
CONTINUOUS
 10
2.429016
 20
-5.388138
  0
SEQEND
  8
0
  0
SOLID
  8
PLAN_1
 62
     2
 10
2.458453
 20
-5.388138
 11
2.399579
 21
-5.372228
 12
2.458453
 22
-5.388138
 13
2.399579
 23
-5.403256
  0
POLYLINE
  8
PLAN_1
 62
     2
  6
CONTINUOUS
 66
     1
 40
0.003000
 41
0.003000
  0
VERTEX
  8
PLAN_1
 62
     2
  6
CONTINUOUS
 10
2.458453
 20
-5.388138
  0
VERTEX
  8
PLAN_1
 62
     2
  6
CONTINUOUS
 10
2.399579
 20
-5.372228
  0
VERTEX
  8
PLAN_1
 62
     2
  6
CONTINUOUS
 10
2.399579
 20
-5.403256
  0
VERTEX
  8
PLAN_1
 62
     2
  6
CONTINUOUS
 10
2.458453
 20
-5.388138
  0
SEQEND
  8
0
  0
SOLID
  8
PLAN_1
 62
     2
 10
-0.965736
 20
-5.388138
 11
-0.906862
 21
-5.372228
 12
-0.965736
 22
-5.388138
 13
-0.906862
 23
-5.403256
  0
POLYLINE
  8
PLAN_1
 62
     2
  6
CONTINUOUS
 66
     1
 40
0.003000
 41
0.003000
  0
VERTEX
  8
PLAN_1
 62
     2
  6
CONTINUOUS
 10
-0.965736
 20
-5.388138
  0
VERTEX
  8
PLAN_1
 62
     2
  6
CONTINUOUS
 10
-0.906862
 20
-5.372228
  0
VERTEX
  8
PLAN_1
 62
     2
  6
CONTINUOUS
 10
-0.906862
 20
-5.403256
  0
VERTEX
  8
PLAN_1
 62
     2
  6
CONTINUOUS
 10
-0.965736
 20
-5.388138
  0
SEQEND
  8
0
  0
POLYLINE
  8
PLAN_1
 62
     2
  6
CONTINUOUS
 66
     1
 40
0.003000
 41
0.003000
  0
VERTEX
  8
PLAN_1
 62
     2
  6
CONTINUOUS
 10
0.730445
 20
-5.325287
  0
VERTEX
  8
PLAN_1
 62
     2
  6
CONTINUOUS
 10
0.733630
 20
-5.326878
  0
VERTEX
  8
PLAN_1
 62
     2
  6
CONTINUOUS
 10
0.736811
 20
-5.329264
  0
VERTEX
  8
PLAN_1
 62
     2
  6
CONTINUOUS
 10
0.738402
 20
-5.331654
  0
VERTEX
  8
PLAN_1
 62
     2
  6
CONTINUOUS
 10
0.739992
 20
-5.334039
  0
VERTEX
  8
PLAN_1
 62
     2
  6
CONTINUOUS
 10
0.741587
 20
-5.336425
  0
VERTEX
  8
PLAN_1
 62
     2
  6
CONTINUOUS
 10
0.741587
 20
-5.338811
  0
VERTEX
  8
PLAN_1
 62
     2
  6
CONTINUOUS
 10
0.742382
 20
-5.341201
  0
VERTEX
  8
PLAN_1
 62
     2
  6
CONTINUOUS
 10
0.742382
 20
-5.342791
  0
VERTEX
  8
PLAN_1
 62
     2
  6
CONTINUOUS
 10
0.742382
 20
-5.347563
  0
VERTEX
  8
PLAN_1
 62
     2
  6
CONTINUOUS
 10
0.740791
 20
-5.351543
  0
VERTEX
  8
PLAN_1
 62
     2
  6
CONTINUOUS
 10
0.739197
 20
-5.355520
  0
VERTEX
  8
PLAN_1
 62
     2
  6
CONTINUOUS
 10
0.736811
 20
-5.358701
  0
VERTEX
  8
PLAN_1
 62
     2
  6
CONTINUOUS
 10
0.732835
 20
-5.361886
  0
VERTEX
  8
PLAN_1
 62
     2
  6
CONTINUOUS
 10
0.728854
 20
-5.364272
  0
VERTEX
  8
PLAN_1
 62
     2
  6
CONTINUOUS
 10
0.724083
 20
-5.365862
  0
VERTEX
  8
PLAN_1
 62
     2
  6
CONTINUOUS
 10
0.717717
 20
-5.365862
  0
VERTEX
  8
PLAN_1
 62
     2
  6
CONTINUOUS
 10
0.716126
 20
-5.365862
  0
VERTEX
  8
PLAN_1
 62
     2
  6
CONTINUOUS
 10
0.713740
 20
-5.365862
  0
VERTEX
  8
PLAN_1
 62
     2
  6
CONTINUOUS
 10
0.712150
 20
-5.365862
  0
VERTEX
  8
PLAN_1
 62
     2
  6
CONTINUOUS
 10
0.709760
 20
-5.365067
  0
VERTEX
  8
PLAN_1
 62
     2
  6
CONTINUOUS
 10
0.707374
 20
-5.364272
  0
VERTEX
  8
PLAN_1
 62
     2
  6
CONTINUOUS
 10
0.704988
 20
-5.363476
  0
VERTEX
  8
PLAN_1
 62
     2
  6
CONTINUOUS
 10
0.702602
 20
-5.361886
  0
VERTEX
  8
PLAN_1
 62
     2
  6
CONTINUOUS
 10
0.700217
 20
-5.360291
  0
VERTEX
  8
PLAN_1
 62
     2
  6
CONTINUOUS
 10
0.697827
 20
-5.357906
  0
VERTEX
  8
PLAN_1
 62
     2
  6
CONTINUOUS
 10
0.695441
 20
-5.355520
  0
VERTEX
  8
PLAN_1
 62
     2
  6
CONTINUOUS
 10
0.694646
 20
-5.353134
  0
VERTEX
  8
PLAN_1
 62
     2
  6
CONTINUOUS
 10
0.693850
 20
-5.350748
  0
VERTEX
  8
PLAN_1
 62
     2
  6
CONTINUOUS
 10
0.693055
 20
-5.348358
  0
VERTEX
  8
PLAN_1
 62
     2
  6
CONTINUOUS
 10
0.693055
 20
-5.346768
  0
VERTEX
  8
PLAN_1
 62
     2
  6
CONTINUOUS
 10
0.692260
 20
-5.344382
  0
VERTEX
  8
PLAN_1
 62
     2
  6
CONTINUOUS
 10
0.692260
 20
-5.343587
  0
VERTEX
  8
PLAN_1
 62
     2
  6
CONTINUOUS
 10
0.693055
 20
-5.339606
  0
VERTEX
  8
PLAN_1
 62
     2
  6
CONTINUOUS
 10
0.693055
 20
-5.337220
  0
VERTEX
  8
PLAN_1
 62
     2
  6
CONTINUOUS
 10
0.694646
 20
-5.334835
  0
VERTEX
  8
PLAN_1
 62
     2
  6
CONTINUOUS
 10
0.696236
 20
-5.332449
  0
VERTEX
  8
PLAN_1
 62
     2
  6
CONTINUOUS
 10
0.697827
 20
-5.330063
  0
VERTEX
  8
PLAN_1
 62
     2
  6
CONTINUOUS
 10
0.699417
 20
-5.328469
  0
VERTEX
  8
PLAN_1
 62
     2
  6
CONTINUOUS
 10
0.702602
 20
-5.326878
  0
VERTEX
  8
PLAN_1
 62
     2
  6
CONTINUOUS
 10
0.704988
 20
-5.325287
  0
VERTEX
  8
PLAN_1
 62
     2
  6
CONTINUOUS
 10
0.702602
 20
-5.324492
  0
VERTEX
  8
PLAN_1
 62
     2
  6
CONTINUOUS
 10
0.701012
 20
-5.322902
  0
VERTEX
  8
PLAN_1
 62
     2
  6
CONTINUOUS
 10
0.699417
 20
-5.321311
  0
VERTEX
  8
PLAN_1
 62
     2
  6
CONTINUOUS
 10
0.697827
 20
-5.319717
  0
VERTEX
  8
PLAN_1
 62
     2
  6
CONTINUOUS
 10
0.696236
 20
-5.318126
  0
VERTEX
  8
PLAN_1
 62
     2
  6
CONTINUOUS
 10
0.695441
 20
-5.315740
  0
VERTEX
  8
PLAN_1
 62
     2
  6
CONTINUOUS
 10
0.695441
 20
-5.313354
  0
VERTEX
  8
PLAN_1
 62
     2
  6
CONTINUOUS
 10
0.695441
 20
-5.310969
  0
VERTEX
  8
PLAN_1
 62
     2
  6
CONTINUOUS
 10
0.695441
 20
-5.307783
  0
VERTEX
  8
PLAN_1
 62
     2
  6
CONTINUOUS
 10
0.696236
 20
-5.304602
  0
VERTEX
  8
PLAN_1
 62
     2
  6
CONTINUOUS
 10
0.697827
 20
-5.301421
  0
VERTEX
  8
PLAN_1
 62
     2
  6
CONTINUOUS
 10
0.699417
 20
-5.298236
  0
VERTEX
  8
PLAN_1
 62
     2
  6
CONTINUOUS
 10
0.702602
 20
-5.295055
  0
VERTEX
  8
PLAN_1
 62
     2
  6
CONTINUOUS
 10
0.706579
 20
-5.293465
  0
VERTEX
  8
PLAN_1
 62
     2
  6
CONTINUOUS
 10
0.711354
 20
-5.291874
  0
VERTEX
  8
PLAN_1
 62
     2
  6
CONTINUOUS
 10
0.716921
 20
-5.291079
  0
VERTEX
  8
PLAN_1
 62
     2
  6
CONTINUOUS
 10
0.722492
 20
-5.291874
  0
VERTEX
  8
PLAN_1
 62
     2
  6
CONTINUOUS
 10
0.727264
 20
-5.292669
  0
VERTEX
  8
PLAN_1
 62
     2
  6
CONTINUOUS
 10
0.731244
 20
-5.295055
  0
VERTEX
  8
PLAN_1
 62
     2
  6
CONTINUOUS
 10
0.734425
 20
-5.297441
  0
VERTEX
  8
PLAN_1
 62
     2
  6
CONTINUOUS
 10
0.736811
 20
-5.299831
  0
VERTEX
  8
PLAN_1
 62
     2
  6
CONTINUOUS
 10
0.738402
 20
-5.303012
  0
VERTEX
  8
PLAN_1
 62
     2
  6
CONTINUOUS
 10
0.739197
 20
-5.306988
  0
VERTEX
  8
PLAN_1
 62
     2
  6
CONTINUOUS
 10
0.739992
 20
-5.310173
  0
VERTEX
  8
PLAN_1
 62
     2
  6
CONTINUOUS
 10
0.739197
 20
-5.313354
  0
VERTEX
  8
PLAN_1
 62
     2
  6
CONTINUOUS
 10
0.739197
 20
-5.316535
  0
VERTEX
  8
PLAN_1
 62
     2
  6
CONTINUOUS
 10
0.737606
 20
-5.318921
  0
VERTEX
  8
PLAN_1
 62
     2
  6
CONTINUOUS
 10
0.736016
 20
-5.321311
  0
VERTEX
  8
PLAN_1
 62
     2
  6
CONTINUOUS
 10
0.735220
 20
-5.322106
  0
VERTEX
  8
PLAN_1
 62
     2
  6
CONTINUOUS
 10
0.733630
 20
-5.323697
  0
VERTEX
  8
PLAN_1
 62
     2
  6
CONTINUOUS
 10
0.732039
 20
-5.324492
  0
VERTEX
  8
PLAN_1
 62
     2
  6
CONTINUOUS
 10
0.730445
 20
-5.325287
  0
SEQEND
  8
0
  0
POLYLINE
  8
PLAN_1
 62
     2
  6
CONTINUOUS
 66
     1
 40
0.003000
 41
0.003000
  0
VERTEX
  8
PLAN_1
 62
     2
  6
CONTINUOUS
 10
0.702602
 20
-5.343587
  0
VERTEX
  8
PLAN_1
 62
     2
  6
CONTINUOUS
 10
0.702602
 20
-5.345972
  0
VERTEX
  8
PLAN_1
 62
     2
  6
CONTINUOUS
 10
0.703398
 20
-5.348358
  0
VERTEX
  8
PLAN_1
 62
     2
  6
CONTINUOUS
 10
0.704193
 20
-5.350748
  0
VERTEX
  8
PLAN_1
 62
     2
  6
CONTINUOUS
 10
0.705783
 20
-5.353134
  0
VERTEX
  8
PLAN_1
 62
     2
  6
CONTINUOUS
 10
0.707374
 20
-5.354724
  0
VERTEX
  8
PLAN_1
 62
     2
  6
CONTINUOUS
 10
0.710559
 20
-5.356315
  0
VERTEX
  8
PLAN_1
 62
     2
  6
CONTINUOUS
 10
0.713740
 20
-5.357906
  0
VERTEX
  8
PLAN_1
 62
     2
  6
CONTINUOUS
 10
0.717717
 20
-5.357906
  0
VERTEX
  8
PLAN_1
 62
     2
  6
CONTINUOUS
 10
0.720902
 20
-5.357906
  0
VERTEX
  8
PLAN_1
 62
     2
  6
CONTINUOUS
 10
0.723287
 20
-5.357110
  0
VERTEX
  8
PLAN_1
 62
     2
  6
CONTINUOUS
 10
0.725673
 20
-5.356315
  0
VERTEX
  8
PLAN_1
 62
     2
  6
CONTINUOUS
 10
0.728059
 20
-5.355520
  0
VERTEX
  8
PLAN_1
 62
     2
  6
CONTINUOUS
 10
0.729650
 20
-5.353929
  0
VERTEX
  8
PLAN_1
 62
     2
  6
CONTINUOUS
 10
0.731244
 20
-5.350748
  0
VERTEX
  8
PLAN_1
 62
     2
  6
CONTINUOUS
 10
0.732039
 20
-5.348358
  0
VERTEX
  8
PLAN_1
 62
     2
  6
CONTINUOUS
 10
0.732835
 20
-5.344382
  0
VERTEX
  8
PLAN_1
 62
     2
  6
CONTINUOUS
 10
0.732039
 20
-5.340406
  0
VERTEX
  8
PLAN_1
 62
     2
  6
CONTINUOUS
 10
0.731244
 20
-5.338016
  0
VERTEX
  8
PLAN_1
 62
     2
  6
CONTINUOUS
 10
0.729650
 20
-5.335630
  0
VERTEX
  8
PLAN_1
 62
     2
  6
CONTINUOUS
 10
0.728059
 20
-5.333244
  0
VERTEX
  8
PLAN_1
 62
     2
  6
CONTINUOUS
 10
0.725673
 20
-5.331654
  0
VERTEX
  8
PLAN_1
 62
     2
  6
CONTINUOUS
 10
0.723287
 20
-5.330858
  0
VERTEX
  8
PLAN_1
 62
     2
  6
CONTINUOUS
 10
0.720902
 20
-5.330063
  0
VERTEX
  8
PLAN_1
 62
     2
  6
CONTINUOUS
 10
0.717717
 20
-5.330063
  0
VERTEX
  8
PLAN_1
 62
     2
  6
CONTINUOUS
 10
0.713740
 20
-5.330063
  0
VERTEX
  8
PLAN_1
 62
     2
  6
CONTINUOUS
 10
0.710559
 20
-5.330858
  0
VERTEX
  8
PLAN_1
 62
     2
  6
CONTINUOUS
 10
0.708169
 20
-5.332449
  0
VERTEX
  8
PLAN_1
 62
     2
  6
CONTINUOUS
 10
0.705783
 20
-5.334039
  0
VERTEX
  8
PLAN_1
 62
     2
  6
CONTINUOUS
 10
0.704193
 20
-5.336425
  0
VERTEX
  8
PLAN_1
 62
     2
  6
CONTINUOUS
 10
0.703398
 20
-5.338811
  0
VERTEX
  8
PLAN_1
 62
     2
  6
CONTINUOUS
 10
0.702602
 20
-5.341201
  0
VERTEX
  8
PLAN_1
 62
     2
  6
CONTINUOUS
 10
0.702602
 20
-5.343587
  0
SEQEND
  8
0
  0
POLYLINE
  8
PLAN_1
 62
     2
  6
CONTINUOUS
 66
     1
 40
0.003000
 41
0.003000
  0
VERTEX
  8
PLAN_1
 62
     2
  6
CONTINUOUS
 10
0.730445
 20
-5.310173
  0
VERTEX
  8
PLAN_1
 62
     2
  6
CONTINUOUS
 10
0.730445
 20
-5.308579
  0
VERTEX
  8
PLAN_1
 62
     2
  6
CONTINUOUS
 10
0.729650
 20
-5.306988
  0
VERTEX
  8
PLAN_1
 62
     2
  6
CONTINUOUS
 10
0.728854
 20
-5.304602
  0
VERTEX
  8
PLAN_1
 62
     2
  6
CONTINUOUS
 10
0.727264
 20
-5.303012
  0
VERTEX
  8
PLAN_1
 62
     2
  6
CONTINUOUS
 10
0.725673
 20
-5.301421
  0
VERTEX
  8
PLAN_1
 62
     2
  6
CONTINUOUS
 10
0.723287
 20
-5.300626
  0
VERTEX
  8
PLAN_1
 62
     2
  6
CONTINUOUS
 10
0.720102
 20
-5.299831
  0
VERTEX
  8
PLAN_1
 62
     2
  6
CONTINUOUS
 10
0.716921
 20
-5.299031
  0
VERTEX
  8
PLAN_1
 62
     2
  6
CONTINUOUS
 10
0.713740
 20
-5.299831
  0
VERTEX
  8
PLAN_1
 62
     2
  6
CONTINUOUS
 10
0.710559
 20
-5.300626
  0
VERTEX
  8
PLAN_1
 62
     2
  6
CONTINUOUS
 10
0.708965
 20
-5.301421
  0
VERTEX
  8
PLAN_1
 62
     2
  6
CONTINUOUS
 10
0.707374
 20
-5.303012
  0
VERTEX
  8
PLAN_1
 62
     2
  6
CONTINUOUS
 10
0.705783
 20
-5.305398
  0
VERTEX
  8
PLAN_1
 62
     2
  6
CONTINUOUS
 10
0.704988
 20
-5.306988
  0
VERTEX
  8
PLAN_1
 62
     2
  6
CONTINUOUS
 10
0.704988
 20
-5.308579
  0
VERTEX
  8
PLAN_1
 62
     2
  6
CONTINUOUS
 10
0.704193
 20
-5.310969
  0
VERTEX
  8
PLAN_1
 62
     2
  6
CONTINUOUS
 10
0.704988
 20
-5.313354
  0
VERTEX
  8
PLAN_1
 62
     2
  6
CONTINUOUS
 10
0.705783
 20
-5.315740
  0
VERTEX
  8
PLAN_1
 62
     2
  6
CONTINUOUS
 10
0.706579
 20
-5.317331
  0
VERTEX
  8
PLAN_1
 62
     2
  6
CONTINUOUS
 10
0.708169
 20
-5.318921
  0
VERTEX
  8
PLAN_1
 62
     2
  6
CONTINUOUS
 10
0.710559
 20
-5.320516
  0
VERTEX
  8
PLAN_1
 62
     2
  6
CONTINUOUS
 10
0.712945
 20
-5.321311
  0
VERTEX
  8
PLAN_1
 62
     2
  6
CONTINUOUS
 10
0.714535
 20
-5.322106
  0
VERTEX
  8
PLAN_1
 62
     2
  6
CONTINUOUS
 10
0.717717
 20
-5.322106
  0
VERTEX
  8
PLAN_1
 62
     2
  6
CONTINUOUS
 10
0.720102
 20
-5.322106
  0
VERTEX
  8
PLAN_1
 62
     2
  6
CONTINUOUS
 10
0.722492
 20
-5.321311
  0
VERTEX
  8
PLAN_1
 62
     2
  6
CONTINUOUS
 10
0.724878
 20
-5.319717
  0
VERTEX
  8
PLAN_1
 62
     2
  6
CONTINUOUS
 10
0.726469
 20
-5.318921
  0
VERTEX
  8
PLAN_1
 62
     2
  6
CONTINUOUS
 10
0.728059
 20
-5.316535
  0
VERTEX
  8
PLAN_1
 62
     2
  6
CONTINUOUS
 10
0.729650
 20
-5.314945
  0
VERTEX
  8
PLAN_1
 62
     2
  6
CONTINUOUS
 10
0.730445
 20
-5.312559
  0
VERTEX
  8
PLAN_1
 62
     2
  6
CONTINUOUS
 10
0.730445
 20
-5.310173
  0
SEQEND
  8
0
  0
POLYLINE
  8
PLAN_1
 62
     2
  6
CONTINUOUS
 66
     1
 40
0.003000
 41
0.003000
  0
VERTEX
  8
PLAN_1
 62
     2
  6
CONTINUOUS
 10
0.750335
 20
-5.292669
  0
VERTEX
  8
PLAN_1
 62
     2
  6
CONTINUOUS
 10
0.801252
 20
-5.292669
  0
VERTEX
  8
PLAN_1
 62
     2
  6
CONTINUOUS
 10
0.801252
 20
-5.300626
  0
VERTEX
  8
PLAN_1
 62
     2
  6
CONTINUOUS
 10
0.798071
 20
-5.304602
  0
VERTEX
  8
PLAN_1
 62
     2
  6
CONTINUOUS
 10
0.794094
 20
-5.309374
  0
VERTEX
  8
PLAN_1
 62
     2
  6
CONTINUOUS
 10
0.789319
 20
-5.315740
  0
VERTEX
  8
PLAN_1
 62
     2
  6
CONTINUOUS
 10
0.785343
 20
-5.322902
  0
VERTEX
  8
PLAN_1
 62
     2
  6
CONTINUOUS
 10
0.780567
 20
-5.331654
  0
VERTEX
  8
PLAN_1
 62
     2
  6
CONTINUOUS
 10
0.776591
 20
-5.341201
  0
VERTEX
  8
PLAN_1
 62
     2
  6
CONTINUOUS
 10
0.773409
 20
-5.352339
  0
VERTEX
  8
PLAN_1
 62
     2
  6
CONTINUOUS
 10
0.771020
 20
-5.364272
  0
VERTEX
  8
PLAN_1
 62
     2
  6
CONTINUOUS
 10
0.760677
 20
-5.364272
  0
VERTEX
  8
PLAN_1
 62
     2
  6
CONTINUOUS
 10
0.762272
 20
-5.356315
  0
VERTEX
  8
PLAN_1
 62
     2
  6
CONTINUOUS
 10
0.764657
 20
-5.348358
  0
VERTEX
  8
PLAN_1
 62
     2
  6
CONTINUOUS
 10
0.767839
 20
-5.339606
  0
VERTEX
  8
PLAN_1
 62
     2
  6
CONTINUOUS
 10
0.771020
 20
-5.331654
  0
VERTEX
  8
PLAN_1
 62
     2
  6
CONTINUOUS
 10
0.775795
 20
-5.322902
  0
VERTEX
  8
PLAN_1
 62
     2
  6
CONTINUOUS
 10
0.780567
 20
-5.315740
  0
VERTEX
  8
PLAN_1
 62
     2
  6
CONTINUOUS
 10
0.785343
 20
-5.307783
  0
VERTEX
  8
PLAN_1
 62
     2
  6
CONTINUOUS
 10
0.790909
 20
-5.301421
  0
VERTEX
  8
PLAN_1
 62
     2
  6
CONTINUOUS
 10
0.750335
 20
-5.301421
  0
VERTEX
  8
PLAN_1
 62
     2
  6
CONTINUOUS
 10
0.750335
 20
-5.292669
  0
SEQEND
  8
0
  0
POLYLINE
  8
PLAN_1
 62
     2
  6
CONTINUOUS
 66
     1
 40
0.003976
 41
0.003976
  0
VERTEX
  8
PLAN_1
 62
     2
  6
CONTINUOUS
 10
-0.936299
 20
-5.230614
  0
VERTEX
  8
PLAN_1
 62
     2
  6
CONTINUOUS
 10
2.242055
 20
-5.230614
  0
SEQEND
  8
0
  0
SOLID
  8
PLAN_1
 62
     2
 10
2.272287
 20
-5.230614
 11
2.212618
 21
-5.214701
 12
2.272287
 22
-5.230614
 13
2.212618
 23
-5.246524
  0
POLYLINE
  8
PLAN_1
 62
     2
  6
CONTINUOUS
 66
     1
 40
0.003000
 41
0.003000
  0
VERTEX
  8
PLAN_1
 62
     2
  6
CONTINUOUS
 10
2.272287
 20
-5.230614
  0
VERTEX
  8
PLAN_1
 62
     2
  6
CONTINUOUS
 10
2.212618
 20
-5.214701
  0
VERTEX
  8
PLAN_1
 62
     2
  6
CONTINUOUS
 10
2.212618
 20
-5.246524
  0
VERTEX
  8
PLAN_1
 62
     2
  6
CONTINUOUS
 10
2.272287
 20
-5.230614
  0
SEQEND
  8
0
  0
SOLID
  8
PLAN_1
 62
     2
 10
-0.965736
 20
-5.230614
 11
-0.906862
 21
-5.214701
 12
-0.965736
 22
-5.230614
 13
-0.906862
 23
-5.246524
  0
POLYLINE
  8
PLAN_1
 62
     2
  6
CONTINUOUS
 66
     1
 40
0.003000
 41
0.003000
  0
VERTEX
  8
PLAN_1
 62
     2
  6
CONTINUOUS
 10
-0.965736
 20
-5.230614
  0
VERTEX
  8
PLAN_1
 62
     2
  6
CONTINUOUS
 10
-0.906862
 20
-5.214701
  0
VERTEX
  8
PLAN_1
 62
     2
  6
CONTINUOUS
 10
-0.906862
 20
-5.246524
  0
VERTEX
  8
PLAN_1
 62
     2
  6
CONTINUOUS
 10
-0.965736
 20
-5.230614
  0
SEQEND
  8
0
  0
POLYLINE
  8
PLAN_1
 62
     2
  6
CONTINUOUS
 66
     1
 40
0.003000
 41
0.003000
  0
VERTEX
  8
PLAN_1
 62
     2
  6
CONTINUOUS
 10
0.637362
 20
-5.167764
  0
VERTEX
  8
PLAN_1
 62
     2
  6
CONTINUOUS
 10
0.640547
 20
-5.169354
  0
VERTEX
  8
PLAN_1
 62
     2
  6
CONTINUOUS
 10
0.642933
 20
-5.171740
  0
VERTEX
  8
PLAN_1
 62
     2
  6
CONTINUOUS
 10
0.645319
 20
-5.174126
  0
VERTEX
  8
PLAN_1
 62
     2
  6
CONTINUOUS
 10
0.646909
 20
-5.176512
  0
VERTEX
  8
PLAN_1
 62
     2
  6
CONTINUOUS
 10
0.647705
 20
-5.178902
  0
VERTEX
  8
PLAN_1
 62
     2
  6
CONTINUOUS
 10
0.648500
 20
-5.181287
  0
VERTEX
  8
PLAN_1
 62
     2
  6
CONTINUOUS
 10
0.648500
 20
-5.183673
  0
VERTEX
  8
PLAN_1
 62
     2
  6
CONTINUOUS
 10
0.649299
 20
-5.185264
  0
VERTEX
  8
PLAN_1
 62
     2
  6
CONTINUOUS
 10
0.648500
 20
-5.190039
  0
VERTEX
  8
PLAN_1
 62
     2
  6
CONTINUOUS
 10
0.647705
 20
-5.194016
  0
VERTEX
  8
PLAN_1
 62
     2
  6
CONTINUOUS
 10
0.645319
 20
-5.197996
  0
VERTEX
  8
PLAN_1
 62
     2
  6
CONTINUOUS
 10
0.642933
 20
-5.201972
  0
VERTEX
  8
PLAN_1
 62
     2
  6
CONTINUOUS
 10
0.639752
 20
-5.204358
  0
VERTEX
  8
PLAN_1
 62
     2
  6
CONTINUOUS
 10
0.635772
 20
-5.206744
  0
VERTEX
  8
PLAN_1
 62
     2
  6
CONTINUOUS
 10
0.630205
 20
-5.208339
  0
VERTEX
  8
PLAN_1
 62
     2
  6
CONTINUOUS
 10
0.623839
 20
-5.209134
  0
VERTEX
  8
PLAN_1
 62
     2
  6
CONTINUOUS
 10
0.622248
 20
-5.208339
  0
VERTEX
  8
PLAN_1
 62
     2
  6
CONTINUOUS
 10
0.620657
 20
-5.208339
  0
VERTEX
  8
PLAN_1
 62
     2
  6
CONTINUOUS
 10
0.618272
 20
-5.208339
  0
VERTEX
  8
PLAN_1
 62
     2
  6
CONTINUOUS
 10
0.615882
 20
-5.207543
  0
VERTEX
  8
PLAN_1
 62
     2
  6
CONTINUOUS
 10
0.613496
 20
-5.206744
  0
VERTEX
  8
PLAN_1
 62
     2
  6
CONTINUOUS
 10
0.611110
 20
-5.205949
  0
VERTEX
  8
PLAN_1
 62
     2
  6
CONTINUOUS
 10
0.608724
 20
-5.204358
  0
VERTEX
  8
PLAN_1
 62
     2
  6
CONTINUOUS
 10
0.606335
 20
-5.202768
  0
VERTEX
  8
PLAN_1
 62
     2
  6
CONTINUOUS
 10
0.603949
 20
-5.201177
  0
VERTEX
  8
PLAN_1
 62
     2
  6
CONTINUOUS
 10
0.602358
 20
-5.198791
  0
VERTEX
  8
PLAN_1
 62
     2
  6
CONTINUOUS
 10
0.600768
 20
-5.195606
  0
VERTEX
  8
PLAN_1
 62
     2
  6
CONTINUOUS
 10
0.599972
 20
-5.193220
  0
VERTEX
  8
PLAN_1
 62
     2
  6
CONTINUOUS
 10
0.599177
 20
-5.191630
  0
VERTEX
  8
PLAN_1
 62
     2
  6
CONTINUOUS
 10
0.599177
 20
-5.189244
  0
VERTEX
  8
PLAN_1
 62
     2
  6
CONTINUOUS
 10
0.599177
 20
-5.187654
  0
VERTEX
  8
PLAN_1
 62
     2
  6
CONTINUOUS
 10
0.599177
 20
-5.186059
  0
VERTEX
  8
PLAN_1
 62
     2
  6
CONTINUOUS
 10
0.599177
 20
-5.182878
  0
VERTEX
  8
PLAN_1
 62
     2
  6
CONTINUOUS
 10
0.599972
 20
-5.179697
  0
VERTEX
  8
PLAN_1
 62
     2
  6
CONTINUOUS
 10
0.600768
 20
-5.177311
  0
VERTEX
  8
PLAN_1
 62
     2
  6
CONTINUOUS
 10
0.602358
 20
-5.174921
  0
VERTEX
  8
PLAN_1
 62
     2
  6
CONTINUOUS
 10
0.603949
 20
-5.172535
  0
VERTEX
  8
PLAN_1
 62
     2
  6
CONTINUOUS
 10
0.606335
 20
-5.170945
  0
VERTEX
  8
PLAN_1
 62
     2
  6
CONTINUOUS
 10
0.608724
 20
-5.169354
  0
VERTEX
  8
PLAN_1
 62
     2
  6
CONTINUOUS
 10
0.611906
 20
-5.167764
  0
VERTEX
  8
PLAN_1
 62
     2
  6
CONTINUOUS
 10
0.609520
 20
-5.166969
  0
VERTEX
  8
PLAN_1
 62
     2
  6
CONTINUOUS
 10
0.607130
 20
-5.165374
  0
VERTEX
  8
PLAN_1
 62
     2
  6
CONTINUOUS
 10
0.605539
 20
-5.164579
  0
VERTEX
  8
PLAN_1
 62
     2
  6
CONTINUOUS
 10
0.603949
 20
-5.162193
  0
VERTEX
  8
PLAN_1
 62
     2
  6
CONTINUOUS
 10
0.603154
 20
-5.160602
  0
VERTEX
  8
PLAN_1
 62
     2
  6
CONTINUOUS
 10
0.602358
 20
-5.158217
  0
VERTEX
  8
PLAN_1
 62
     2
  6
CONTINUOUS
 10
0.601563
 20
-5.155827
  0
VERTEX
  8
PLAN_1
 62
     2
  6
CONTINUOUS
 10
0.601563
 20
-5.153441
  0
VERTEX
  8
PLAN_1
 62
     2
  6
CONTINUOUS
 10
0.601563
 20
-5.151055
  0
VERTEX
  8
PLAN_1
 62
     2
  6
CONTINUOUS
 10
0.602358
 20
-5.147079
  0
VERTEX
  8
PLAN_1
 62
     2
  6
CONTINUOUS
 10
0.603949
 20
-5.143894
  0
VERTEX
  8
PLAN_1
 62
     2
  6
CONTINUOUS
 10
0.606335
 20
-5.140713
  0
VERTEX
  8
PLAN_1
 62
     2
  6
CONTINUOUS
 10
0.608724
 20
-5.138327
  0
VERTEX
  8
PLAN_1
 62
     2
  6
CONTINUOUS
 10
0.612701
 20
-5.135937
  0
VERTEX
  8
PLAN_1
 62
     2
  6
CONTINUOUS
 10
0.617472
 20
-5.134346
  0
VERTEX
  8
PLAN_1
 62
     2
  6
CONTINUOUS
 10
0.623839
 20
-5.133551
  0
VERTEX
  8
PLAN_1
 62
     2
  6
CONTINUOUS
 10
0.629409
 20
-5.134346
  0
VERTEX
  8
PLAN_1
 62
     2
  6
CONTINUOUS
 10
0.634181
 20
-5.135142
  0
VERTEX
  8
PLAN_1
 62
     2
  6
CONTINUOUS
 10
0.638157
 20
-5.137531
  0
VERTEX
  8
PLAN_1
 62
     2
  6
CONTINUOUS
 10
0.641343
 20
-5.139917
  0
VERTEX
  8
PLAN_1
 62
     2
  6
CONTINUOUS
 10
0.643728
 20
-5.143098
  0
VERTEX
  8
PLAN_1
 62
     2
  6
CONTINUOUS
 10
0.645319
 20
-5.146283
  0
VERTEX
  8
PLAN_1
 62
     2
  6
CONTINUOUS
 10
0.646114
 20
-5.149465
  0
VERTEX
  8
PLAN_1
 62
     2
  6
CONTINUOUS
 10
0.646114
 20
-5.152646
  0
VERTEX
  8
PLAN_1
 62
     2
  6
CONTINUOUS
 10
0.646114
 20
-5.155827
  0
VERTEX
  8
PLAN_1
 62
     2
  6
CONTINUOUS
 10
0.645319
 20
-5.159012
  0
VERTEX
  8
PLAN_1
 62
     2
  6
CONTINUOUS
 10
0.644524
 20
-5.161398
  0
VERTEX
  8
PLAN_1
 62
     2
  6
CONTINUOUS
 10
0.642933
 20
-5.163783
  0
VERTEX
  8
PLAN_1
 62
     2
  6
CONTINUOUS
 10
0.641343
 20
-5.165374
  0
VERTEX
  8
PLAN_1
 62
     2
  6
CONTINUOUS
 10
0.639752
 20
-5.166169
  0
VERTEX
  8
PLAN_1
 62
     2
  6
CONTINUOUS
 10
0.638157
 20
-5.166969
  0
VERTEX
  8
PLAN_1
 62
     2
  6
CONTINUOUS
 10
0.637362
 20
-5.167764
  0
SEQEND
  8
0
  0
POLYLINE
  8
PLAN_1
 62
     2
  6
CONTINUOUS
 66
     1
 40
0.003000
 41
0.003000
  0
VERTEX
  8
PLAN_1
 62
     2
  6
CONTINUOUS
 10
0.608724
 20
-5.186059
  0
VERTEX
  8
PLAN_1
 62
     2
  6
CONTINUOUS
 10
0.608724
 20
-5.188449
  0
VERTEX
  8
PLAN_1
 62
     2
  6
CONTINUOUS
 10
0.609520
 20
-5.190835
  0
VERTEX
  8
PLAN_1
 62
     2
  6
CONTINUOUS
 10
0.610315
 20
-5.193220
  0
VERTEX
  8
PLAN_1
 62
     2
  6
CONTINUOUS
 10
0.611906
 20
-5.195606
  0
VERTEX
  8
PLAN_1
 62
     2
  6
CONTINUOUS
 10
0.614291
 20
-5.197197
  0
VERTEX
  8
PLAN_1
 62
     2
  6
CONTINUOUS
 10
0.616677
 20
-5.198791
  0
VERTEX
  8
PLAN_1
 62
     2
  6
CONTINUOUS
 10
0.619862
 20
-5.200382
  0
VERTEX
  8
PLAN_1
 62
     2
  6
CONTINUOUS
 10
0.624634
 20
-5.200382
  0
VERTEX
  8
PLAN_1
 62
     2
  6
CONTINUOUS
 10
0.627020
 20
-5.200382
  0
VERTEX
  8
PLAN_1
 62
     2
  6
CONTINUOUS
 10
0.629409
 20
-5.199587
  0
VERTEX
  8
PLAN_1
 62
     2
  6
CONTINUOUS
 10
0.631795
 20
-5.198791
  0
VERTEX
  8
PLAN_1
 62
     2
  6
CONTINUOUS
 10
0.634181
 20
-5.197996
  0
VERTEX
  8
PLAN_1
 62
     2
  6
CONTINUOUS
 10
0.636567
 20
-5.196402
  0
VERTEX
  8
PLAN_1
 62
     2
  6
CONTINUOUS
 10
0.638157
 20
-5.194016
  0
VERTEX
  8
PLAN_1
 62
     2
  6
CONTINUOUS
 10
0.638957
 20
-5.190835
  0
VERTEX
  8
PLAN_1
 62
     2
  6
CONTINUOUS
 10
0.638957
 20
-5.186854
  0
VERTEX
  8
PLAN_1
 62
     2
  6
CONTINUOUS
 10
0.638957
 20
-5.182878
  0
VERTEX
  8
PLAN_1
 62
     2
  6
CONTINUOUS
 10
0.638157
 20
-5.180492
  0
VERTEX
  8
PLAN_1
 62
     2
  6
CONTINUOUS
 10
0.636567
 20
-5.178106
  0
VERTEX
  8
PLAN_1
 62
     2
  6
CONTINUOUS
 10
0.634976
 20
-5.175717
  0
VERTEX
  8
PLAN_1
 62
     2
  6
CONTINUOUS
 10
0.632591
 20
-5.174126
  0
VERTEX
  8
PLAN_1
 62
     2
  6
CONTINUOUS
 10
0.630205
 20
-5.173331
  0
VERTEX
  8
PLAN_1
 62
     2
  6
CONTINUOUS
 10
0.627020
 20
-5.172535
  0
VERTEX
  8
PLAN_1
 62
     2
  6
CONTINUOUS
 10
0.623839
 20
-5.172535
  0
VERTEX
  8
PLAN_1
 62
     2
  6
CONTINUOUS
 10
0.620657
 20
-5.172535
  0
VERTEX
  8
PLAN_1
 62
     2
  6
CONTINUOUS
 10
0.617472
 20
-5.173331
  0
VERTEX
  8
PLAN_1
 62
     2
  6
CONTINUOUS
 10
0.615087
 20
-5.174921
  0
VERTEX
  8
PLAN_1
 62
     2
  6
CONTINUOUS
 10
0.612701
 20
-5.176512
  0
VERTEX
  8
PLAN_1
 62
     2
  6
CONTINUOUS
 10
0.611110
 20
-5.178902
  0
VERTEX
  8
PLAN_1
 62
     2
  6
CONTINUOUS
 10
0.609520
 20
-5.181287
  0
VERTEX
  8
PLAN_1
 62
     2
  6
CONTINUOUS
 10
0.609520
 20
-5.183673
  0
VERTEX
  8
PLAN_1
 62
     2
  6
CONTINUOUS
 10
0.608724
 20
-5.186059
  0
SEQEND
  8
0
  0
POLYLINE
  8
PLAN_1
 62
     2
  6
CONTINUOUS
 66
     1
 40
0.003000
 41
0.003000
  0
VERTEX
  8
PLAN_1
 62
     2
  6
CONTINUOUS
 10
0.636567
 20
-5.152646
  0
VERTEX
  8
PLAN_1
 62
     2
  6
CONTINUOUS
 10
0.636567
 20
-5.151055
  0
VERTEX
  8
PLAN_1
 62
     2
  6
CONTINUOUS
 10
0.636567
 20
-5.149465
  0
VERTEX
  8
PLAN_1
 62
     2
  6
CONTINUOUS
 10
0.635772
 20
-5.147079
  0
VERTEX
  8
PLAN_1
 62
     2
  6
CONTINUOUS
 10
0.634181
 20
-5.145484
  0
VERTEX
  8
PLAN_1
 62
     2
  6
CONTINUOUS
 10
0.632591
 20
-5.143894
  0
VERTEX
  8
PLAN_1
 62
     2
  6
CONTINUOUS
 10
0.630205
 20
-5.143098
  0
VERTEX
  8
PLAN_1
 62
     2
  6
CONTINUOUS
 10
0.627020
 20
-5.142303
  0
VERTEX
  8
PLAN_1
 62
     2
  6
CONTINUOUS
 10
0.623043
 20
-5.141508
  0
VERTEX
  8
PLAN_1
 62
     2
  6
CONTINUOUS
 10
0.619862
 20
-5.142303
  0
VERTEX
  8
PLAN_1
 62
     2
  6
CONTINUOUS
 10
0.617472
 20
-5.143098
  0
VERTEX
  8
PLAN_1
 62
     2
  6
CONTINUOUS
 10
0.615087
 20
-5.143894
  0
VERTEX
  8
PLAN_1
 62
     2
  6
CONTINUOUS
 10
0.613496
 20
-5.145484
  0
VERTEX
  8
PLAN_1
 62
     2
  6
CONTINUOUS
 10
0.612701
 20
-5.147874
  0
VERTEX
  8
PLAN_1
 62
     2
  6
CONTINUOUS
 10
0.611906
 20
-5.149465
  0
VERTEX
  8
PLAN_1
 62
     2
  6
CONTINUOUS
 10
0.611110
 20
-5.151850
  0
VERTEX
  8
PLAN_1
 62
     2
  6
CONTINUOUS
 10
0.611110
 20
-5.153441
  0
VERTEX
  8
PLAN_1
 62
     2
  6
CONTINUOUS
 10
0.611110
 20
-5.155827
  0
VERTEX
  8
PLAN_1
 62
     2
  6
CONTINUOUS
 10
0.611906
 20
-5.158217
  0
VERTEX
  8
PLAN_1
 62
     2
  6
CONTINUOUS
 10
0.613496
 20
-5.159807
  0
VERTEX
  8
PLAN_1
 62
     2
  6
CONTINUOUS
 10
0.615087
 20
-5.161398
  0
VERTEX
  8
PLAN_1
 62
     2
  6
CONTINUOUS
 10
0.616677
 20
-5.162988
  0
VERTEX
  8
PLAN_1
 62
     2
  6
CONTINUOUS
 10
0.619067
 20
-5.163783
  0
VERTEX
  8
PLAN_1
 62
     2
  6
CONTINUOUS
 10
0.621453
 20
-5.164579
  0
VERTEX
  8
PLAN_1
 62
     2
  6
CONTINUOUS
 10
0.623839
 20
-5.164579
  0
VERTEX
  8
PLAN_1
 62
     2
  6
CONTINUOUS
 10
0.627020
 20
-5.164579
  0
VERTEX
  8
PLAN_1
 62
     2
  6
CONTINUOUS
 10
0.629409
 20
-5.163783
  0
VERTEX
  8
PLAN_1
 62
     2
  6
CONTINUOUS
 10
0.631795
 20
-5.162193
  0
VERTEX
  8
PLAN_1
 62
     2
  6
CONTINUOUS
 10
0.633386
 20
-5.161398
  0
VERTEX
  8
PLAN_1
 62
     2
  6
CONTINUOUS
 10
0.634976
 20
-5.159807
  0
VERTEX
  8
PLAN_1
 62
     2
  6
CONTINUOUS
 10
0.635772
 20
-5.157421
  0
VERTEX
  8
PLAN_1
 62
     2
  6
CONTINUOUS
 10
0.636567
 20
-5.155031
  0
VERTEX
  8
PLAN_1
 62
     2
  6
CONTINUOUS
 10
0.636567
 20
-5.152646
  0
SEQEND
  8
0
  0
POLYLINE
  8
PLAN_1
 62
     2
  6
CONTINUOUS
 66
     1
 40
0.003000
 41
0.003000
  0
VERTEX
  8
PLAN_1
 62
     2
  6
CONTINUOUS
 10
0.676346
 20
-5.165374
  0
VERTEX
  8
PLAN_1
 62
     2
  6
CONTINUOUS
 10
0.677142
 20
-5.165374
  0
VERTEX
  8
PLAN_1
 62
     2
  6
CONTINUOUS
 10
0.677937
 20
-5.165374
  0
VERTEX
  8
PLAN_1
 62
     2
  6
CONTINUOUS
 10
0.678732
 20
-5.165374
  0
VERTEX
  8
PLAN_1
 62
     2
  6
CONTINUOUS
 10
0.679531
 20
-5.165374
  0
VERTEX
  8
PLAN_1
 62
     2
  6
CONTINUOUS
 10
0.680327
 20
-5.165374
  0
VERTEX
  8
PLAN_1
 62
     2
  6
CONTINUOUS
 10
0.681122
 20
-5.165374
  0
VERTEX
  8
PLAN_1
 62
     2
  6
CONTINUOUS
 10
0.683508
 20
-5.165374
  0
VERTEX
  8
PLAN_1
 62
     2
  6
CONTINUOUS
 10
0.686689
 20
-5.164579
  0
VERTEX
  8
PLAN_1
 62
     2
  6
CONTINUOUS
 10
0.689075
 20
-5.163783
  0
VERTEX
  8
PLAN_1
 62
     2
  6
CONTINUOUS
 10
0.690669
 20
-5.162988
  0
VERTEX
  8
PLAN_1
 62
     2
  6
CONTINUOUS
 10
0.692260
 20
-5.161398
  0
VERTEX
  8
PLAN_1
 62
     2
  6
CONTINUOUS
 10
0.693850
 20
-5.159012
  0
VERTEX
  8
PLAN_1
 62
     2
  6
CONTINUOUS
 10
0.694646
 20
-5.156626
  0
VERTEX
  8
PLAN_1
 62
     2
  6
CONTINUOUS
 10
0.695441
 20
-5.153441
  0
VERTEX
  8
PLAN_1
 62
     2
  6
CONTINUOUS
 10
0.694646
 20
-5.151850
  0
VERTEX
  8
PLAN_1
 62
     2
  6
CONTINUOUS
 10
0.694646
 20
-5.149465
  0
VERTEX
  8
PLAN_1
 62
     2
  6
CONTINUOUS
 10
0.693850
 20
-5.147874
  0
VERTEX
  8
PLAN_1
 62
     2
  6
CONTINUOUS
 10
0.692260
 20
-5.146283
  0
VERTEX
  8
PLAN_1
 62
     2
  6
CONTINUOUS
 10
0.690669
 20
-5.144689
  0
VERTEX
  8
PLAN_1
 62
     2
  6
CONTINUOUS
 10
0.688280
 20
-5.143098
  0
VERTEX
  8
PLAN_1
 62
     2
  6
CONTINUOUS
 10
0.685098
 20
-5.142303
  0
VERTEX
  8
PLAN_1
 62
     2
  6
CONTINUOUS
 10
0.681917
 20
-5.141508
  0
VERTEX
  8
PLAN_1
 62
     2
  6
CONTINUOUS
 10
0.677142
 20
-5.142303
  0
VERTEX
  8
PLAN_1
 62
     2
  6
CONTINUOUS
 10
0.673961
 20
-5.143894
  0
VERTEX
  8
PLAN_1
 62
     2
  6
CONTINUOUS
 10
0.671575
 20
-5.145484
  0
VERTEX
  8
PLAN_1
 62
     2
  6
CONTINUOUS
 10
0.669984
 20
-5.147874
  0
VERTEX
  8
PLAN_1
 62
     2
  6
CONTINUOUS
 10
0.668390
 20
-5.150260
  0
VERTEX
  8
PLAN_1
 62
     2
  6
CONTINUOUS
 10
0.667594
 20
-5.152646
  0
VERTEX
  8
PLAN_1
 62
     2
  6
CONTINUOUS
 10
0.667594
 20
-5.155031
  0
VERTEX
  8
PLAN_1
 62
     2
  6
CONTINUOUS
 10
0.667594
 20
-5.157421
  0
VERTEX
  8
PLAN_1
 62
     2
  6
CONTINUOUS
 10
0.658047
 20
-5.157421
  0
VERTEX
  8
PLAN_1
 62
     2
  6
CONTINUOUS
 10
0.658843
 20
-5.153441
  0
VERTEX
  8
PLAN_1
 62
     2
  6
CONTINUOUS
 10
0.659642
 20
-5.149465
  0
VERTEX
  8
PLAN_1
 62
     2
  6
CONTINUOUS
 10
0.660437
 20
-5.145484
  0
VERTEX
  8
PLAN_1
 62
     2
  6
CONTINUOUS
 10
0.662823
 20
-5.141508
  0
VERTEX
  8
PLAN_1
 62
     2
  6
CONTINUOUS
 10
0.666004
 20
-5.138327
  0
VERTEX
  8
PLAN_1
 62
     2
  6
CONTINUOUS
 10
0.669984
 20
-5.135937
  0
VERTEX
  8
PLAN_1
 62
     2
  6
CONTINUOUS
 10
0.675551
 20
-5.134346
  0
VERTEX
  8
PLAN_1
 62
     2
  6
CONTINUOUS
 10
0.681917
 20
-5.133551
  0
VERTEX
  8
PLAN_1
 62
     2
  6
CONTINUOUS
 10
0.686689
 20
-5.134346
  0
VERTEX
  8
PLAN_1
 62
     2
  6
CONTINUOUS
 10
0.691465
 20
-5.135142
  0
VERTEX
  8
PLAN_1
 62
     2
  6
CONTINUOUS
 10
0.695441
 20
-5.136736
  0
VERTEX
  8
PLAN_1
 62
     2
  6
CONTINUOUS
 10
0.698622
 20
-5.139122
  0
VERTEX
  8
PLAN_1
 62
     2
  6
CONTINUOUS
 10
0.701012
 20
-5.142303
  0
VERTEX
  8
PLAN_1
 62
     2
  6
CONTINUOUS
 10
0.703398
 20
-5.145484
  0
VERTEX
  8
PLAN_1
 62
     2
  6
CONTINUOUS
 10
0.704193
 20
-5.148669
  0
VERTEX
  8
PLAN_1
 62
     2
  6
CONTINUOUS
 10
0.704988
 20
-5.152646
  0
VERTEX
  8
PLAN_1
 62
     2
  6
CONTINUOUS
 10
0.704193
 20
-5.155827
  0
VERTEX
  8
PLAN_1
 62
     2
  6
CONTINUOUS
 10
0.703398
 20
-5.159012
  0
VERTEX
  8
PLAN_1
 62
     2
  6
CONTINUOUS
 10
0.702602
 20
-5.161398
  0
VERTEX
  8
PLAN_1
 62
     2
  6
CONTINUOUS
 10
0.701012
 20
-5.163783
  0
VERTEX
  8
PLAN_1
 62
     2
  6
CONTINUOUS
 10
0.700217
 20
-5.165374
  0
VERTEX
  8
PLAN_1
 62
     2
  6
CONTINUOUS
 10
0.698622
 20
-5.166169
  0
VERTEX
  8
PLAN_1
 62
     2
  6
CONTINUOUS
 10
0.697031
 20
-5.166969
  0
VERTEX
  8
PLAN_1
 62
     2
  6
CONTINUOUS
 10
0.695441
 20
-5.167764
  0
VERTEX
  8
PLAN_1
 62
     2
  6
CONTINUOUS
 10
0.695441
 20
-5.168559
  0
VERTEX
  8
PLAN_1
 62
     2
  6
CONTINUOUS
 10
0.697827
 20
-5.169354
  0
VERTEX
  8
PLAN_1
 62
     2
  6
CONTINUOUS
 10
0.700217
 20
-5.170150
  0
VERTEX
  8
PLAN_1
 62
     2
  6
CONTINUOUS
 10
0.701807
 20
-5.171740
  0
VERTEX
  8
PLAN_1
 62
     2
  6
CONTINUOUS
 10
0.704193
 20
-5.174126
  0
VERTEX
  8
PLAN_1
 62
     2
  6
CONTINUOUS
 10
0.705783
 20
-5.176512
  0
VERTEX
  8
PLAN_1
 62
     2
  6
CONTINUOUS
 10
0.706579
 20
-5.178902
  0
VERTEX
  8
PLAN_1
 62
     2
  6
CONTINUOUS
 10
0.707374
 20
-5.182083
  0
VERTEX
  8
PLAN_1
 62
     2
  6
CONTINUOUS
 10
0.707374
 20
-5.185264
  0
VERTEX
  8
PLAN_1
 62
     2
  6
CONTINUOUS
 10
0.707374
 20
-5.190039
  0
VERTEX
  8
PLAN_1
 62
     2
  6
CONTINUOUS
 10
0.705783
 20
-5.194016
  0
VERTEX
  8
PLAN_1
 62
     2
  6
CONTINUOUS
 10
0.704193
 20
-5.197996
  0
VERTEX
  8
PLAN_1
 62
     2
  6
CONTINUOUS
 10
0.701012
 20
-5.201177
  0
VERTEX
  8
PLAN_1
 62
     2
  6
CONTINUOUS
 10
0.697827
 20
-5.204358
  0
VERTEX
  8
PLAN_1
 62
     2
  6
CONTINUOUS
 10
0.693055
 20
-5.206744
  0
VERTEX
  8
PLAN_1
 62
     2
  6
CONTINUOUS
 10
0.687484
 20
-5.208339
  0
VERTEX
  8
PLAN_1
 62
     2
  6
CONTINUOUS
 10
0.681122
 20
-5.209134
  0
VERTEX
  8
PLAN_1
 62
     2
  6
CONTINUOUS
 10
0.678732
 20
-5.208339
  0
VERTEX
  8
PLAN_1
 62
     2
  6
CONTINUOUS
 10
0.677142
 20
-5.208339
  0
VERTEX
  8
PLAN_1
 62
     2
  6
CONTINUOUS
 10
0.675551
 20
-5.208339
  0
VERTEX
  8
PLAN_1
 62
     2
  6
CONTINUOUS
 10
0.673961
 20
-5.207543
  0
VERTEX
  8
PLAN_1
 62
     2
  6
CONTINUOUS
 10
0.671575
 20
-5.207543
  0
VERTEX
  8
PLAN_1
 62
     2
  6
CONTINUOUS
 10
0.670780
 20
-5.206744
  0
VERTEX
  8
PLAN_1
 62
     2
  6
CONTINUOUS
 10
0.669185
 20
-5.205949
  0
VERTEX
  8
PLAN_1
 62
     2
  6
CONTINUOUS
 10
0.667594
 20
-5.205154
  0
VERTEX
  8
PLAN_1
 62
     2
  6
CONTINUOUS
 10
0.664413
 20
-5.203563
  0
VERTEX
  8
PLAN_1
 62
     2
  6
CONTINUOUS
 10
0.662823
 20
-5.201972
  0
VERTEX
  8
PLAN_1
 62
     2
  6
CONTINUOUS
 10
0.660437
 20
-5.199587
  0
VERTEX
  8
PLAN_1
 62
     2
  6
CONTINUOUS
 10
0.659642
 20
-5.196402
  0
VERTEX
  8
PLAN_1
 62
     2
  6
CONTINUOUS
 10
0.658047
 20
-5.194016
  0
VERTEX
  8
PLAN_1
 62
     2
  6
CONTINUOUS
 10
0.657252
 20
-5.190835
  0
VERTEX
  8
PLAN_1
 62
     2
  6
CONTINUOUS
 10
0.657252
 20
-5.187654
  0
VERTEX
  8
PLAN_1
 62
     2
  6
CONTINUOUS
 10
0.656457
 20
-5.184469
  0
VERTEX
  8
PLAN_1
 62
     2
  6
CONTINUOUS
 10
0.666004
 20
-5.184469
  0
VERTEX
  8
PLAN_1
 62
     2
  6
CONTINUOUS
 10
0.666004
 20
-5.186854
  0
VERTEX
  8
PLAN_1
 62
     2
  6
CONTINUOUS
 10
0.666799
 20
-5.190039
  0
VERTEX
  8
PLAN_1
 62
     2
  6
CONTINUOUS
 10
0.667594
 20
-5.192425
  0
VERTEX
  8
PLAN_1
 62
     2
  6
CONTINUOUS
 10
0.669185
 20
-5.194811
  0
VERTEX
  8
PLAN_1
 62
     2
  6
CONTINUOUS
 10
0.670780
 20
-5.197197
  0
VERTEX
  8
PLAN_1
 62
     2
  6
CONTINUOUS
 10
0.673961
 20
-5.198791
  0
VERTEX
  8
PLAN_1
 62
     2
  6
CONTINUOUS
 10
0.677142
 20
-5.200382
  0
VERTEX
  8
PLAN_1
 62
     2
  6
CONTINUOUS
 10
0.681917
 20
-5.200382
  0
VERTEX
  8
PLAN_1
 62
     2
  6
CONTINUOUS
 10
0.685098
 20
-5.200382
  0
VERTEX
  8
PLAN_1
 62
     2
  6
CONTINUOUS
 10
0.688280
 20
-5.199587
  0
VERTEX
  8
PLAN_1
 62
     2
  6
CONTINUOUS
 10
0.690669
 20
-5.197996
  0
VERTEX
  8
PLAN_1
 62
     2
  6
CONTINUOUS
 10
0.693055
 20
-5.196402
  0
VERTEX
  8
PLAN_1
 62
     2
  6
CONTINUOUS
 10
0.695441
 20
-5.194811
  0
VERTEX
  8
PLAN_1
 62
     2
  6
CONTINUOUS
 10
0.696236
 20
-5.192425
  0
VERTEX
  8
PLAN_1
 62
     2
  6
CONTINUOUS
 10
0.697031
 20
-5.189244
  0
VERTEX
  8
PLAN_1
 62
     2
  6
CONTINUOUS
 10
0.697827
 20
-5.186059
  0
VERTEX
  8
PLAN_1
 62
     2
  6
CONTINUOUS
 10
0.697031
 20
-5.182083
  0
VERTEX
  8
PLAN_1
 62
     2
  6
CONTINUOUS
 10
0.696236
 20
-5.178902
  0
VERTEX
  8
PLAN_1
 62
     2
  6
CONTINUOUS
 10
0.693850
 20
-5.176512
  0
VERTEX
  8
PLAN_1
 62
     2
  6
CONTINUOUS
 10
0.691465
 20
-5.174921
  0
VERTEX
  8
PLAN_1
 62
     2
  6
CONTINUOUS
 10
0.689075
 20
-5.174126
  0
VERTEX
  8
PLAN_1
 62
     2
  6
CONTINUOUS
 10
0.685894
 20
-5.173331
  0
VERTEX
  8
PLAN_1
 62
     2
  6
CONTINUOUS
 10
0.682713
 20
-5.173331
  0
VERTEX
  8
PLAN_1
 62
     2
  6
CONTINUOUS
 10
0.680327
 20
-5.173331
  0
VERTEX
  8
PLAN_1
 62
     2
  6
CONTINUOUS
 10
0.679531
 20
-5.173331
  0
VERTEX
  8
PLAN_1
 62
     2
  6
CONTINUOUS
 10
0.678732
 20
-5.173331
  0
VERTEX
  8
PLAN_1
 62
     2
  6
CONTINUOUS
 10
0.677937
 20
-5.173331
  0
VERTEX
  8
PLAN_1
 62
     2
  6
CONTINUOUS
 10
0.677142
 20
-5.173331
  0
VERTEX
  8
PLAN_1
 62
     2
  6
CONTINUOUS
 10
0.676346
 20
-5.173331
  0
VERTEX
  8
PLAN_1
 62
     2
  6
CONTINUOUS
 10
0.676346
 20
-5.165374
  0
SEQEND
  8
0
  0
POLYLINE
  8
PLAN_1
 62
     2
  6
CONTINUOUS
 66
     1
 40
0.003976
 41
0.003976
  0
VERTEX
  8
PLAN_1
 62
     2
  6
CONTINUOUS
 10
2.272287
 20
-4.664157
  0
VERTEX
  8
PLAN_1
 62
     2
  6
CONTINUOUS
 10
2.272287
 20
-5.253685
  0
SEQEND
  8
0
  0
POLYLINE
  8
PLAN_1
 62
     2
  6
CONTINUOUS
 66
     1
 40
0.003976
 41
0.003976
  0
VERTEX
  8
PLAN_1
 62
     2
  6
CONTINUOUS
 10
-0.965736
 20
-5.097752
  0
VERTEX
  8
PLAN_1
 62
     2
  6
CONTINUOUS
 10
-0.965736
 20
-5.411209
  0
SEQEND
  8
0
  0
POLYLINE
  8
PLAN_1
 62
     2
  6
CONTINUOUS
 66
     1
 40
0.003976
 41
0.003976
  0
VERTEX
  8
PLAN_1
 62
     2
  6
CONTINUOUS
 10
2.458453
 20
-5.036492
  0
VERTEX
  8
PLAN_1
 62
     2
  6
CONTINUOUS
 10
2.458453
 20
-5.411209
  0
SEQEND
  8
0
  0
POLYLINE
  8
PLAN_1
 62
     2
  6
CONTINUOUS
 66
     1
 40
0.003976
 41
0.003976
  0
VERTEX
  8
PLAN_1
 62
     2
  6
CONTINUOUS
 10
-1.900543
 20
6.267937
  0
VERTEX
  8
PLAN_1
 62
     2
  6
CONTINUOUS
 10
2.421854
 20
6.267937
  0
SEQEND
  8
0
  0
SOLID
  8
PLAN_1
 62
     2
 10
2.451291
 20
6.267937
 11
2.391622
 21
6.283850
 12
2.451291
 22
6.267937
 13
2.391622
 23
6.252823
  0
POLYLINE
  8
PLAN_1
 62
     2
  6
CONTINUOUS
 66
     1
 40
0.003000
 41
0.003000
  0
VERTEX
  8
PLAN_1
 62
     2
  6
CONTINUOUS
 10
2.451291
 20
6.267937
  0
VERTEX
  8
PLAN_1
 62
     2
  6
CONTINUOUS
 10
2.391622
 20
6.283850
  0
VERTEX
  8
PLAN_1
 62
     2
  6
CONTINUOUS
 10
2.391622
 20
6.252823
  0
VERTEX
  8
PLAN_1
 62
     2
  6
CONTINUOUS
 10
2.451291
 20
6.267937
  0
SEQEND
  8
0
  0
SOLID
  8
PLAN_1
 62
     2
 10
-1.929980
 20
6.267937
 11
-1.871106
 21
6.283850
 12
-1.929980
 22
6.267937
 13
-1.871106
 23
6.252823
  0
POLYLINE
  8
PLAN_1
 62
     2
  6
CONTINUOUS
 66
     1
 40
0.003000
 41
0.003000
  0
VERTEX
  8
PLAN_1
 62
     2
  6
CONTINUOUS
 10
-1.929980
 20
6.267937
  0
VERTEX
  8
PLAN_1
 62
     2
  6
CONTINUOUS
 10
-1.871106
 20
6.283850
  0
VERTEX
  8
PLAN_1
 62
     2
  6
CONTINUOUS
 10
-1.871106
 20
6.252823
  0
VERTEX
  8
PLAN_1
 62
     2
  6
CONTINUOUS
 10
-1.929980
 20
6.267937
  0
SEQEND
  8
0
  0
POLYLINE
  8
PLAN_1
 62
     2
  6
CONTINUOUS
 66
     1
 40
0.003000
 41
0.003000
  0
VERTEX
  8
PLAN_1
 62
     2
  6
CONTINUOUS
 10
0.210933
 20
6.291807
  0
VERTEX
  8
PLAN_1
 62
     2
  6
CONTINUOUS
 10
0.201386
 20
6.291807
  0
VERTEX
  8
PLAN_1
 62
     2
  6
CONTINUOUS
 10
0.201386
 20
6.343520
  0
VERTEX
  8
PLAN_1
 62
     2
  6
CONTINUOUS
 10
0.183882
 20
6.343520
  0
VERTEX
  8
PLAN_1
 62
     2
  6
CONTINUOUS
 10
0.183882
 20
6.350681
  0
VERTEX
  8
PLAN_1
 62
     2
  6
CONTINUOUS
 10
0.187858
 20
6.351476
  0
VERTEX
  8
PLAN_1
 62
     2
  6
CONTINUOUS
 10
0.191839
 20
6.352272
  0
VERTEX
  8
PLAN_1
 62
     2
  6
CONTINUOUS
 10
0.195020
 20
6.353067
  0
VERTEX
  8
PLAN_1
 62
     2
  6
CONTINUOUS
 10
0.197406
 20
6.353862
  0
VERTEX
  8
PLAN_1
 62
     2
  6
CONTINUOUS
 10
0.198996
 20
6.355453
  0
VERTEX
  8
PLAN_1
 62
     2
  6
CONTINUOUS
 10
0.201386
 20
6.357839
  0
VERTEX
  8
PLAN_1
 62
     2
  6
CONTINUOUS
 10
0.202181
 20
6.361024
  0
VERTEX
  8
PLAN_1
 62
     2
  6
CONTINUOUS
 10
0.203772
 20
6.365000
  0
VERTEX
  8
PLAN_1
 62
     2
  6
CONTINUOUS
 10
0.210933
 20
6.365000
  0
VERTEX
  8
PLAN_1
 62
     2
  6
CONTINUOUS
 10
0.210933
 20
6.291807
  0
SEQEND
  8
0
  0
POLYLINE
  8
PLAN_1
 62
     2
  6
CONTINUOUS
 66
     1
 40
0.003000
 41
0.003000
  0
VERTEX
  8
PLAN_1
 62
     2
  6
CONTINUOUS
 10
0.260256
 20
6.290217
  0
VERTEX
  8
PLAN_1
 62
     2
  6
CONTINUOUS
 10
0.256280
 20
6.290217
  0
VERTEX
  8
PLAN_1
 62
     2
  6
CONTINUOUS
 10
0.253098
 20
6.291012
  0
VERTEX
  8
PLAN_1
 62
     2
  6
CONTINUOUS
 10
0.249913
 20
6.291807
  0
VERTEX
  8
PLAN_1
 62
     2
  6
CONTINUOUS
 10
0.247528
 20
6.293398
  0
VERTEX
  8
PLAN_1
 62
     2
  6
CONTINUOUS
 10
0.243551
 20
6.297374
  0
VERTEX
  8
PLAN_1
 62
     2
  6
CONTINUOUS
 10
0.239571
 20
6.302945
  0
VERTEX
  8
PLAN_1
 62
     2
  6
CONTINUOUS
 10
0.237980
 20
6.308512
  0
VERTEX
  8
PLAN_1
 62
     2
  6
CONTINUOUS
 10
0.236390
 20
6.314878
  0
VERTEX
  8
PLAN_1
 62
     2
  6
CONTINUOUS
 10
0.235594
 20
6.321244
  0
VERTEX
  8
PLAN_1
 62
     2
  6
CONTINUOUS
 10
0.235594
 20
6.327606
  0
VERTEX
  8
PLAN_1
 62
     2
  6
CONTINUOUS
 10
0.235594
 20
6.333177
  0
VERTEX
  8
PLAN_1
 62
     2
  6
CONTINUOUS
 10
0.236390
 20
6.339543
  0
VERTEX
  8
PLAN_1
 62
     2
  6
CONTINUOUS
 10
0.237980
 20
6.345906
  0
VERTEX
  8
PLAN_1
 62
     2
  6
CONTINUOUS
 10
0.239571
 20
6.352272
  0
VERTEX
  8
PLAN_1
 62
     2
  6
CONTINUOUS
 10
0.243551
 20
6.357043
  0
VERTEX
  8
PLAN_1
 62
     2
  6
CONTINUOUS
 10
0.247528
 20
6.361024
  0
VERTEX
  8
PLAN_1
 62
     2
  6
CONTINUOUS
 10
0.249913
 20
6.362614
  0
VERTEX
  8
PLAN_1
 62
     2
  6
CONTINUOUS
 10
0.253098
 20
6.364205
  0
VERTEX
  8
PLAN_1
 62
     2
  6
CONTINUOUS
 10
0.256280
 20
6.365000
  0
VERTEX
  8
PLAN_1
 62
     2
  6
CONTINUOUS
 10
0.260256
 20
6.365000
  0
VERTEX
  8
PLAN_1
 62
     2
  6
CONTINUOUS
 10
0.264236
 20
6.365000
  0
VERTEX
  8
PLAN_1
 62
     2
  6
CONTINUOUS
 10
0.267417
 20
6.364205
  0
VERTEX
  8
PLAN_1
 62
     2
  6
CONTINUOUS
 10
0.270598
 20
6.362614
  0
VERTEX
  8
PLAN_1
 62
     2
  6
CONTINUOUS
 10
0.272988
 20
6.361024
  0
VERTEX
  8
PLAN_1
 62
     2
  6
CONTINUOUS
 10
0.277760
 20
6.357043
  0
VERTEX
  8
PLAN_1
 62
     2
  6
CONTINUOUS
 10
0.280941
 20
6.352272
  0
VERTEX
  8
PLAN_1
 62
     2
  6
CONTINUOUS
 10
0.283331
 20
6.345906
  0
VERTEX
  8
PLAN_1
 62
     2
  6
CONTINUOUS
 10
0.284126
 20
6.339543
  0
VERTEX
  8
PLAN_1
 62
     2
  6
CONTINUOUS
 10
0.284921
 20
6.333177
  0
VERTEX
  8
PLAN_1
 62
     2
  6
CONTINUOUS
 10
0.285717
 20
6.327606
  0
VERTEX
  8
PLAN_1
 62
     2
  6
CONTINUOUS
 10
0.284921
 20
6.321244
  0
VERTEX
  8
PLAN_1
 62
     2
  6
CONTINUOUS
 10
0.284126
 20
6.314878
  0
VERTEX
  8
PLAN_1
 62
     2
  6
CONTINUOUS
 10
0.283331
 20
6.308512
  0
VERTEX
  8
PLAN_1
 62
     2
  6
CONTINUOUS
 10
0.280941
 20
6.302945
  0
VERTEX
  8
PLAN_1
 62
     2
  6
CONTINUOUS
 10
0.277760
 20
6.297374
  0
VERTEX
  8
PLAN_1
 62
     2
  6
CONTINUOUS
 10
0.272988
 20
6.293398
  0
VERTEX
  8
PLAN_1
 62
     2
  6
CONTINUOUS
 10
0.270598
 20
6.291807
  0
VERTEX
  8
PLAN_1
 62
     2
  6
CONTINUOUS
 10
0.267417
 20
6.291012
  0
VERTEX
  8
PLAN_1
 62
     2
  6
CONTINUOUS
 10
0.264236
 20
6.290217
  0
VERTEX
  8
PLAN_1
 62
     2
  6
CONTINUOUS
 10
0.260256
 20
6.290217
  0
SEQEND
  8
0
  0
POLYLINE
  8
PLAN_1
 62
     2
  6
CONTINUOUS
 66
     1
 40
0.003000
 41
0.003000
  0
VERTEX
  8
PLAN_1
 62
     2
  6
CONTINUOUS
 10
0.260256
 20
6.357043
  0
VERTEX
  8
PLAN_1
 62
     2
  6
CONTINUOUS
 10
0.256280
 20
6.356248
  0
VERTEX
  8
PLAN_1
 62
     2
  6
CONTINUOUS
 10
0.253894
 20
6.354657
  0
VERTEX
  8
PLAN_1
 62
     2
  6
CONTINUOUS
 10
0.250713
 20
6.352272
  0
VERTEX
  8
PLAN_1
 62
     2
  6
CONTINUOUS
 10
0.249118
 20
6.349087
  0
VERTEX
  8
PLAN_1
 62
     2
  6
CONTINUOUS
 10
0.246732
 20
6.345110
  0
VERTEX
  8
PLAN_1
 62
     2
  6
CONTINUOUS
 10
0.245937
 20
6.339543
  0
VERTEX
  8
PLAN_1
 62
     2
  6
CONTINUOUS
 10
0.245142
 20
6.333972
  0
VERTEX
  8
PLAN_1
 62
     2
  6
CONTINUOUS
 10
0.245142
 20
6.327606
  0
VERTEX
  8
PLAN_1
 62
     2
  6
CONTINUOUS
 10
0.245142
 20
6.321244
  0
VERTEX
  8
PLAN_1
 62
     2
  6
CONTINUOUS
 10
0.245937
 20
6.314878
  0
VERTEX
  8
PLAN_1
 62
     2
  6
CONTINUOUS
 10
0.246732
 20
6.310106
  0
VERTEX
  8
PLAN_1
 62
     2
  6
CONTINUOUS
 10
0.249118
 20
6.306126
  0
VERTEX
  8
PLAN_1
 62
     2
  6
CONTINUOUS
 10
0.250713
 20
6.302945
  0
VERTEX
  8
PLAN_1
 62
     2
  6
CONTINUOUS
 10
0.253894
 20
6.299764
  0
VERTEX
  8
PLAN_1
 62
     2
  6
CONTINUOUS
 10
0.256280
 20
6.298969
  0
VERTEX
  8
PLAN_1
 62
     2
  6
CONTINUOUS
 10
0.260256
 20
6.298169
  0
VERTEX
  8
PLAN_1
 62
     2
  6
CONTINUOUS
 10
0.264236
 20
6.298969
  0
VERTEX
  8
PLAN_1
 62
     2
  6
CONTINUOUS
 10
0.267417
 20
6.299764
  0
VERTEX
  8
PLAN_1
 62
     2
  6
CONTINUOUS
 10
0.269803
 20
6.302945
  0
VERTEX
  8
PLAN_1
 62
     2
  6
CONTINUOUS
 10
0.272193
 20
6.306126
  0
VERTEX
  8
PLAN_1
 62
     2
  6
CONTINUOUS
 10
0.273783
 20
6.310106
  0
VERTEX
  8
PLAN_1
 62
     2
  6
CONTINUOUS
 10
0.274579
 20
6.314878
  0
VERTEX
  8
PLAN_1
 62
     2
  6
CONTINUOUS
 10
0.275374
 20
6.321244
  0
VERTEX
  8
PLAN_1
 62
     2
  6
CONTINUOUS
 10
0.275374
 20
6.327606
  0
VERTEX
  8
PLAN_1
 62
     2
  6
CONTINUOUS
 10
0.275374
 20
6.333972
  0
VERTEX
  8
PLAN_1
 62
     2
  6
CONTINUOUS
 10
0.274579
 20
6.339543
  0
VERTEX
  8
PLAN_1
 62
     2
  6
CONTINUOUS
 10
0.273783
 20
6.345110
  0
VERTEX
  8
PLAN_1
 62
     2
  6
CONTINUOUS
 10
0.272193
 20
6.349087
  0
VERTEX
  8
PLAN_1
 62
     2
  6
CONTINUOUS
 10
0.269803
 20
6.352272
  0
VERTEX
  8
PLAN_1
 62
     2
  6
CONTINUOUS
 10
0.267417
 20
6.354657
  0
VERTEX
  8
PLAN_1
 62
     2
  6
CONTINUOUS
 10
0.264236
 20
6.356248
  0
VERTEX
  8
PLAN_1
 62
     2
  6
CONTINUOUS
 10
0.260256
 20
6.357043
  0
SEQEND
  8
0
  0
POLYLINE
  8
PLAN_1
 62
     2
  6
CONTINUOUS
 66
     1
 40
0.003000
 41
0.003000
  0
VERTEX
  8
PLAN_1
 62
     2
  6
CONTINUOUS
 10
0.292878
 20
6.363409
  0
VERTEX
  8
PLAN_1
 62
     2
  6
CONTINUOUS
 10
0.343795
 20
6.363409
  0
VERTEX
  8
PLAN_1
 62
     2
  6
CONTINUOUS
 10
0.343795
 20
6.355453
  0
VERTEX
  8
PLAN_1
 62
     2
  6
CONTINUOUS
 10
0.340610
 20
6.351476
  0
VERTEX
  8
PLAN_1
 62
     2
  6
CONTINUOUS
 10
0.336634
 20
6.346701
  0
VERTEX
  8
PLAN_1
 62
     2
  6
CONTINUOUS
 10
0.332657
 20
6.340339
  0
VERTEX
  8
PLAN_1
 62
     2
  6
CONTINUOUS
 10
0.327882
 20
6.333177
  0
VERTEX
  8
PLAN_1
 62
     2
  6
CONTINUOUS
 10
0.323906
 20
6.324425
  0
VERTEX
  8
PLAN_1
 62
     2
  6
CONTINUOUS
 10
0.319925
 20
6.314878
  0
VERTEX
  8
PLAN_1
 62
     2
  6
CONTINUOUS
 10
0.315949
 20
6.303740
  0
VERTEX
  8
PLAN_1
 62
     2
  6
CONTINUOUS
 10
0.313563
 20
6.291807
  0
VERTEX
  8
PLAN_1
 62
     2
  6
CONTINUOUS
 10
0.303220
 20
6.291807
  0
VERTEX
  8
PLAN_1
 62
     2
  6
CONTINUOUS
 10
0.304811
 20
6.299764
  0
VERTEX
  8
PLAN_1
 62
     2
  6
CONTINUOUS
 10
0.307197
 20
6.307717
  0
VERTEX
  8
PLAN_1
 62
     2
  6
CONTINUOUS
 10
0.310378
 20
6.316469
  0
VERTEX
  8
PLAN_1
 62
     2
  6
CONTINUOUS
 10
0.314358
 20
6.324425
  0
VERTEX
  8
PLAN_1
 62
     2
  6
CONTINUOUS
 10
0.318335
 20
6.333177
  0
VERTEX
  8
PLAN_1
 62
     2
  6
CONTINUOUS
 10
0.323110
 20
6.340339
  0
VERTEX
  8
PLAN_1
 62
     2
  6
CONTINUOUS
 10
0.327882
 20
6.348291
  0
VERTEX
  8
PLAN_1
 62
     2
  6
CONTINUOUS
 10
0.333453
 20
6.354657
  0
VERTEX
  8
PLAN_1
 62
     2
  6
CONTINUOUS
 10
0.292878
 20
6.354657
  0
VERTEX
  8
PLAN_1
 62
     2
  6
CONTINUOUS
 10
0.292878
 20
6.363409
  0
SEQEND
  8
0
  0
POLYLINE
  8
PLAN_1
 62
     2
  6
CONTINUOUS
 66
     1
 40
0.003976
 41
0.003976
  0
VERTEX
  8
PLAN_1
 62
     2
  6
CONTINUOUS
 10
-1.929980
 20
6.291807
  0
VERTEX
  8
PLAN_1
 62
     2
  6
CONTINUOUS
 10
-1.929980
 20
6.133484
  0
SEQEND
  8
0
  0
POLYLINE
  8
PLAN_1
 62
     2
  6
CONTINUOUS
 66
     1
 40
0.003976
 41
0.003976
  0
VERTEX
  8
PLAN_1
 62
     2
  6
CONTINUOUS
 10
2.451291
 20
6.291807
  0
VERTEX
  8
PLAN_1
 62
     2
  6
CONTINUOUS
 10
2.451291
 20
0.617713
  0
SEQEND
  8
0
  0
POLYLINE
  8
PLAN_1
 62
     2
  6
CONTINUOUS
 66
     1
 40
0.003976
 41
0.003976
  0
VERTEX
  8
PLAN_1
 62
     2
  6
CONTINUOUS
 10
-1.124850
 20
4.097591
  0
VERTEX
  8
PLAN_1
 62
     2
  6
CONTINUOUS
 10
-2.517122
 20
4.097591
  0
SEQEND
  8
0
  0
SOLID
  8
PLAN_1
 62
     2
 10
-2.487685
 20
4.097591
 11
-2.546555
 21
4.113500
 12
-2.487685
 22
4.097591
 13
-2.546555
 23
4.081677
  0
POLYLINE
  8
PLAN_1
 62
     2
  6
CONTINUOUS
 66
     1
 40
0.003000
 41
0.003000
  0
VERTEX
  8
PLAN_1
 62
     2
  6
CONTINUOUS
 10
-2.487685
 20
4.097591
  0
VERTEX
  8
PLAN_1
 62
     2
  6
CONTINUOUS
 10
-2.546555
 20
4.113500
  0
VERTEX
  8
PLAN_1
 62
     2
  6
CONTINUOUS
 10
-2.546555
 20
4.081677
  0
VERTEX
  8
PLAN_1
 62
     2
  6
CONTINUOUS
 10
-2.487685
 20
4.097591
  0
SEQEND
  8
0
  0
SOLID
  8
PLAN_1
 62
     2
 10
-1.403303
 20
4.097591
 11
-1.344433
 21
4.113500
 12
-1.403303
 22
4.097591
 13
-1.344433
 23
4.081677
  0
POLYLINE
  8
PLAN_1
 62
     2
  6
CONTINUOUS
 66
     1
 40
0.003000
 41
0.003000
  0
VERTEX
  8
PLAN_1
 62
     2
  6
CONTINUOUS
 10
-1.403303
 20
4.097591
  0
VERTEX
  8
PLAN_1
 62
     2
  6
CONTINUOUS
 10
-1.344433
 20
4.113500
  0
VERTEX
  8
PLAN_1
 62
     2
  6
CONTINUOUS
 10
-1.344433
 20
4.081677
  0
VERTEX
  8
PLAN_1
 62
     2
  6
CONTINUOUS
 10
-1.403303
 20
4.097591
  0
SEQEND
  8
0
  0
POLYLINE
  8
PLAN_1
 62
     2
  6
CONTINUOUS
 66
     1
 40
0.003000
 41
0.003000
  0
VERTEX
  8
PLAN_1
 62
     2
  6
CONTINUOUS
 10
-1.265669
 20
4.185102
  0
VERTEX
  8
PLAN_1
 62
     2
  6
CONTINUOUS
 10
-1.264079
 20
4.181921
  0
VERTEX
  8
PLAN_1
 62
     2
  6
CONTINUOUS
 10
-1.261693
 20
4.178740
  0
VERTEX
  8
PLAN_1
 62
     2
  6
CONTINUOUS
 10
-1.260098
 20
4.175559
  0
VERTEX
  8
PLAN_1
 62
     2
  6
CONTINUOUS
 10
-1.259303
 20
4.172374
  0
VERTEX
  8
PLAN_1
 62
     2
  6
CONTINUOUS
 10
-1.258508
 20
4.168398
  0
VERTEX
  8
PLAN_1
 62
     2
  6
CONTINUOUS
 10
-1.257713
 20
4.165217
  0
VERTEX
  8
PLAN_1
 62
     2
  6
CONTINUOUS
 10
-1.257713
 20
4.162031
  0
VERTEX
  8
PLAN_1
 62
     2
  6
CONTINUOUS
 10
-1.257713
 20
4.158850
  0
VERTEX
  8
PLAN_1
 62
     2
  6
CONTINUOUS
 10
-1.257713
 20
4.152484
  0
VERTEX
  8
PLAN_1
 62
     2
  6
CONTINUOUS
 10
-1.259303
 20
4.145327
  0
VERTEX
  8
PLAN_1
 62
     2
  6
CONTINUOUS
 10
-1.261693
 20
4.138961
  0
VERTEX
  8
PLAN_1
 62
     2
  6
CONTINUOUS
 10
-1.264874
 20
4.132594
  0
VERTEX
  8
PLAN_1
 62
     2
  6
CONTINUOUS
 10
-1.267260
 20
4.130209
  0
VERTEX
  8
PLAN_1
 62
     2
  6
CONTINUOUS
 10
-1.269646
 20
4.127823
  0
VERTEX
  8
PLAN_1
 62
     2
  6
CONTINUOUS
 10
-1.272831
 20
4.125437
  0
VERTEX
  8
PLAN_1
 62
     2
  6
CONTINUOUS
 10
-1.276012
 20
4.123047
  0
VERTEX
  8
PLAN_1
 62
     2
  6
CONTINUOUS
 10
-1.279988
 20
4.121457
  0
VERTEX
  8
PLAN_1
 62
     2
  6
CONTINUOUS
 10
-1.283969
 20
4.120661
  0
VERTEX
  8
PLAN_1
 62
     2
  6
CONTINUOUS
 10
-1.288740
 20
4.119866
  0
VERTEX
  8
PLAN_1
 62
     2
  6
CONTINUOUS
 10
-1.293516
 20
4.119071
  0
VERTEX
  8
PLAN_1
 62
     2
  6
CONTINUOUS
 10
-1.297492
 20
4.119071
  0
VERTEX
  8
PLAN_1
 62
     2
  6
CONTINUOUS
 10
-1.301472
 20
4.119866
  0
VERTEX
  8
PLAN_1
 62
     2
  6
CONTINUOUS
 10
-1.304654
 20
4.120661
  0
VERTEX
  8
PLAN_1
 62
     2
  6
CONTINUOUS
 10
-1.307835
 20
4.121457
  0
VERTEX
  8
PLAN_1
 62
     2
  6
CONTINUOUS
 10
-1.311016
 20
4.123047
  0
VERTEX
  8
PLAN_1
 62
     2
  6
CONTINUOUS
 10
-1.313406
 20
4.124642
  0
VERTEX
  8
PLAN_1
 62
     2
  6
CONTINUOUS
 10
-1.315791
 20
4.126232
  0
VERTEX
  8
PLAN_1
 62
     2
  6
CONTINUOUS
 10
-1.318177
 20
4.128618
  0
VERTEX
  8
PLAN_1
 62
     2
  6
CONTINUOUS
 10
-1.326929
 20
4.119071
  0
VERTEX
  8
PLAN_1
 62
     2
  6
CONTINUOUS
 10
-1.330110
 20
4.122252
  0
VERTEX
  8
PLAN_1
 62
     2
  6
CONTINUOUS
 10
-1.321358
 20
4.131799
  0
VERTEX
  8
PLAN_1
 62
     2
  6
CONTINUOUS
 10
-1.323748
 20
4.134984
  0
VERTEX
  8
PLAN_1
 62
     2
  6
CONTINUOUS
 10
-1.325339
 20
4.138165
  0
VERTEX
  8
PLAN_1
 62
     2
  6
CONTINUOUS
 10
-1.326929
 20
4.141346
  0
VERTEX
  8
PLAN_1
 62
     2
  6
CONTINUOUS
 10
-1.328520
 20
4.144531
  0
VERTEX
  8
PLAN_1
 62
     2
  6
CONTINUOUS
 10
-1.329315
 20
4.148508
  0
VERTEX
  8
PLAN_1
 62
     2
  6
CONTINUOUS
 10
-1.330110
 20
4.151689
  0
VERTEX
  8
PLAN_1
 62
     2
  6
CONTINUOUS
 10
-1.330110
 20
4.155669
  0
VERTEX
  8
PLAN_1
 62
     2
  6
CONTINUOUS
 10
-1.330110
 20
4.158850
  0
VERTEX
  8
PLAN_1
 62
     2
  6
CONTINUOUS
 10
-1.330110
 20
4.165217
  0
VERTEX
  8
PLAN_1
 62
     2
  6
CONTINUOUS
 10
-1.328520
 20
4.171579
  0
VERTEX
  8
PLAN_1
 62
     2
  6
CONTINUOUS
 10
-1.326134
 20
4.177945
  0
VERTEX
  8
PLAN_1
 62
     2
  6
CONTINUOUS
 10
-1.322157
 20
4.184307
  0
VERTEX
  8
PLAN_1
 62
     2
  6
CONTINUOUS
 10
-1.320563
 20
4.187492
  0
VERTEX
  8
PLAN_1
 62
     2
  6
CONTINUOUS
 10
-1.317382
 20
4.189878
  0
VERTEX
  8
PLAN_1
 62
     2
  6
CONTINUOUS
 10
-1.314201
 20
4.192264
  0
VERTEX
  8
PLAN_1
 62
     2
  6
CONTINUOUS
 10
-1.311016
 20
4.193854
  0
VERTEX
  8
PLAN_1
 62
     2
  6
CONTINUOUS
 10
-1.307835
 20
4.195445
  0
VERTEX
  8
PLAN_1
 62
     2
  6
CONTINUOUS
 10
-1.303063
 20
4.197039
  0
VERTEX
  8
PLAN_1
 62
     2
  6
CONTINUOUS
 10
-1.299083
 20
4.197835
  0
VERTEX
  8
PLAN_1
 62
     2
  6
CONTINUOUS
 10
-1.293516
 20
4.197835
  0
VERTEX
  8
PLAN_1
 62
     2
  6
CONTINUOUS
 10
-1.289535
 20
4.197835
  0
VERTEX
  8
PLAN_1
 62
     2
  6
CONTINUOUS
 10
-1.285559
 20
4.197039
  0
VERTEX
  8
PLAN_1
 62
     2
  6
CONTINUOUS
 10
-1.282378
 20
4.196244
  0
VERTEX
  8
PLAN_1
 62
     2
  6
CONTINUOUS
 10
-1.279193
 20
4.195445
  0
VERTEX
  8
PLAN_1
 62
     2
  6
CONTINUOUS
 10
-1.276012
 20
4.193854
  0
VERTEX
  8
PLAN_1
 62
     2
  6
CONTINUOUS
 10
-1.273626
 20
4.192264
  0
VERTEX
  8
PLAN_1
 62
     2
  6
CONTINUOUS
 10
-1.271240
 20
4.190673
  0
VERTEX
  8
PLAN_1
 62
     2
  6
CONTINUOUS
 10
-1.268850
 20
4.189083
  0
VERTEX
  8
PLAN_1
 62
     2
  6
CONTINUOUS
 10
-1.260098
 20
4.197835
  0
VERTEX
  8
PLAN_1
 62
     2
  6
CONTINUOUS
 10
-1.256917
 20
4.194650
  0
VERTEX
  8
PLAN_1
 62
     2
  6
CONTINUOUS
 10
-1.265669
 20
4.185102
  0
SEQEND
  8
0
  0
POLYLINE
  8
PLAN_1
 62
     2
  6
CONTINUOUS
 66
     1
 40
0.003000
 41
0.003000
  0
VERTEX
  8
PLAN_1
 62
     2
  6
CONTINUOUS
 10
-1.311815
 20
4.135780
  0
VERTEX
  8
PLAN_1
 62
     2
  6
CONTINUOUS
 10
-1.310220
 20
4.134185
  0
VERTEX
  8
PLAN_1
 62
     2
  6
CONTINUOUS
 10
-1.307835
 20
4.132594
  0
VERTEX
  8
PLAN_1
 62
     2
  6
CONTINUOUS
 10
-1.306244
 20
4.131004
  0
VERTEX
  8
PLAN_1
 62
     2
  6
CONTINUOUS
 10
-1.303858
 20
4.130209
  0
VERTEX
  8
PLAN_1
 62
     2
  6
CONTINUOUS
 10
-1.301472
 20
4.129413
  0
VERTEX
  8
PLAN_1
 62
     2
  6
CONTINUOUS
 10
-1.299083
 20
4.128618
  0
VERTEX
  8
PLAN_1
 62
     2
  6
CONTINUOUS
 10
-1.296697
 20
4.128618
  0
VERTEX
  8
PLAN_1
 62
     2
  6
CONTINUOUS
 10
-1.293516
 20
4.128618
  0
VERTEX
  8
PLAN_1
 62
     2
  6
CONTINUOUS
 10
-1.287945
 20
4.128618
  0
VERTEX
  8
PLAN_1
 62
     2
  6
CONTINUOUS
 10
-1.283173
 20
4.130209
  0
VERTEX
  8
PLAN_1
 62
     2
  6
CONTINUOUS
 10
-1.278398
 20
4.133390
  0
VERTEX
  8
PLAN_1
 62
     2
  6
CONTINUOUS
 10
-1.274421
 20
4.136575
  0
VERTEX
  8
PLAN_1
 62
     2
  6
CONTINUOUS
 10
-1.272035
 20
4.141346
  0
VERTEX
  8
PLAN_1
 62
     2
  6
CONTINUOUS
 10
-1.269646
 20
4.146122
  0
VERTEX
  8
PLAN_1
 62
     2
  6
CONTINUOUS
 10
-1.268055
 20
4.152484
  0
VERTEX
  8
PLAN_1
 62
     2
  6
CONTINUOUS
 10
-1.268055
 20
4.158850
  0
VERTEX
  8
PLAN_1
 62
     2
  6
CONTINUOUS
 10
-1.268055
 20
4.161236
  0
VERTEX
  8
PLAN_1
 62
     2
  6
CONTINUOUS
 10
-1.268055
 20
4.164417
  0
VERTEX
  8
PLAN_1
 62
     2
  6
CONTINUOUS
 10
-1.268850
 20
4.166807
  0
VERTEX
  8
PLAN_1
 62
     2
  6
CONTINUOUS
 10
-1.268850
 20
4.169193
  0
VERTEX
  8
PLAN_1
 62
     2
  6
CONTINUOUS
 10
-1.269646
 20
4.171579
  0
VERTEX
  8
PLAN_1
 62
     2
  6
CONTINUOUS
 10
-1.270441
 20
4.173965
  0
VERTEX
  8
PLAN_1
 62
     2
  6
CONTINUOUS
 10
-1.272035
 20
4.175559
  0
VERTEX
  8
PLAN_1
 62
     2
  6
CONTINUOUS
 10
-1.272831
 20
4.177945
  0
VERTEX
  8
PLAN_1
 62
     2
  6
CONTINUOUS
 10
-1.311815
 20
4.135780
  0
SEQEND
  8
0
  0
POLYLINE
  8
PLAN_1
 62
     2
  6
CONTINUOUS
 66
     1
 40
0.003000
 41
0.003000
  0
VERTEX
  8
PLAN_1
 62
     2
  6
CONTINUOUS
 10
-1.275217
 20
4.181126
  0
VERTEX
  8
PLAN_1
 62
     2
  6
CONTINUOUS
 10
-1.277602
 20
4.182717
  0
VERTEX
  8
PLAN_1
 62
     2
  6
CONTINUOUS
 10
-1.279193
 20
4.184307
  0
VERTEX
  8
PLAN_1
 62
     2
  6
CONTINUOUS
 10
-1.281583
 20
4.185902
  0
VERTEX
  8
PLAN_1
 62
     2
  6
CONTINUOUS
 10
-1.283173
 20
4.186697
  0
VERTEX
  8
PLAN_1
 62
     2
  6
CONTINUOUS
 10
-1.285559
 20
4.187492
  0
VERTEX
  8
PLAN_1
 62
     2
  6
CONTINUOUS
 10
-1.288740
 20
4.188287
  0
VERTEX
  8
PLAN_1
 62
     2
  6
CONTINUOUS
 10
-1.291130
 20
4.189083
  0
VERTEX
  8
PLAN_1
 62
     2
  6
CONTINUOUS
 10
-1.293516
 20
4.189083
  0
VERTEX
  8
PLAN_1
 62
     2
  6
CONTINUOUS
 10
-1.299878
 20
4.188287
  0
VERTEX
  8
PLAN_1
 62
     2
  6
CONTINUOUS
 10
-1.304654
 20
4.186697
  0
VERTEX
  8
PLAN_1
 62
     2
  6
CONTINUOUS
 10
-1.309425
 20
4.184307
  0
VERTEX
  8
PLAN_1
 62
     2
  6
CONTINUOUS
 10
-1.312610
 20
4.180331
  0
VERTEX
  8
PLAN_1
 62
     2
  6
CONTINUOUS
 10
-1.315791
 20
4.176354
  0
VERTEX
  8
PLAN_1
 62
     2
  6
CONTINUOUS
 10
-1.318177
 20
4.170783
  0
VERTEX
  8
PLAN_1
 62
     2
  6
CONTINUOUS
 10
-1.318972
 20
4.165217
  0
VERTEX
  8
PLAN_1
 62
     2
  6
CONTINUOUS
 10
-1.319768
 20
4.158850
  0
VERTEX
  8
PLAN_1
 62
     2
  6
CONTINUOUS
 10
-1.319768
 20
4.155669
  0
VERTEX
  8
PLAN_1
 62
     2
  6
CONTINUOUS
 10
-1.319768
 20
4.153280
  0
VERTEX
  8
PLAN_1
 62
     2
  6
CONTINUOUS
 10
-1.318972
 20
4.150894
  0
VERTEX
  8
PLAN_1
 62
     2
  6
CONTINUOUS
 10
-1.318177
 20
4.147713
  0
VERTEX
  8
PLAN_1
 62
     2
  6
CONTINUOUS
 10
-1.317382
 20
4.145327
  0
VERTEX
  8
PLAN_1
 62
     2
  6
CONTINUOUS
 10
-1.316587
 20
4.142937
  0
VERTEX
  8
PLAN_1
 62
     2
  6
CONTINUOUS
 10
-1.315791
 20
4.141346
  0
VERTEX
  8
PLAN_1
 62
     2
  6
CONTINUOUS
 10
-1.314201
 20
4.138961
  0
VERTEX
  8
PLAN_1
 62
     2
  6
CONTINUOUS
 10
-1.275217
 20
4.181126
  0
SEQEND
  8
0
  0
POLYLINE
  8
PLAN_1
 62
     2
  6
CONTINUOUS
 66
     1
 40
0.003000
 41
0.003000
  0
VERTEX
  8
PLAN_1
 62
     2
  6
CONTINUOUS
 10
-1.248961
 20
4.168398
  0
VERTEX
  8
PLAN_1
 62
     2
  6
CONTINUOUS
 10
-1.248165
 20
4.172374
  0
VERTEX
  8
PLAN_1
 62
     2
  6
CONTINUOUS
 10
-1.248165
 20
4.176354
  0
VERTEX
  8
PLAN_1
 62
     2
  6
CONTINUOUS
 10
-1.247370
 20
4.179535
  0
VERTEX
  8
PLAN_1
 62
     2
  6
CONTINUOUS
 10
-1.245780
 20
4.182717
  0
VERTEX
  8
PLAN_1
 62
     2
  6
CONTINUOUS
 10
-1.242598
 20
4.186697
  0
VERTEX
  8
PLAN_1
 62
     2
  6
CONTINUOUS
 10
-1.238618
 20
4.189878
  0
VERTEX
  8
PLAN_1
 62
     2
  6
CONTINUOUS
 10
-1.234642
 20
4.192264
  0
VERTEX
  8
PLAN_1
 62
     2
  6
CONTINUOUS
 10
-1.230665
 20
4.193854
  0
VERTEX
  8
PLAN_1
 62
     2
  6
CONTINUOUS
 10
-1.226685
 20
4.194650
  0
VERTEX
  8
PLAN_1
 62
     2
  6
CONTINUOUS
 10
-1.223504
 20
4.194650
  0
VERTEX
  8
PLAN_1
 62
     2
  6
CONTINUOUS
 10
-1.218728
 20
4.193854
  0
VERTEX
  8
PLAN_1
 62
     2
  6
CONTINUOUS
 10
-1.214752
 20
4.193059
  0
VERTEX
  8
PLAN_1
 62
     2
  6
CONTINUOUS
 10
-1.210776
 20
4.191469
  0
VERTEX
  8
PLAN_1
 62
     2
  6
CONTINUOUS
 10
-1.206795
 20
4.188287
  0
VERTEX
  8
PLAN_1
 62
     2
  6
CONTINUOUS
 10
-1.204409
 20
4.185102
  0
VERTEX
  8
PLAN_1
 62
     2
  6
CONTINUOUS
 10
-1.202024
 20
4.181921
  0
VERTEX
  8
PLAN_1
 62
     2
  6
CONTINUOUS
 10
-1.201228
 20
4.177150
  0
VERTEX
  8
PLAN_1
 62
     2
  6
CONTINUOUS
 10
-1.200433
 20
4.172374
  0
VERTEX
  8
PLAN_1
 62
     2
  6
CONTINUOUS
 10
-1.201228
 20
4.167602
  0
VERTEX
  8
PLAN_1
 62
     2
  6
CONTINUOUS
 10
-1.202024
 20
4.164417
  0
VERTEX
  8
PLAN_1
 62
     2
  6
CONTINUOUS
 10
-1.203614
 20
4.160441
  0
VERTEX
  8
PLAN_1
 62
     2
  6
CONTINUOUS
 10
-1.206000
 20
4.157260
  0
VERTEX
  8
PLAN_1
 62
     2
  6
CONTINUOUS
 10
-1.209181
 20
4.154874
  0
VERTEX
  8
PLAN_1
 62
     2
  6
CONTINUOUS
 10
-1.212366
 20
4.152484
  0
VERTEX
  8
PLAN_1
 62
     2
  6
CONTINUOUS
 10
-1.216343
 20
4.150098
  0
VERTEX
  8
PLAN_1
 62
     2
  6
CONTINUOUS
 10
-1.220323
 20
4.148508
  0
VERTEX
  8
PLAN_1
 62
     2
  6
CONTINUOUS
 10
-1.227480
 20
4.143732
  0
VERTEX
  8
PLAN_1
 62
     2
  6
CONTINUOUS
 10
-1.230665
 20
4.142142
  0
VERTEX
  8
PLAN_1
 62
     2
  6
CONTINUOUS
 10
-1.233846
 20
4.139756
  0
VERTEX
  8
PLAN_1
 62
     2
  6
CONTINUOUS
 10
-1.236232
 20
4.138165
  0
VERTEX
  8
PLAN_1
 62
     2
  6
CONTINUOUS
 10
-1.237823
 20
4.135780
  0
VERTEX
  8
PLAN_1
 62
     2
  6
CONTINUOUS
 10
-1.238618
 20
4.134185
  0
VERTEX
  8
PLAN_1
 62
     2
  6
CONTINUOUS
 10
-1.239413
 20
4.132594
  0
VERTEX
  8
PLAN_1
 62
     2
  6
CONTINUOUS
 10
-1.240213
 20
4.131004
  0
VERTEX
  8
PLAN_1
 62
     2
  6
CONTINUOUS
 10
-1.240213
 20
4.130209
  0
VERTEX
  8
PLAN_1
 62
     2
  6
CONTINUOUS
 10
-1.200433
 20
4.130209
  0
VERTEX
  8
PLAN_1
 62
     2
  6
CONTINUOUS
 10
-1.200433
 20
4.121457
  0
VERTEX
  8
PLAN_1
 62
     2
  6
CONTINUOUS
 10
-1.250555
 20
4.121457
  0
VERTEX
  8
PLAN_1
 62
     2
  6
CONTINUOUS
 10
-1.249756
 20
4.127028
  0
VERTEX
  8
PLAN_1
 62
     2
  6
CONTINUOUS
 10
-1.248961
 20
4.131799
  0
VERTEX
  8
PLAN_1
 62
     2
  6
CONTINUOUS
 10
-1.247370
 20
4.135780
  0
VERTEX
  8
PLAN_1
 62
     2
  6
CONTINUOUS
 10
-1.245780
 20
4.138961
  0
VERTEX
  8
PLAN_1
 62
     2
  6
CONTINUOUS
 10
-1.242598
 20
4.142937
  0
VERTEX
  8
PLAN_1
 62
     2
  6
CONTINUOUS
 10
-1.240213
 20
4.145327
  0
VERTEX
  8
PLAN_1
 62
     2
  6
CONTINUOUS
 10
-1.237028
 20
4.147713
  0
VERTEX
  8
PLAN_1
 62
     2
  6
CONTINUOUS
 10
-1.233051
 20
4.150098
  0
VERTEX
  8
PLAN_1
 62
     2
  6
CONTINUOUS
 10
-1.223504
 20
4.155669
  0
VERTEX
  8
PLAN_1
 62
     2
  6
CONTINUOUS
 10
-1.221118
 20
4.157260
  0
VERTEX
  8
PLAN_1
 62
     2
  6
CONTINUOUS
 10
-1.217933
 20
4.158850
  0
VERTEX
  8
PLAN_1
 62
     2
  6
CONTINUOUS
 10
-1.216343
 20
4.160441
  0
VERTEX
  8
PLAN_1
 62
     2
  6
CONTINUOUS
 10
-1.213957
 20
4.162827
  0
VERTEX
  8
PLAN_1
 62
     2
  6
CONTINUOUS
 10
-1.212366
 20
4.164417
  0
VERTEX
  8
PLAN_1
 62
     2
  6
CONTINUOUS
 10
-1.211571
 20
4.166807
  0
VERTEX
  8
PLAN_1
 62
     2
  6
CONTINUOUS
 10
-1.210776
 20
4.169988
  0
VERTEX
  8
PLAN_1
 62
     2
  6
CONTINUOUS
 10
-1.209980
 20
4.173169
  0
VERTEX
  8
PLAN_1
 62
     2
  6
CONTINUOUS
 10
-1.210776
 20
4.175559
  0
VERTEX
  8
PLAN_1
 62
     2
  6
CONTINUOUS
 10
-1.210776
 20
4.177150
  0
VERTEX
  8
PLAN_1
 62
     2
  6
CONTINUOUS
 10
-1.212366
 20
4.179535
  0
VERTEX
  8
PLAN_1
 62
     2
  6
CONTINUOUS
 10
-1.213161
 20
4.181921
  0
VERTEX
  8
PLAN_1
 62
     2
  6
CONTINUOUS
 10
-1.215547
 20
4.183512
  0
VERTEX
  8
PLAN_1
 62
     2
  6
CONTINUOUS
 10
-1.217933
 20
4.185102
  0
VERTEX
  8
PLAN_1
 62
     2
  6
CONTINUOUS
 10
-1.221118
 20
4.185902
  0
VERTEX
  8
PLAN_1
 62
     2
  6
CONTINUOUS
 10
-1.225094
 20
4.185902
  0
VERTEX
  8
PLAN_1
 62
     2
  6
CONTINUOUS
 10
-1.229071
 20
4.185902
  0
VERTEX
  8
PLAN_1
 62
     2
  6
CONTINUOUS
 10
-1.233051
 20
4.184307
  0
VERTEX
  8
PLAN_1
 62
     2
  6
CONTINUOUS
 10
-1.235437
 20
4.181921
  0
VERTEX
  8
PLAN_1
 62
     2
  6
CONTINUOUS
 10
-1.237028
 20
4.178740
  0
VERTEX
  8
PLAN_1
 62
     2
  6
CONTINUOUS
 10
-1.238618
 20
4.176354
  0
VERTEX
  8
PLAN_1
 62
     2
  6
CONTINUOUS
 10
-1.239413
 20
4.173169
  0
VERTEX
  8
PLAN_1
 62
     2
  6
CONTINUOUS
 10
-1.239413
 20
4.170783
  0
VERTEX
  8
PLAN_1
 62
     2
  6
CONTINUOUS
 10
-1.239413
 20
4.168398
  0
VERTEX
  8
PLAN_1
 62
     2
  6
CONTINUOUS
 10
-1.248961
 20
4.168398
  0
SEQEND
  8
0
  0
POLYLINE
  8
PLAN_1
 62
     2
  6
CONTINUOUS
 66
     1
 40
0.003000
 41
0.003000
  0
VERTEX
  8
PLAN_1
 62
     2
  6
CONTINUOUS
 10
-1.153492
 20
4.160441
  0
VERTEX
  8
PLAN_1
 62
     2
  6
CONTINUOUS
 10
-1.150311
 20
4.158850
  0
VERTEX
  8
PLAN_1
 62
     2
  6
CONTINUOUS
 10
-1.147126
 20
4.156465
  0
VERTEX
  8
PLAN_1
 62
     2
  6
CONTINUOUS
 10
-1.145535
 20
4.154075
  0
VERTEX
  8
PLAN_1
 62
     2
  6
CONTINUOUS
 10
-1.143945
 20
4.151689
  0
VERTEX
  8
PLAN_1
 62
     2
  6
CONTINUOUS
 10
-1.142354
 20
4.149303
  0
VERTEX
  8
PLAN_1
 62
     2
  6
CONTINUOUS
 10
-1.142354
 20
4.146917
  0
VERTEX
  8
PLAN_1
 62
     2
  6
CONTINUOUS
 10
-1.141559
 20
4.144531
  0
VERTEX
  8
PLAN_1
 62
     2
  6
CONTINUOUS
 10
-1.141559
 20
4.142142
  0
VERTEX
  8
PLAN_1
 62
     2
  6
CONTINUOUS
 10
-1.141559
 20
4.138165
  0
VERTEX
  8
PLAN_1
 62
     2
  6
CONTINUOUS
 10
-1.143150
 20
4.134185
  0
VERTEX
  8
PLAN_1
 62
     2
  6
CONTINUOUS
 10
-1.144740
 20
4.130209
  0
VERTEX
  8
PLAN_1
 62
     2
  6
CONTINUOUS
 10
-1.147126
 20
4.126232
  0
VERTEX
  8
PLAN_1
 62
     2
  6
CONTINUOUS
 10
-1.151106
 20
4.123843
  0
VERTEX
  8
PLAN_1
 62
     2
  6
CONTINUOUS
 10
-1.155083
 20
4.121457
  0
VERTEX
  8
PLAN_1
 62
     2
  6
CONTINUOUS
 10
-1.160654
 20
4.119866
  0
VERTEX
  8
PLAN_1
 62
     2
  6
CONTINUOUS
 10
-1.166220
 20
4.119071
  0
VERTEX
  8
PLAN_1
 62
     2
  6
CONTINUOUS
 10
-1.167811
 20
4.119071
  0
VERTEX
  8
PLAN_1
 62
     2
  6
CONTINUOUS
 10
-1.170201
 20
4.119866
  0
VERTEX
  8
PLAN_1
 62
     2
  6
CONTINUOUS
 10
-1.171791
 20
4.119866
  0
VERTEX
  8
PLAN_1
 62
     2
  6
CONTINUOUS
 10
-1.174177
 20
4.120661
  0
VERTEX
  8
PLAN_1
 62
     2
  6
CONTINUOUS
 10
-1.176563
 20
4.121457
  0
VERTEX
  8
PLAN_1
 62
     2
  6
CONTINUOUS
 10
-1.178953
 20
4.122252
  0
VERTEX
  8
PLAN_1
 62
     2
  6
CONTINUOUS
 10
-1.181339
 20
4.123047
  0
VERTEX
  8
PLAN_1
 62
     2
  6
CONTINUOUS
 10
-1.183724
 20
4.124642
  0
VERTEX
  8
PLAN_1
 62
     2
  6
CONTINUOUS
 10
-1.186110
 20
4.127028
  0
VERTEX
  8
PLAN_1
 62
     2
  6
CONTINUOUS
 10
-1.188496
 20
4.129413
  0
VERTEX
  8
PLAN_1
 62
     2
  6
CONTINUOUS
 10
-1.189295
 20
4.131799
  0
VERTEX
  8
PLAN_1
 62
     2
  6
CONTINUOUS
 10
-1.190091
 20
4.134185
  0
VERTEX
  8
PLAN_1
 62
     2
  6
CONTINUOUS
 10
-1.190886
 20
4.136575
  0
VERTEX
  8
PLAN_1
 62
     2
  6
CONTINUOUS
 10
-1.190886
 20
4.138961
  0
VERTEX
  8
PLAN_1
 62
     2
  6
CONTINUOUS
 10
-1.191681
 20
4.140551
  0
VERTEX
  8
PLAN_1
 62
     2
  6
CONTINUOUS
 10
-1.191681
 20
4.142142
  0
VERTEX
  8
PLAN_1
 62
     2
  6
CONTINUOUS
 10
-1.190886
 20
4.145327
  0
VERTEX
  8
PLAN_1
 62
     2
  6
CONTINUOUS
 10
-1.190886
 20
4.148508
  0
VERTEX
  8
PLAN_1
 62
     2
  6
CONTINUOUS
 10
-1.189295
 20
4.150894
  0
VERTEX
  8
PLAN_1
 62
     2
  6
CONTINUOUS
 10
-1.187701
 20
4.153280
  0
VERTEX
  8
PLAN_1
 62
     2
  6
CONTINUOUS
 10
-1.186110
 20
4.155669
  0
VERTEX
  8
PLAN_1
 62
     2
  6
CONTINUOUS
 10
-1.184520
 20
4.157260
  0
VERTEX
  8
PLAN_1
 62
     2
  6
CONTINUOUS
 10
-1.182134
 20
4.158850
  0
VERTEX
  8
PLAN_1
 62
     2
  6
CONTINUOUS
 10
-1.178953
 20
4.160441
  0
VERTEX
  8
PLAN_1
 62
     2
  6
CONTINUOUS
 10
-1.181339
 20
4.161236
  0
VERTEX
  8
PLAN_1
 62
     2
  6
CONTINUOUS
 10
-1.182929
 20
4.162031
  0
VERTEX
  8
PLAN_1
 62
     2
  6
CONTINUOUS
 10
-1.184520
 20
4.163622
  0
VERTEX
  8
PLAN_1
 62
     2
  6
CONTINUOUS
 10
-1.186110
 20
4.165217
  0
VERTEX
  8
PLAN_1
 62
     2
  6
CONTINUOUS
 10
-1.187701
 20
4.167602
  0
VERTEX
  8
PLAN_1
 62
     2
  6
CONTINUOUS
 10
-1.188496
 20
4.169193
  0
VERTEX
  8
PLAN_1
 62
     2
  6
CONTINUOUS
 10
-1.188496
 20
4.171579
  0
VERTEX
  8
PLAN_1
 62
     2
  6
CONTINUOUS
 10
-1.188496
 20
4.173965
  0
VERTEX
  8
PLAN_1
 62
     2
  6
CONTINUOUS
 10
-1.188496
 20
4.177150
  0
VERTEX
  8
PLAN_1
 62
     2
  6
CONTINUOUS
 10
-1.187701
 20
4.180331
  0
VERTEX
  8
PLAN_1
 62
     2
  6
CONTINUOUS
 10
-1.186110
 20
4.184307
  0
VERTEX
  8
PLAN_1
 62
     2
  6
CONTINUOUS
 10
-1.184520
 20
4.187492
  0
VERTEX
  8
PLAN_1
 62
     2
  6
CONTINUOUS
 10
-1.181339
 20
4.189878
  0
VERTEX
  8
PLAN_1
 62
     2
  6
CONTINUOUS
 10
-1.177358
 20
4.192264
  0
VERTEX
  8
PLAN_1
 62
     2
  6
CONTINUOUS
 10
-1.172587
 20
4.193854
  0
VERTEX
  8
PLAN_1
 62
     2
  6
CONTINUOUS
 10
-1.167016
 20
4.194650
  0
VERTEX
  8
PLAN_1
 62
     2
  6
CONTINUOUS
 10
-1.161449
 20
4.193854
  0
VERTEX
  8
PLAN_1
 62
     2
  6
CONTINUOUS
 10
-1.156673
 20
4.193059
  0
VERTEX
  8
PLAN_1
 62
     2
  6
CONTINUOUS
 10
-1.152697
 20
4.190673
  0
VERTEX
  8
PLAN_1
 62
     2
  6
CONTINUOUS
 10
-1.149516
 20
4.188287
  0
VERTEX
  8
PLAN_1
 62
     2
  6
CONTINUOUS
 10
-1.147126
 20
4.185102
  0
VERTEX
  8
PLAN_1
 62
     2
  6
CONTINUOUS
 10
-1.145535
 20
4.181921
  0
VERTEX
  8
PLAN_1
 62
     2
  6
CONTINUOUS
 10
-1.144740
 20
4.178740
  0
VERTEX
  8
PLAN_1
 62
     2
  6
CONTINUOUS
 10
-1.143945
 20
4.175559
  0
VERTEX
  8
PLAN_1
 62
     2
  6
CONTINUOUS
 10
-1.144740
 20
4.171579
  0
VERTEX
  8
PLAN_1
 62
     2
  6
CONTINUOUS
 10
-1.145535
 20
4.169193
  0
VERTEX
  8
PLAN_1
 62
     2
  6
CONTINUOUS
 10
-1.146331
 20
4.166807
  0
VERTEX
  8
PLAN_1
 62
     2
  6
CONTINUOUS
 10
-1.147921
 20
4.164417
  0
VERTEX
  8
PLAN_1
 62
     2
  6
CONTINUOUS
 10
-1.149516
 20
4.162827
  0
VERTEX
  8
PLAN_1
 62
     2
  6
CONTINUOUS
 10
-1.150311
 20
4.162031
  0
VERTEX
  8
PLAN_1
 62
     2
  6
CONTINUOUS
 10
-1.151902
 20
4.161236
  0
VERTEX
  8
PLAN_1
 62
     2
  6
CONTINUOUS
 10
-1.153492
 20
4.160441
  0
SEQEND
  8
0
  0
POLYLINE
  8
PLAN_1
 62
     2
  6
CONTINUOUS
 66
     1
 40
0.003000
 41
0.003000
  0
VERTEX
  8
PLAN_1
 62
     2
  6
CONTINUOUS
 10
-1.181339
 20
4.142142
  0
VERTEX
  8
PLAN_1
 62
     2
  6
CONTINUOUS
 10
-1.181339
 20
4.139756
  0
VERTEX
  8
PLAN_1
 62
     2
  6
CONTINUOUS
 10
-1.181339
 20
4.137370
  0
VERTEX
  8
PLAN_1
 62
     2
  6
CONTINUOUS
 10
-1.179748
 20
4.134984
  0
VERTEX
  8
PLAN_1
 62
     2
  6
CONTINUOUS
 10
-1.178953
 20
4.132594
  0
VERTEX
  8
PLAN_1
 62
     2
  6
CONTINUOUS
 10
-1.176563
 20
4.130209
  0
VERTEX
  8
PLAN_1
 62
     2
  6
CONTINUOUS
 10
-1.174177
 20
4.128618
  0
VERTEX
  8
PLAN_1
 62
     2
  6
CONTINUOUS
 10
-1.170201
 20
4.127823
  0
VERTEX
  8
PLAN_1
 62
     2
  6
CONTINUOUS
 10
-1.166220
 20
4.127823
  0
VERTEX
  8
PLAN_1
 62
     2
  6
CONTINUOUS
 10
-1.163835
 20
4.127823
  0
VERTEX
  8
PLAN_1
 62
     2
  6
CONTINUOUS
 10
-1.160654
 20
4.127823
  0
VERTEX
  8
PLAN_1
 62
     2
  6
CONTINUOUS
 10
-1.158264
 20
4.128618
  0
VERTEX
  8
PLAN_1
 62
     2
  6
CONTINUOUS
 10
-1.155878
 20
4.130209
  0
VERTEX
  8
PLAN_1
 62
     2
  6
CONTINUOUS
 10
-1.154287
 20
4.131799
  0
VERTEX
  8
PLAN_1
 62
     2
  6
CONTINUOUS
 10
-1.152697
 20
4.134185
  0
VERTEX
  8
PLAN_1
 62
     2
  6
CONTINUOUS
 10
-1.151902
 20
4.137370
  0
VERTEX
  8
PLAN_1
 62
     2
  6
CONTINUOUS
 10
-1.151106
 20
4.141346
  0
VERTEX
  8
PLAN_1
 62
     2
  6
CONTINUOUS
 10
-1.151902
 20
4.144531
  0
VERTEX
  8
PLAN_1
 62
     2
  6
CONTINUOUS
 10
-1.152697
 20
4.147713
  0
VERTEX
  8
PLAN_1
 62
     2
  6
CONTINUOUS
 10
-1.154287
 20
4.150098
  0
VERTEX
  8
PLAN_1
 62
     2
  6
CONTINUOUS
 10
-1.155878
 20
4.152484
  0
VERTEX
  8
PLAN_1
 62
     2
  6
CONTINUOUS
 10
-1.158264
 20
4.154075
  0
VERTEX
  8
PLAN_1
 62
     2
  6
CONTINUOUS
 10
-1.160654
 20
4.154874
  0
VERTEX
  8
PLAN_1
 62
     2
  6
CONTINUOUS
 10
-1.163835
 20
4.155669
  0
VERTEX
  8
PLAN_1
 62
     2
  6
CONTINUOUS
 10
-1.166220
 20
4.155669
  0
VERTEX
  8
PLAN_1
 62
     2
  6
CONTINUOUS
 10
-1.170201
 20
4.155669
  0
VERTEX
  8
PLAN_1
 62
     2
  6
CONTINUOUS
 10
-1.173382
 20
4.154075
  0
VERTEX
  8
PLAN_1
 62
     2
  6
CONTINUOUS
 10
-1.175768
 20
4.153280
  0
VERTEX
  8
PLAN_1
 62
     2
  6
CONTINUOUS
 10
-1.178154
 20
4.151689
  0
VERTEX
  8
PLAN_1
 62
     2
  6
CONTINUOUS
 10
-1.179748
 20
4.149303
  0
VERTEX
  8
PLAN_1
 62
     2
  6
CONTINUOUS
 10
-1.180543
 20
4.146917
  0
VERTEX
  8
PLAN_1
 62
     2
  6
CONTINUOUS
 10
-1.181339
 20
4.144531
  0
VERTEX
  8
PLAN_1
 62
     2
  6
CONTINUOUS
 10
-1.181339
 20
4.142142
  0
SEQEND
  8
0
  0
POLYLINE
  8
PLAN_1
 62
     2
  6
CONTINUOUS
 66
     1
 40
0.003000
 41
0.003000
  0
VERTEX
  8
PLAN_1
 62
     2
  6
CONTINUOUS
 10
-1.153492
 20
4.175559
  0
VERTEX
  8
PLAN_1
 62
     2
  6
CONTINUOUS
 10
-1.153492
 20
4.177150
  0
VERTEX
  8
PLAN_1
 62
     2
  6
CONTINUOUS
 10
-1.154287
 20
4.178740
  0
VERTEX
  8
PLAN_1
 62
     2
  6
CONTINUOUS
 10
-1.155083
 20
4.180331
  0
VERTEX
  8
PLAN_1
 62
     2
  6
CONTINUOUS
 10
-1.156673
 20
4.182717
  0
VERTEX
  8
PLAN_1
 62
     2
  6
CONTINUOUS
 10
-1.158264
 20
4.184307
  0
VERTEX
  8
PLAN_1
 62
     2
  6
CONTINUOUS
 10
-1.160654
 20
4.185102
  0
VERTEX
  8
PLAN_1
 62
     2
  6
CONTINUOUS
 10
-1.163835
 20
4.185902
  0
VERTEX
  8
PLAN_1
 62
     2
  6
CONTINUOUS
 10
-1.167016
 20
4.185902
  0
VERTEX
  8
PLAN_1
 62
     2
  6
CONTINUOUS
 10
-1.170201
 20
4.185902
  0
VERTEX
  8
PLAN_1
 62
     2
  6
CONTINUOUS
 10
-1.173382
 20
4.185102
  0
VERTEX
  8
PLAN_1
 62
     2
  6
CONTINUOUS
 10
-1.175768
 20
4.183512
  0
VERTEX
  8
PLAN_1
 62
     2
  6
CONTINUOUS
 10
-1.177358
 20
4.181921
  0
VERTEX
  8
PLAN_1
 62
     2
  6
CONTINUOUS
 10
-1.178154
 20
4.180331
  0
VERTEX
  8
PLAN_1
 62
     2
  6
CONTINUOUS
 10
-1.178953
 20
4.178740
  0
VERTEX
  8
PLAN_1
 62
     2
  6
CONTINUOUS
 10
-1.178953
 20
4.176354
  0
VERTEX
  8
PLAN_1
 62
     2
  6
CONTINUOUS
 10
-1.179748
 20
4.174760
  0
VERTEX
  8
PLAN_1
 62
     2
  6
CONTINUOUS
 10
-1.178953
 20
4.172374
  0
VERTEX
  8
PLAN_1
 62
     2
  6
CONTINUOUS
 10
-1.178154
 20
4.169988
  0
VERTEX
  8
PLAN_1
 62
     2
  6
CONTINUOUS
 10
-1.177358
 20
4.168398
  0
VERTEX
  8
PLAN_1
 62
     2
  6
CONTINUOUS
 10
-1.175768
 20
4.166807
  0
VERTEX
  8
PLAN_1
 62
     2
  6
CONTINUOUS
 10
-1.173382
 20
4.165217
  0
VERTEX
  8
PLAN_1
 62
     2
  6
CONTINUOUS
 10
-1.171791
 20
4.164417
  0
VERTEX
  8
PLAN_1
 62
     2
  6
CONTINUOUS
 10
-1.169406
 20
4.163622
  0
VERTEX
  8
PLAN_1
 62
     2
  6
CONTINUOUS
 10
-1.167016
 20
4.163622
  0
VERTEX
  8
PLAN_1
 62
     2
  6
CONTINUOUS
 10
-1.163835
 20
4.163622
  0
VERTEX
  8
PLAN_1
 62
     2
  6
CONTINUOUS
 10
-1.161449
 20
4.164417
  0
VERTEX
  8
PLAN_1
 62
     2
  6
CONTINUOUS
 10
-1.159063
 20
4.165217
  0
VERTEX
  8
PLAN_1
 62
     2
  6
CONTINUOUS
 10
-1.157469
 20
4.166807
  0
VERTEX
  8
PLAN_1
 62
     2
  6
CONTINUOUS
 10
-1.155878
 20
4.168398
  0
VERTEX
  8
PLAN_1
 62
     2
  6
CONTINUOUS
 10
-1.154287
 20
4.170783
  0
VERTEX
  8
PLAN_1
 62
     2
  6
CONTINUOUS
 10
-1.153492
 20
4.173169
  0
VERTEX
  8
PLAN_1
 62
     2
  6
CONTINUOUS
 10
-1.153492
 20
4.175559
  0
SEQEND
  8
0
  0
POLYLINE
  8
PLAN_1
 62
     2
  6
CONTINUOUS
 66
     1
 40
0.003976
 41
0.003976
  0
VERTEX
  8
PLAN_1
 62
     2
  6
CONTINUOUS
 10
-2.644413
 20
3.054583
  0
VERTEX
  8
PLAN_1
 62
     2
  6
CONTINUOUS
 10
-2.644413
 20
6.077795
  0
SEQEND
  8
0
  0
SOLID
  8
PLAN_1
 62
     2
 10
-2.644413
 20
6.107232
 11
-2.660327
 21
6.048358
 12
-2.644413
 22
6.107232
 13
-2.629299
 23
6.048358
  0
POLYLINE
  8
PLAN_1
 62
     2
  6
CONTINUOUS
 66
     1
 40
0.003000
 41
0.003000
  0
VERTEX
  8
PLAN_1
 62
     2
  6
CONTINUOUS
 10
-2.644413
 20
6.107232
  0
VERTEX
  8
PLAN_1
 62
     2
  6
CONTINUOUS
 10
-2.660327
 20
6.048358
  0
VERTEX
  8
PLAN_1
 62
     2
  6
CONTINUOUS
 10
-2.629299
 20
6.048358
  0
VERTEX
  8
PLAN_1
 62
     2
  6
CONTINUOUS
 10
-2.644413
 20
6.107232
  0
SEQEND
  8
0
  0
SOLID
  8
PLAN_1
 62
     2
 10
-2.644413
 20
3.025146
 11
-2.660327
 21
3.084020
 12
-2.644413
 22
3.025146
 13
-2.629299
 23
3.084020
  0
POLYLINE
  8
PLAN_1
 62
     2
  6
CONTINUOUS
 66
     1
 40
0.003000
 41
0.003000
  0
VERTEX
  8
PLAN_1
 62
     2
  6
CONTINUOUS
 10
-2.644413
 20
3.025146
  0
VERTEX
  8
PLAN_1
 62
     2
  6
CONTINUOUS
 10
-2.660327
 20
3.084020
  0
VERTEX
  8
PLAN_1
 62
     2
  6
CONTINUOUS
 10
-2.629299
 20
3.084020
  0
VERTEX
  8
PLAN_1
 62
     2
  6
CONTINUOUS
 10
-2.644413
 20
3.025146
  0
SEQEND
  8
0
  0
POLYLINE
  8
PLAN_1
 62
     2
  6
CONTINUOUS
 66
     1
 40
0.003000
 41
0.003000
  0
VERTEX
  8
PLAN_1
 62
     2
  6
CONTINUOUS
 10
-2.707264
 20
4.550276
  0
VERTEX
  8
PLAN_1
 62
     2
  6
CONTINUOUS
 10
-2.705673
 20
4.553461
  0
VERTEX
  8
PLAN_1
 62
     2
  6
CONTINUOUS
 10
-2.703287
 20
4.556642
  0
VERTEX
  8
PLAN_1
 62
     2
  6
CONTINUOUS
 10
-2.701697
 20
4.558232
  0
VERTEX
  8
PLAN_1
 62
     2
  6
CONTINUOUS
 10
-2.699307
 20
4.559823
  0
VERTEX
  8
PLAN_1
 62
     2
  6
CONTINUOUS
 10
-2.696126
 20
4.560618
  0
VERTEX
  8
PLAN_1
 62
     2
  6
CONTINUOUS
 10
-2.693740
 20
4.561413
  0
VERTEX
  8
PLAN_1
 62
     2
  6
CONTINUOUS
 10
-2.691354
 20
4.562209
  0
VERTEX
  8
PLAN_1
 62
     2
  6
CONTINUOUS
 10
-2.689764
 20
4.562209
  0
VERTEX
  8
PLAN_1
 62
     2
  6
CONTINUOUS
 10
-2.684988
 20
4.562209
  0
VERTEX
  8
PLAN_1
 62
     2
  6
CONTINUOUS
 10
-2.681012
 20
4.560618
  0
VERTEX
  8
PLAN_1
 62
     2
  6
CONTINUOUS
 10
-2.677031
 20
4.559028
  0
VERTEX
  8
PLAN_1
 62
     2
  6
CONTINUOUS
 10
-2.673850
 20
4.556642
  0
VERTEX
  8
PLAN_1
 62
     2
  6
CONTINUOUS
 10
-2.670669
 20
4.552661
  0
VERTEX
  8
PLAN_1
 62
     2
  6
CONTINUOUS
 10
-2.668280
 20
4.548685
  0
VERTEX
  8
PLAN_1
 62
     2
  6
CONTINUOUS
 10
-2.666689
 20
4.543118
  0
VERTEX
  8
PLAN_1
 62
     2
  6
CONTINUOUS
 10
-2.666689
 20
4.537547
  0
VERTEX
  8
PLAN_1
 62
     2
  6
CONTINUOUS
 10
-2.666689
 20
4.535957
  0
VERTEX
  8
PLAN_1
 62
     2
  6
CONTINUOUS
 10
-2.666689
 20
4.533571
  0
VERTEX
  8
PLAN_1
 62
     2
  6
CONTINUOUS
 10
-2.666689
 20
4.531976
  0
VERTEX
  8
PLAN_1
 62
     2
  6
CONTINUOUS
 10
-2.667484
 20
4.529591
  0
VERTEX
  8
PLAN_1
 62
     2
  6
CONTINUOUS
 10
-2.668280
 20
4.527205
  0
VERTEX
  8
PLAN_1
 62
     2
  6
CONTINUOUS
 10
-2.669075
 20
4.524819
  0
VERTEX
  8
PLAN_1
 62
     2
  6
CONTINUOUS
 10
-2.670669
 20
4.522433
  0
VERTEX
  8
PLAN_1
 62
     2
  6
CONTINUOUS
 10
-2.672260
 20
4.520043
  0
VERTEX
  8
PLAN_1
 62
     2
  6
CONTINUOUS
 10
-2.674646
 20
4.517657
  0
VERTEX
  8
PLAN_1
 62
     2
  6
CONTINUOUS
 10
-2.677031
 20
4.515272
  0
VERTEX
  8
PLAN_1
 62
     2
  6
CONTINUOUS
 10
-2.679417
 20
4.514476
  0
VERTEX
  8
PLAN_1
 62
     2
  6
CONTINUOUS
 10
-2.681807
 20
4.513681
  0
VERTEX
  8
PLAN_1
 62
     2
  6
CONTINUOUS
 10
-2.684193
 20
4.512886
  0
VERTEX
  8
PLAN_1
 62
     2
  6
CONTINUOUS
 10
-2.685783
 20
4.512091
  0
VERTEX
  8
PLAN_1
 62
     2
  6
CONTINUOUS
 10
-2.688169
 20
4.512091
  0
VERTEX
  8
PLAN_1
 62
     2
  6
CONTINUOUS
 10
-2.689764
 20
4.512091
  0
VERTEX
  8
PLAN_1
 62
     2
  6
CONTINUOUS
 10
-2.692945
 20
4.512886
  0
VERTEX
  8
PLAN_1
 62
     2
  6
CONTINUOUS
 10
-2.695331
 20
4.512886
  0
VERTEX
  8
PLAN_1
 62
     2
  6
CONTINUOUS
 10
-2.698512
 20
4.514476
  0
VERTEX
  8
PLAN_1
 62
     2
  6
CONTINUOUS
 10
-2.700902
 20
4.515272
  0
VERTEX
  8
PLAN_1
 62
     2
  6
CONTINUOUS
 10
-2.702492
 20
4.517657
  0
VERTEX
  8
PLAN_1
 62
     2
  6
CONTINUOUS
 10
-2.704083
 20
4.519248
  0
VERTEX
  8
PLAN_1
 62
     2
  6
CONTINUOUS
 10
-2.705673
 20
4.521634
  0
VERTEX
  8
PLAN_1
 62
     2
  6
CONTINUOUS
 10
-2.707264
 20
4.524819
  0
VERTEX
  8
PLAN_1
 62
     2
  6
CONTINUOUS
 10
-2.708059
 20
4.522433
  0
VERTEX
  8
PLAN_1
 62
     2
  6
CONTINUOUS
 10
-2.709650
 20
4.520839
  0
VERTEX
  8
PLAN_1
 62
     2
  6
CONTINUOUS
 10
-2.711244
 20
4.519248
  0
VERTEX
  8
PLAN_1
 62
     2
  6
CONTINUOUS
 10
-2.712835
 20
4.517657
  0
VERTEX
  8
PLAN_1
 62
     2
  6
CONTINUOUS
 10
-2.714425
 20
4.516067
  0
VERTEX
  8
PLAN_1
 62
     2
  6
CONTINUOUS
 10
-2.716811
 20
4.515272
  0
VERTEX
  8
PLAN_1
 62
     2
  6
CONTINUOUS
 10
-2.719197
 20
4.515272
  0
VERTEX
  8
PLAN_1
 62
     2
  6
CONTINUOUS
 10
-2.721587
 20
4.514476
  0
VERTEX
  8
PLAN_1
 62
     2
  6
CONTINUOUS
 10
-2.724768
 20
4.515272
  0
VERTEX
  8
PLAN_1
 62
     2
  6
CONTINUOUS
 10
-2.727949
 20
4.516067
  0
VERTEX
  8
PLAN_1
 62
     2
  6
CONTINUOUS
 10
-2.731134
 20
4.516862
  0
VERTEX
  8
PLAN_1
 62
     2
  6
CONTINUOUS
 10
-2.734315
 20
4.519248
  0
VERTEX
  8
PLAN_1
 62
     2
  6
CONTINUOUS
 10
-2.737496
 20
4.522433
  0
VERTEX
  8
PLAN_1
 62
     2
  6
CONTINUOUS
 10
-2.739087
 20
4.526409
  0
VERTEX
  8
PLAN_1
 62
     2
  6
CONTINUOUS
 10
-2.740677
 20
4.531181
  0
VERTEX
  8
PLAN_1
 62
     2
  6
CONTINUOUS
 10
-2.741476
 20
4.536752
  0
VERTEX
  8
PLAN_1
 62
     2
  6
CONTINUOUS
 10
-2.741476
 20
4.542319
  0
VERTEX
  8
PLAN_1
 62
     2
  6
CONTINUOUS
 10
-2.739882
 20
4.547094
  0
VERTEX
  8
PLAN_1
 62
     2
  6
CONTINUOUS
 10
-2.737496
 20
4.551071
  0
VERTEX
  8
PLAN_1
 62
     2
  6
CONTINUOUS
 10
-2.735110
 20
4.554256
  0
VERTEX
  8
PLAN_1
 62
     2
  6
CONTINUOUS
 10
-2.732724
 20
4.556642
  0
VERTEX
  8
PLAN_1
 62
     2
  6
CONTINUOUS
 10
-2.729539
 20
4.558232
  0
VERTEX
  8
PLAN_1
 62
     2
  6
CONTINUOUS
 10
-2.726358
 20
4.559028
  0
VERTEX
  8
PLAN_1
 62
     2
  6
CONTINUOUS
 10
-2.722382
 20
4.559823
  0
VERTEX
  8
PLAN_1
 62
     2
  6
CONTINUOUS
 10
-2.719197
 20
4.559028
  0
VERTEX
  8
PLAN_1
 62
     2
  6
CONTINUOUS
 10
-2.716016
 20
4.558232
  0
VERTEX
  8
PLAN_1
 62
     2
  6
CONTINUOUS
 10
-2.713630
 20
4.557437
  0
VERTEX
  8
PLAN_1
 62
     2
  6
CONTINUOUS
 10
-2.712039
 20
4.555846
  0
VERTEX
  8
PLAN_1
 62
     2
  6
CONTINUOUS
 10
-2.710449
 20
4.554256
  0
VERTEX
  8
PLAN_1
 62
     2
  6
CONTINUOUS
 10
-2.708854
 20
4.552661
  0
VERTEX
  8
PLAN_1
 62
     2
  6
CONTINUOUS
 10
-2.708059
 20
4.551866
  0
VERTEX
  8
PLAN_1
 62
     2
  6
CONTINUOUS
 10
-2.707264
 20
4.550276
  0
SEQEND
  8
0
  0
POLYLINE
  8
PLAN_1
 62
     2
  6
CONTINUOUS
 66
     1
 40
0.003000
 41
0.003000
  0
VERTEX
  8
PLAN_1
 62
     2
  6
CONTINUOUS
 10
-2.688965
 20
4.522433
  0
VERTEX
  8
PLAN_1
 62
     2
  6
CONTINUOUS
 10
-2.686579
 20
4.522433
  0
VERTEX
  8
PLAN_1
 62
     2
  6
CONTINUOUS
 10
-2.684193
 20
4.522433
  0
VERTEX
  8
PLAN_1
 62
     2
  6
CONTINUOUS
 10
-2.681807
 20
4.524024
  0
VERTEX
  8
PLAN_1
 62
     2
  6
CONTINUOUS
 10
-2.679417
 20
4.524819
  0
VERTEX
  8
PLAN_1
 62
     2
  6
CONTINUOUS
 10
-2.677827
 20
4.527205
  0
VERTEX
  8
PLAN_1
 62
     2
  6
CONTINUOUS
 10
-2.676236
 20
4.529591
  0
VERTEX
  8
PLAN_1
 62
     2
  6
CONTINUOUS
 10
-2.674646
 20
4.533571
  0
VERTEX
  8
PLAN_1
 62
     2
  6
CONTINUOUS
 10
-2.674646
 20
4.537547
  0
VERTEX
  8
PLAN_1
 62
     2
  6
CONTINUOUS
 10
-2.674646
 20
4.539933
  0
VERTEX
  8
PLAN_1
 62
     2
  6
CONTINUOUS
 10
-2.675441
 20
4.543118
  0
VERTEX
  8
PLAN_1
 62
     2
  6
CONTINUOUS
 10
-2.676236
 20
4.545504
  0
VERTEX
  8
PLAN_1
 62
     2
  6
CONTINUOUS
 10
-2.677031
 20
4.547890
  0
VERTEX
  8
PLAN_1
 62
     2
  6
CONTINUOUS
 10
-2.679417
 20
4.549480
  0
VERTEX
  8
PLAN_1
 62
     2
  6
CONTINUOUS
 10
-2.681807
 20
4.551071
  0
VERTEX
  8
PLAN_1
 62
     2
  6
CONTINUOUS
 10
-2.684988
 20
4.551866
  0
VERTEX
  8
PLAN_1
 62
     2
  6
CONTINUOUS
 10
-2.688169
 20
4.552661
  0
VERTEX
  8
PLAN_1
 62
     2
  6
CONTINUOUS
 10
-2.692150
 20
4.551866
  0
VERTEX
  8
PLAN_1
 62
     2
  6
CONTINUOUS
 10
-2.694535
 20
4.551071
  0
VERTEX
  8
PLAN_1
 62
     2
  6
CONTINUOUS
 10
-2.697717
 20
4.549480
  0
VERTEX
  8
PLAN_1
 62
     2
  6
CONTINUOUS
 10
-2.699307
 20
4.547890
  0
VERTEX
  8
PLAN_1
 62
     2
  6
CONTINUOUS
 10
-2.700902
 20
4.545504
  0
VERTEX
  8
PLAN_1
 62
     2
  6
CONTINUOUS
 10
-2.701697
 20
4.543118
  0
VERTEX
  8
PLAN_1
 62
     2
  6
CONTINUOUS
 10
-2.702492
 20
4.539933
  0
VERTEX
  8
PLAN_1
 62
     2
  6
CONTINUOUS
 10
-2.702492
 20
4.537547
  0
VERTEX
  8
PLAN_1
 62
     2
  6
CONTINUOUS
 10
-2.702492
 20
4.533571
  0
VERTEX
  8
PLAN_1
 62
     2
  6
CONTINUOUS
 10
-2.701697
 20
4.530386
  0
VERTEX
  8
PLAN_1
 62
     2
  6
CONTINUOUS
 10
-2.700106
 20
4.528000
  0
VERTEX
  8
PLAN_1
 62
     2
  6
CONTINUOUS
 10
-2.698512
 20
4.525614
  0
VERTEX
  8
PLAN_1
 62
     2
  6
CONTINUOUS
 10
-2.696126
 20
4.524024
  0
VERTEX
  8
PLAN_1
 62
     2
  6
CONTINUOUS
 10
-2.694535
 20
4.523228
  0
VERTEX
  8
PLAN_1
 62
     2
  6
CONTINUOUS
 10
-2.691354
 20
4.522433
  0
VERTEX
  8
PLAN_1
 62
     2
  6
CONTINUOUS
 10
-2.688965
 20
4.522433
  0
SEQEND
  8
0
  0
POLYLINE
  8
PLAN_1
 62
     2
  6
CONTINUOUS
 66
     1
 40
0.003000
 41
0.003000
  0
VERTEX
  8
PLAN_1
 62
     2
  6
CONTINUOUS
 10
-2.722382
 20
4.550276
  0
VERTEX
  8
PLAN_1
 62
     2
  6
CONTINUOUS
 10
-2.723972
 20
4.550276
  0
VERTEX
  8
PLAN_1
 62
     2
  6
CONTINUOUS
 10
-2.726358
 20
4.549480
  0
VERTEX
  8
PLAN_1
 62
     2
  6
CONTINUOUS
 10
-2.727949
 20
4.548685
  0
VERTEX
  8
PLAN_1
 62
     2
  6
CONTINUOUS
 10
-2.729539
 20
4.547094
  0
VERTEX
  8
PLAN_1
 62
     2
  6
CONTINUOUS
 10
-2.731134
 20
4.545504
  0
VERTEX
  8
PLAN_1
 62
     2
  6
CONTINUOUS
 10
-2.731929
 20
4.543118
  0
VERTEX
  8
PLAN_1
 62
     2
  6
CONTINUOUS
 10
-2.732724
 20
4.539933
  0
VERTEX
  8
PLAN_1
 62
     2
  6
CONTINUOUS
 10
-2.733520
 20
4.536752
  0
VERTEX
  8
PLAN_1
 62
     2
  6
CONTINUOUS
 10
-2.732724
 20
4.532776
  0
VERTEX
  8
PLAN_1
 62
     2
  6
CONTINUOUS
 10
-2.731929
 20
4.530386
  0
VERTEX
  8
PLAN_1
 62
     2
  6
CONTINUOUS
 10
-2.731134
 20
4.528000
  0
VERTEX
  8
PLAN_1
 62
     2
  6
CONTINUOUS
 10
-2.729539
 20
4.526409
  0
VERTEX
  8
PLAN_1
 62
     2
  6
CONTINUOUS
 10
-2.727949
 20
4.525614
  0
VERTEX
  8
PLAN_1
 62
     2
  6
CONTINUOUS
 10
-2.725563
 20
4.524819
  0
VERTEX
  8
PLAN_1
 62
     2
  6
CONTINUOUS
 10
-2.723972
 20
4.524819
  0
VERTEX
  8
PLAN_1
 62
     2
  6
CONTINUOUS
 10
-2.721587
 20
4.524024
  0
VERTEX
  8
PLAN_1
 62
     2
  6
CONTINUOUS
 10
-2.719197
 20
4.524819
  0
VERTEX
  8
PLAN_1
 62
     2
  6
CONTINUOUS
 10
-2.716811
 20
4.525614
  0
VERTEX
  8
PLAN_1
 62
     2
  6
CONTINUOUS
 10
-2.715220
 20
4.526409
  0
VERTEX
  8
PLAN_1
 62
     2
  6
CONTINUOUS
 10
-2.713630
 20
4.528000
  0
VERTEX
  8
PLAN_1
 62
     2
  6
CONTINUOUS
 10
-2.712039
 20
4.530386
  0
VERTEX
  8
PLAN_1
 62
     2
  6
CONTINUOUS
 10
-2.711244
 20
4.531976
  0
VERTEX
  8
PLAN_1
 62
     2
  6
CONTINUOUS
 10
-2.711244
 20
4.534366
  0
VERTEX
  8
PLAN_1
 62
     2
  6
CONTINUOUS
 10
-2.710449
 20
4.536752
  0
VERTEX
  8
PLAN_1
 62
     2
  6
CONTINUOUS
 10
-2.711244
 20
4.539933
  0
VERTEX
  8
PLAN_1
 62
     2
  6
CONTINUOUS
 10
-2.711244
 20
4.542319
  0
VERTEX
  8
PLAN_1
 62
     2
  6
CONTINUOUS
 10
-2.712835
 20
4.544709
  0
VERTEX
  8
PLAN_1
 62
     2
  6
CONTINUOUS
 10
-2.714425
 20
4.546299
  0
VERTEX
  8
PLAN_1
 62
     2
  6
CONTINUOUS
 10
-2.716016
 20
4.547890
  0
VERTEX
  8
PLAN_1
 62
     2
  6
CONTINUOUS
 10
-2.717606
 20
4.549480
  0
VERTEX
  8
PLAN_1
 62
     2
  6
CONTINUOUS
 10
-2.719992
 20
4.550276
  0
VERTEX
  8
PLAN_1
 62
     2
  6
CONTINUOUS
 10
-2.722382
 20
4.550276
  0
SEQEND
  8
0
  0
POLYLINE
  8
PLAN_1
 62
     2
  6
CONTINUOUS
 66
     1
 40
0.003000
 41
0.003000
  0
VERTEX
  8
PLAN_1
 62
     2
  6
CONTINUOUS
 10
-2.666689
 20
4.594831
  0
VERTEX
  8
PLAN_1
 62
     2
  6
CONTINUOUS
 10
-2.666689
 20
4.591646
  0
VERTEX
  8
PLAN_1
 62
     2
  6
CONTINUOUS
 10
-2.667484
 20
4.588465
  0
VERTEX
  8
PLAN_1
 62
     2
  6
CONTINUOUS
 10
-2.668280
 20
4.585283
  0
VERTEX
  8
PLAN_1
 62
     2
  6
CONTINUOUS
 10
-2.669874
 20
4.582098
  0
VERTEX
  8
PLAN_1
 62
     2
  6
CONTINUOUS
 10
-2.674646
 20
4.578122
  0
VERTEX
  8
PLAN_1
 62
     2
  6
CONTINUOUS
 10
-2.679417
 20
4.574941
  0
VERTEX
  8
PLAN_1
 62
     2
  6
CONTINUOUS
 10
-2.685783
 20
4.572551
  0
VERTEX
  8
PLAN_1
 62
     2
  6
CONTINUOUS
 10
-2.691354
 20
4.570961
  0
VERTEX
  8
PLAN_1
 62
     2
  6
CONTINUOUS
 10
-2.697717
 20
4.570165
  0
VERTEX
  8
PLAN_1
 62
     2
  6
CONTINUOUS
 10
-2.704083
 20
4.570165
  0
VERTEX
  8
PLAN_1
 62
     2
  6
CONTINUOUS
 10
-2.709650
 20
4.570165
  0
VERTEX
  8
PLAN_1
 62
     2
  6
CONTINUOUS
 10
-2.716016
 20
4.570961
  0
VERTEX
  8
PLAN_1
 62
     2
  6
CONTINUOUS
 10
-2.722382
 20
4.572551
  0
VERTEX
  8
PLAN_1
 62
     2
  6
CONTINUOUS
 10
-2.728744
 20
4.574941
  0
VERTEX
  8
PLAN_1
 62
     2
  6
CONTINUOUS
 10
-2.733520
 20
4.578122
  0
VERTEX
  8
PLAN_1
 62
     2
  6
CONTINUOUS
 10
-2.737496
 20
4.582098
  0
VERTEX
  8
PLAN_1
 62
     2
  6
CONTINUOUS
 10
-2.739087
 20
4.585283
  0
VERTEX
  8
PLAN_1
 62
     2
  6
CONTINUOUS
 10
-2.740677
 20
4.588465
  0
VERTEX
  8
PLAN_1
 62
     2
  6
CONTINUOUS
 10
-2.741476
 20
4.591646
  0
VERTEX
  8
PLAN_1
 62
     2
  6
CONTINUOUS
 10
-2.741476
 20
4.594831
  0
VERTEX
  8
PLAN_1
 62
     2
  6
CONTINUOUS
 10
-2.741476
 20
4.598807
  0
VERTEX
  8
PLAN_1
 62
     2
  6
CONTINUOUS
 10
-2.740677
 20
4.601988
  0
VERTEX
  8
PLAN_1
 62
     2
  6
CONTINUOUS
 10
-2.739087
 20
4.605173
  0
VERTEX
  8
PLAN_1
 62
     2
  6
CONTINUOUS
 10
-2.737496
 20
4.608354
  0
VERTEX
  8
PLAN_1
 62
     2
  6
CONTINUOUS
 10
-2.733520
 20
4.612331
  0
VERTEX
  8
PLAN_1
 62
     2
  6
CONTINUOUS
 10
-2.728744
 20
4.615516
  0
VERTEX
  8
PLAN_1
 62
     2
  6
CONTINUOUS
 10
-2.722382
 20
4.617902
  0
VERTEX
  8
PLAN_1
 62
     2
  6
CONTINUOUS
 10
-2.716016
 20
4.619492
  0
VERTEX
  8
PLAN_1
 62
     2
  6
CONTINUOUS
 10
-2.709650
 20
4.620287
  0
VERTEX
  8
PLAN_1
 62
     2
  6
CONTINUOUS
 10
-2.704083
 20
4.620287
  0
VERTEX
  8
PLAN_1
 62
     2
  6
CONTINUOUS
 10
-2.697717
 20
4.620287
  0
VERTEX
  8
PLAN_1
 62
     2
  6
CONTINUOUS
 10
-2.691354
 20
4.619492
  0
VERTEX
  8
PLAN_1
 62
     2
  6
CONTINUOUS
 10
-2.685783
 20
4.617902
  0
VERTEX
  8
PLAN_1
 62
     2
  6
CONTINUOUS
 10
-2.679417
 20
4.615516
  0
VERTEX
  8
PLAN_1
 62
     2
  6
CONTINUOUS
 10
-2.674646
 20
4.612331
  0
VERTEX
  8
PLAN_1
 62
     2
  6
CONTINUOUS
 10
-2.669874
 20
4.608354
  0
VERTEX
  8
PLAN_1
 62
     2
  6
CONTINUOUS
 10
-2.668280
 20
4.605173
  0
VERTEX
  8
PLAN_1
 62
     2
  6
CONTINUOUS
 10
-2.667484
 20
4.601988
  0
VERTEX
  8
PLAN_1
 62
     2
  6
CONTINUOUS
 10
-2.666689
 20
4.598807
  0
VERTEX
  8
PLAN_1
 62
     2
  6
CONTINUOUS
 10
-2.666689
 20
4.594831
  0
SEQEND
  8
0
  0
POLYLINE
  8
PLAN_1
 62
     2
  6
CONTINUOUS
 66
     1
 40
0.003000
 41
0.003000
  0
VERTEX
  8
PLAN_1
 62
     2
  6
CONTINUOUS
 10
-2.733520
 20
4.594831
  0
VERTEX
  8
PLAN_1
 62
     2
  6
CONTINUOUS
 10
-2.732724
 20
4.591646
  0
VERTEX
  8
PLAN_1
 62
     2
  6
CONTINUOUS
 10
-2.731134
 20
4.588465
  0
VERTEX
  8
PLAN_1
 62
     2
  6
CONTINUOUS
 10
-2.728744
 20
4.586079
  0
VERTEX
  8
PLAN_1
 62
     2
  6
CONTINUOUS
 10
-2.725563
 20
4.583693
  0
VERTEX
  8
PLAN_1
 62
     2
  6
CONTINUOUS
 10
-2.721587
 20
4.582098
  0
VERTEX
  8
PLAN_1
 62
     2
  6
CONTINUOUS
 10
-2.716016
 20
4.580508
  0
VERTEX
  8
PLAN_1
 62
     2
  6
CONTINUOUS
 10
-2.710449
 20
4.580508
  0
VERTEX
  8
PLAN_1
 62
     2
  6
CONTINUOUS
 10
-2.704083
 20
4.579713
  0
VERTEX
  8
PLAN_1
 62
     2
  6
CONTINUOUS
 10
-2.697717
 20
4.580508
  0
VERTEX
  8
PLAN_1
 62
     2
  6
CONTINUOUS
 10
-2.691354
 20
4.580508
  0
VERTEX
  8
PLAN_1
 62
     2
  6
CONTINUOUS
 10
-2.686579
 20
4.582098
  0
VERTEX
  8
PLAN_1
 62
     2
  6
CONTINUOUS
 10
-2.682602
 20
4.583693
  0
VERTEX
  8
PLAN_1
 62
     2
  6
CONTINUOUS
 10
-2.679417
 20
4.586079
  0
VERTEX
  8
PLAN_1
 62
     2
  6
CONTINUOUS
 10
-2.677031
 20
4.588465
  0
VERTEX
  8
PLAN_1
 62
     2
  6
CONTINUOUS
 10
-2.675441
 20
4.591646
  0
VERTEX
  8
PLAN_1
 62
     2
  6
CONTINUOUS
 10
-2.674646
 20
4.594831
  0
VERTEX
  8
PLAN_1
 62
     2
  6
CONTINUOUS
 10
-2.675441
 20
4.598807
  0
VERTEX
  8
PLAN_1
 62
     2
  6
CONTINUOUS
 10
-2.677031
 20
4.601988
  0
VERTEX
  8
PLAN_1
 62
     2
  6
CONTINUOUS
 10
-2.679417
 20
4.604378
  0
VERTEX
  8
PLAN_1
 62
     2
  6
CONTINUOUS
 10
-2.682602
 20
4.606764
  0
VERTEX
  8
PLAN_1
 62
     2
  6
CONTINUOUS
 10
-2.686579
 20
4.608354
  0
VERTEX
  8
PLAN_1
 62
     2
  6
CONTINUOUS
 10
-2.691354
 20
4.609945
  0
VERTEX
  8
PLAN_1
 62
     2
  6
CONTINUOUS
 10
-2.697717
 20
4.609945
  0
VERTEX
  8
PLAN_1
 62
     2
  6
CONTINUOUS
 10
-2.704083
 20
4.610740
  0
VERTEX
  8
PLAN_1
 62
     2
  6
CONTINUOUS
 10
-2.710449
 20
4.609945
  0
VERTEX
  8
PLAN_1
 62
     2
  6
CONTINUOUS
 10
-2.716016
 20
4.609945
  0
VERTEX
  8
PLAN_1
 62
     2
  6
CONTINUOUS
 10
-2.721587
 20
4.608354
  0
VERTEX
  8
PLAN_1
 62
     2
  6
CONTINUOUS
 10
-2.725563
 20
4.606764
  0
VERTEX
  8
PLAN_1
 62
     2
  6
CONTINUOUS
 10
-2.728744
 20
4.604378
  0
VERTEX
  8
PLAN_1
 62
     2
  6
CONTINUOUS
 10
-2.731134
 20
4.601988
  0
VERTEX
  8
PLAN_1
 62
     2
  6
CONTINUOUS
 10
-2.732724
 20
4.598807
  0
VERTEX
  8
PLAN_1
 62
     2
  6
CONTINUOUS
 10
-2.733520
 20
4.594831
  0
SEQEND
  8
0
  0
POLYLINE
  8
PLAN_1
 62
     2
  6
CONTINUOUS
 66
     1
 40
0.003976
 41
0.003976
  0
VERTEX
  8
PLAN_1
 62
     2
  6
CONTINUOUS
 10
-2.510756
 20
6.107232
  0
VERTEX
  8
PLAN_1
 62
     2
  6
CONTINUOUS
 10
-2.825807
 20
6.107232
  0
SEQEND
  8
0
  0
POLYLINE
  8
PLAN_1
 62
     2
  6
CONTINUOUS
 66
     1
 40
0.003976
 41
0.003976
  0
VERTEX
  8
PLAN_1
 62
     2
  6
CONTINUOUS
 10
-2.510756
 20
3.025146
  0
VERTEX
  8
PLAN_1
 62
     2
  6
CONTINUOUS
 10
-2.668280
 20
3.025146
  0
SEQEND
  8
0
  0
POLYLINE
  8
PLAN_1
 62
     2
  6
CONTINUOUS
 66
     1
 40
0.003976
 41
0.003976
  0
VERTEX
  8
PLAN_1
 62
     2
  6
CONTINUOUS
 10
-2.801937
 20
-1.493764
  0
VERTEX
  8
PLAN_1
 62
     2
  6
CONTINUOUS
 10
-2.801937
 20
6.077795
  0
SEQEND
  8
0
  0
SOLID
  8
PLAN_1
 62
     2
 10
-2.801937
 20
6.107232
 11
-2.817850
 21
6.048358
 12
-2.801937
 22
6.107232
 13
-2.786823
 23
6.048358
  0
POLYLINE
  8
PLAN_1
 62
     2
  6
CONTINUOUS
 66
     1
 40
0.003000
 41
0.003000
  0
VERTEX
  8
PLAN_1
 62
     2
  6
CONTINUOUS
 10
-2.801937
 20
6.107232
  0
VERTEX
  8
PLAN_1
 62
     2
  6
CONTINUOUS
 10
-2.817850
 20
6.048358
  0
VERTEX
  8
PLAN_1
 62
     2
  6
CONTINUOUS
 10
-2.786823
 20
6.048358
  0
VERTEX
  8
PLAN_1
 62
     2
  6
CONTINUOUS
 10
-2.801937
 20
6.107232
  0
SEQEND
  8
0
  0
SOLID
  8
PLAN_1
 62
     2
 10
-2.801937
 20
-1.523201
 11
-2.817850
 21
-1.464327
 12
-2.801937
 22
-1.523201
 13
-2.786823
 23
-1.464327
  0
POLYLINE
  8
PLAN_1
 62
     2
  6
CONTINUOUS
 66
     1
 40
0.003000
 41
0.003000
  0
VERTEX
  8
PLAN_1
 62
     2
  6
CONTINUOUS
 10
-2.801937
 20
-1.523201
  0
VERTEX
  8
PLAN_1
 62
     2
  6
CONTINUOUS
 10
-2.817850
 20
-1.464327
  0
VERTEX
  8
PLAN_1
 62
     2
  6
CONTINUOUS
 10
-2.786823
 20
-1.464327
  0
VERTEX
  8
PLAN_1
 62
     2
  6
CONTINUOUS
 10
-2.801937
 20
-1.523201
  0
SEQEND
  8
0
  0
POLYLINE
  8
PLAN_1
 62
     2
  6
CONTINUOUS
 66
     1
 40
0.003000
 41
0.003000
  0
VERTEX
  8
PLAN_1
 62
     2
  6
CONTINUOUS
 10
-2.825807
 20
2.242291
  0
VERTEX
  8
PLAN_1
 62
     2
  6
CONTINUOUS
 10
-2.825807
 20
2.232744
  0
VERTEX
  8
PLAN_1
 62
     2
  6
CONTINUOUS
 10
-2.877520
 20
2.232744
  0
VERTEX
  8
PLAN_1
 62
     2
  6
CONTINUOUS
 10
-2.877520
 20
2.216039
  0
VERTEX
  8
PLAN_1
 62
     2
  6
CONTINUOUS
 10
-2.884681
 20
2.216039
  0
VERTEX
  8
PLAN_1
 62
     2
  6
CONTINUOUS
 10
-2.885476
 20
2.220016
  0
VERTEX
  8
PLAN_1
 62
     2
  6
CONTINUOUS
 10
-2.886272
 20
2.223197
  0
VERTEX
  8
PLAN_1
 62
     2
  6
CONTINUOUS
 10
-2.887067
 20
2.226382
  0
VERTEX
  8
PLAN_1
 62
     2
  6
CONTINUOUS
 10
-2.887862
 20
2.228768
  0
VERTEX
  8
PLAN_1
 62
     2
  6
CONTINUOUS
 10
-2.889453
 20
2.231154
  0
VERTEX
  8
PLAN_1
 62
     2
  6
CONTINUOUS
 10
-2.891839
 20
2.232744
  0
VERTEX
  8
PLAN_1
 62
     2
  6
CONTINUOUS
 10
-2.895024
 20
2.234335
  0
VERTEX
  8
PLAN_1
 62
     2
  6
CONTINUOUS
 10
-2.899000
 20
2.235130
  0
VERTEX
  8
PLAN_1
 62
     2
  6
CONTINUOUS
 10
-2.899000
 20
2.242291
  0
VERTEX
  8
PLAN_1
 62
     2
  6
CONTINUOUS
 10
-2.825807
 20
2.242291
  0
SEQEND
  8
0
  0
POLYLINE
  8
PLAN_1
 62
     2
  6
CONTINUOUS
 66
     1
 40
0.003000
 41
0.003000
  0
VERTEX
  8
PLAN_1
 62
     2
  6
CONTINUOUS
 10
-2.864791
 20
2.305142
  0
VERTEX
  8
PLAN_1
 62
     2
  6
CONTINUOUS
 10
-2.863197
 20
2.308327
  0
VERTEX
  8
PLAN_1
 62
     2
  6
CONTINUOUS
 10
-2.860811
 20
2.310713
  0
VERTEX
  8
PLAN_1
 62
     2
  6
CONTINUOUS
 10
-2.858425
 20
2.313098
  0
VERTEX
  8
PLAN_1
 62
     2
  6
CONTINUOUS
 10
-2.856039
 20
2.314689
  0
VERTEX
  8
PLAN_1
 62
     2
  6
CONTINUOUS
 10
-2.853654
 20
2.315484
  0
VERTEX
  8
PLAN_1
 62
     2
  6
CONTINUOUS
 10
-2.851264
 20
2.316280
  0
VERTEX
  8
PLAN_1
 62
     2
  6
CONTINUOUS
 10
-2.848878
 20
2.317079
  0
VERTEX
  8
PLAN_1
 62
     2
  6
CONTINUOUS
 10
-2.847287
 20
2.317079
  0
VERTEX
  8
PLAN_1
 62
     2
  6
CONTINUOUS
 10
-2.842512
 20
2.316280
  0
VERTEX
  8
PLAN_1
 62
     2
  6
CONTINUOUS
 10
-2.838535
 20
2.315484
  0
VERTEX
  8
PLAN_1
 62
     2
  6
CONTINUOUS
 10
-2.834559
 20
2.313894
  0
VERTEX
  8
PLAN_1
 62
     2
  6
CONTINUOUS
 10
-2.831374
 20
2.310713
  0
VERTEX
  8
PLAN_1
 62
     2
  6
CONTINUOUS
 10
-2.828193
 20
2.307531
  0
VERTEX
  8
PLAN_1
 62
     2
  6
CONTINUOUS
 10
-2.825807
 20
2.303551
  0
VERTEX
  8
PLAN_1
 62
     2
  6
CONTINUOUS
 10
-2.824217
 20
2.297984
  0
VERTEX
  8
PLAN_1
 62
     2
  6
CONTINUOUS
 10
-2.824217
 20
2.292413
  0
VERTEX
  8
PLAN_1
 62
     2
  6
CONTINUOUS
 10
-2.824217
 20
2.290028
  0
VERTEX
  8
PLAN_1
 62
     2
  6
CONTINUOUS
 10
-2.824217
 20
2.288437
  0
VERTEX
  8
PLAN_1
 62
     2
  6
CONTINUOUS
 10
-2.824217
 20
2.286047
  0
VERTEX
  8
PLAN_1
 62
     2
  6
CONTINUOUS
 10
-2.825012
 20
2.283661
  0
VERTEX
  8
PLAN_1
 62
     2
  6
CONTINUOUS
 10
-2.825807
 20
2.281276
  0
VERTEX
  8
PLAN_1
 62
     2
  6
CONTINUOUS
 10
-2.826602
 20
2.278890
  0
VERTEX
  8
PLAN_1
 62
     2
  6
CONTINUOUS
 10
-2.828193
 20
2.276504
  0
VERTEX
  8
PLAN_1
 62
     2
  6
CONTINUOUS
 10
-2.829783
 20
2.274114
  0
VERTEX
  8
PLAN_1
 62
     2
  6
CONTINUOUS
 10
-2.832169
 20
2.271728
  0
VERTEX
  8
PLAN_1
 62
     2
  6
CONTINUOUS
 10
-2.834559
 20
2.270138
  0
VERTEX
  8
PLAN_1
 62
     2
  6
CONTINUOUS
 10
-2.836945
 20
2.268547
  0
VERTEX
  8
PLAN_1
 62
     2
  6
CONTINUOUS
 10
-2.839331
 20
2.267752
  0
VERTEX
  8
PLAN_1
 62
     2
  6
CONTINUOUS
 10
-2.841717
 20
2.267752
  0
VERTEX
  8
PLAN_1
 62
     2
  6
CONTINUOUS
 10
-2.843311
 20
2.266957
  0
VERTEX
  8
PLAN_1
 62
     2
  6
CONTINUOUS
 10
-2.845697
 20
2.266957
  0
VERTEX
  8
PLAN_1
 62
     2
  6
CONTINUOUS
 10
-2.846492
 20
2.266957
  0
VERTEX
  8
PLAN_1
 62
     2
  6
CONTINUOUS
 10
-2.850469
 20
2.266957
  0
VERTEX
  8
PLAN_1
 62
     2
  6
CONTINUOUS
 10
-2.852854
 20
2.267752
  0
VERTEX
  8
PLAN_1
 62
     2
  6
CONTINUOUS
 10
-2.855244
 20
2.268547
  0
VERTEX
  8
PLAN_1
 62
     2
  6
CONTINUOUS
 10
-2.857630
 20
2.270138
  0
VERTEX
  8
PLAN_1
 62
     2
  6
CONTINUOUS
 10
-2.860016
 20
2.271728
  0
VERTEX
  8
PLAN_1
 62
     2
  6
CONTINUOUS
 10
-2.861606
 20
2.274114
  0
VERTEX
  8
PLAN_1
 62
     2
  6
CONTINUOUS
 10
-2.863197
 20
2.276504
  0
VERTEX
  8
PLAN_1
 62
     2
  6
CONTINUOUS
 10
-2.864791
 20
2.279685
  0
VERTEX
  8
PLAN_1
 62
     2
  6
CONTINUOUS
 10
-2.865587
 20
2.277299
  0
VERTEX
  8
PLAN_1
 62
     2
  6
CONTINUOUS
 10
-2.867177
 20
2.274909
  0
VERTEX
  8
PLAN_1
 62
     2
  6
CONTINUOUS
 10
-2.868768
 20
2.273319
  0
VERTEX
  8
PLAN_1
 62
     2
  6
CONTINUOUS
 10
-2.870358
 20
2.271728
  0
VERTEX
  8
PLAN_1
 62
     2
  6
CONTINUOUS
 10
-2.871949
 20
2.270933
  0
VERTEX
  8
PLAN_1
 62
     2
  6
CONTINUOUS
 10
-2.874339
 20
2.270138
  0
VERTEX
  8
PLAN_1
 62
     2
  6
CONTINUOUS
 10
-2.876724
 20
2.269343
  0
VERTEX
  8
PLAN_1
 62
     2
  6
CONTINUOUS
 10
-2.879110
 20
2.269343
  0
VERTEX
  8
PLAN_1
 62
     2
  6
CONTINUOUS
 10
-2.882291
 20
2.270138
  0
VERTEX
  8
PLAN_1
 62
     2
  6
CONTINUOUS
 10
-2.885476
 20
2.270138
  0
VERTEX
  8
PLAN_1
 62
     2
  6
CONTINUOUS
 10
-2.888657
 20
2.271728
  0
VERTEX
  8
PLAN_1
 62
     2
  6
CONTINUOUS
 10
-2.891839
 20
2.274114
  0
VERTEX
  8
PLAN_1
 62
     2
  6
CONTINUOUS
 10
-2.895024
 20
2.277299
  0
VERTEX
  8
PLAN_1
 62
     2
  6
CONTINUOUS
 10
-2.896614
 20
2.280480
  0
VERTEX
  8
PLAN_1
 62
     2
  6
CONTINUOUS
 10
-2.898205
 20
2.286047
  0
VERTEX
  8
PLAN_1
 62
     2
  6
CONTINUOUS
 10
-2.899000
 20
2.291618
  0
VERTEX
  8
PLAN_1
 62
     2
  6
CONTINUOUS
 10
-2.898205
 20
2.297189
  0
VERTEX
  8
PLAN_1
 62
     2
  6
CONTINUOUS
 10
-2.897409
 20
2.301961
  0
VERTEX
  8
PLAN_1
 62
     2
  6
CONTINUOUS
 10
-2.895024
 20
2.305937
  0
VERTEX
  8
PLAN_1
 62
     2
  6
CONTINUOUS
 10
-2.892634
 20
2.309122
  0
VERTEX
  8
PLAN_1
 62
     2
  6
CONTINUOUS
 10
-2.890248
 20
2.311508
  0
VERTEX
  8
PLAN_1
 62
     2
  6
CONTINUOUS
 10
-2.887067
 20
2.313098
  0
VERTEX
  8
PLAN_1
 62
     2
  6
CONTINUOUS
 10
-2.883087
 20
2.313894
  0
VERTEX
  8
PLAN_1
 62
     2
  6
CONTINUOUS
 10
-2.879906
 20
2.313894
  0
VERTEX
  8
PLAN_1
 62
     2
  6
CONTINUOUS
 10
-2.876724
 20
2.313894
  0
VERTEX
  8
PLAN_1
 62
     2
  6
CONTINUOUS
 10
-2.873543
 20
2.313098
  0
VERTEX
  8
PLAN_1
 62
     2
  6
CONTINUOUS
 10
-2.871154
 20
2.312303
  0
VERTEX
  8
PLAN_1
 62
     2
  6
CONTINUOUS
 10
-2.868768
 20
2.310713
  0
VERTEX
  8
PLAN_1
 62
     2
  6
CONTINUOUS
 10
-2.867972
 20
2.309122
  0
VERTEX
  8
PLAN_1
 62
     2
  6
CONTINUOUS
 10
-2.866382
 20
2.307531
  0
VERTEX
  8
PLAN_1
 62
     2
  6
CONTINUOUS
 10
-2.865587
 20
2.305937
  0
VERTEX
  8
PLAN_1
 62
     2
  6
CONTINUOUS
 10
-2.864791
 20
2.305142
  0
SEQEND
  8
0
  0
POLYLINE
  8
PLAN_1
 62
     2
  6
CONTINUOUS
 66
     1
 40
0.003000
 41
0.003000
  0
VERTEX
  8
PLAN_1
 62
     2
  6
CONTINUOUS
 10
-2.846492
 20
2.276504
  0
VERTEX
  8
PLAN_1
 62
     2
  6
CONTINUOUS
 10
-2.844106
 20
2.277299
  0
VERTEX
  8
PLAN_1
 62
     2
  6
CONTINUOUS
 10
-2.841717
 20
2.277299
  0
VERTEX
  8
PLAN_1
 62
     2
  6
CONTINUOUS
 10
-2.839331
 20
2.278094
  0
VERTEX
  8
PLAN_1
 62
     2
  6
CONTINUOUS
 10
-2.836945
 20
2.279685
  0
VERTEX
  8
PLAN_1
 62
     2
  6
CONTINUOUS
 10
-2.835354
 20
2.282071
  0
VERTEX
  8
PLAN_1
 62
     2
  6
CONTINUOUS
 10
-2.833764
 20
2.284457
  0
VERTEX
  8
PLAN_1
 62
     2
  6
CONTINUOUS
 10
-2.832169
 20
2.288437
  0
VERTEX
  8
PLAN_1
 62
     2
  6
CONTINUOUS
 10
-2.832169
 20
2.292413
  0
VERTEX
  8
PLAN_1
 62
     2
  6
CONTINUOUS
 10
-2.832169
 20
2.294799
  0
VERTEX
  8
PLAN_1
 62
     2
  6
CONTINUOUS
 10
-2.832969
 20
2.297189
  0
VERTEX
  8
PLAN_1
 62
     2
  6
CONTINUOUS
 10
-2.833764
 20
2.299575
  0
VERTEX
  8
PLAN_1
 62
     2
  6
CONTINUOUS
 10
-2.834559
 20
2.301961
  0
VERTEX
  8
PLAN_1
 62
     2
  6
CONTINUOUS
 10
-2.836150
 20
2.304346
  0
VERTEX
  8
PLAN_1
 62
     2
  6
CONTINUOUS
 10
-2.839331
 20
2.305937
  0
VERTEX
  8
PLAN_1
 62
     2
  6
CONTINUOUS
 10
-2.841717
 20
2.306736
  0
VERTEX
  8
PLAN_1
 62
     2
  6
CONTINUOUS
 10
-2.845697
 20
2.306736
  0
VERTEX
  8
PLAN_1
 62
     2
  6
CONTINUOUS
 10
-2.849673
 20
2.306736
  0
VERTEX
  8
PLAN_1
 62
     2
  6
CONTINUOUS
 10
-2.852059
 20
2.305937
  0
VERTEX
  8
PLAN_1
 62
     2
  6
CONTINUOUS
 10
-2.854449
 20
2.304346
  0
VERTEX
  8
PLAN_1
 62
     2
  6
CONTINUOUS
 10
-2.856835
 20
2.302756
  0
VERTEX
  8
PLAN_1
 62
     2
  6
CONTINUOUS
 10
-2.858425
 20
2.300370
  0
VERTEX
  8
PLAN_1
 62
     2
  6
CONTINUOUS
 10
-2.859220
 20
2.297984
  0
VERTEX
  8
PLAN_1
 62
     2
  6
CONTINUOUS
 10
-2.860016
 20
2.294799
  0
VERTEX
  8
PLAN_1
 62
     2
  6
CONTINUOUS
 10
-2.860016
 20
2.291618
  0
VERTEX
  8
PLAN_1
 62
     2
  6
CONTINUOUS
 10
-2.860016
 20
2.288437
  0
VERTEX
  8
PLAN_1
 62
     2
  6
CONTINUOUS
 10
-2.859220
 20
2.285252
  0
VERTEX
  8
PLAN_1
 62
     2
  6
CONTINUOUS
 10
-2.857630
 20
2.282866
  0
VERTEX
  8
PLAN_1
 62
     2
  6
CONTINUOUS
 10
-2.856039
 20
2.280480
  0
VERTEX
  8
PLAN_1
 62
     2
  6
CONTINUOUS
 10
-2.853654
 20
2.278890
  0
VERTEX
  8
PLAN_1
 62
     2
  6
CONTINUOUS
 10
-2.851264
 20
2.278094
  0
VERTEX
  8
PLAN_1
 62
     2
  6
CONTINUOUS
 10
-2.848878
 20
2.277299
  0
VERTEX
  8
PLAN_1
 62
     2
  6
CONTINUOUS
 10
-2.846492
 20
2.276504
  0
SEQEND
  8
0
  0
POLYLINE
  8
PLAN_1
 62
     2
  6
CONTINUOUS
 66
     1
 40
0.003000
 41
0.003000
  0
VERTEX
  8
PLAN_1
 62
     2
  6
CONTINUOUS
 10
-2.879906
 20
2.305142
  0
VERTEX
  8
PLAN_1
 62
     2
  6
CONTINUOUS
 10
-2.881496
 20
2.304346
  0
VERTEX
  8
PLAN_1
 62
     2
  6
CONTINUOUS
 10
-2.883087
 20
2.304346
  0
VERTEX
  8
PLAN_1
 62
     2
  6
CONTINUOUS
 10
-2.885476
 20
2.303551
  0
VERTEX
  8
PLAN_1
 62
     2
  6
CONTINUOUS
 10
-2.887067
 20
2.301961
  0
VERTEX
  8
PLAN_1
 62
     2
  6
CONTINUOUS
 10
-2.888657
 20
2.300370
  0
VERTEX
  8
PLAN_1
 62
     2
  6
CONTINUOUS
 10
-2.889453
 20
2.297984
  0
VERTEX
  8
PLAN_1
 62
     2
  6
CONTINUOUS
 10
-2.890248
 20
2.294799
  0
VERTEX
  8
PLAN_1
 62
     2
  6
CONTINUOUS
 10
-2.891043
 20
2.290823
  0
VERTEX
  8
PLAN_1
 62
     2
  6
CONTINUOUS
 10
-2.890248
 20
2.287642
  0
VERTEX
  8
PLAN_1
 62
     2
  6
CONTINUOUS
 10
-2.889453
 20
2.285252
  0
VERTEX
  8
PLAN_1
 62
     2
  6
CONTINUOUS
 10
-2.888657
 20
2.282866
  0
VERTEX
  8
PLAN_1
 62
     2
  6
CONTINUOUS
 10
-2.887067
 20
2.281276
  0
VERTEX
  8
PLAN_1
 62
     2
  6
CONTINUOUS
 10
-2.884681
 20
2.280480
  0
VERTEX
  8
PLAN_1
 62
     2
  6
CONTINUOUS
 10
-2.883087
 20
2.279685
  0
VERTEX
  8
PLAN_1
 62
     2
  6
CONTINUOUS
 10
-2.881496
 20
2.278890
  0
VERTEX
  8
PLAN_1
 62
     2
  6
CONTINUOUS
 10
-2.879110
 20
2.278890
  0
VERTEX
  8
PLAN_1
 62
     2
  6
CONTINUOUS
 10
-2.876724
 20
2.278890
  0
VERTEX
  8
PLAN_1
 62
     2
  6
CONTINUOUS
 10
-2.874339
 20
2.279685
  0
VERTEX
  8
PLAN_1
 62
     2
  6
CONTINUOUS
 10
-2.872744
 20
2.281276
  0
VERTEX
  8
PLAN_1
 62
     2
  6
CONTINUOUS
 10
-2.871154
 20
2.282866
  0
VERTEX
  8
PLAN_1
 62
     2
  6
CONTINUOUS
 10
-2.869563
 20
2.284457
  0
VERTEX
  8
PLAN_1
 62
     2
  6
CONTINUOUS
 10
-2.868768
 20
2.286846
  0
VERTEX
  8
PLAN_1
 62
     2
  6
CONTINUOUS
 10
-2.867972
 20
2.289232
  0
VERTEX
  8
PLAN_1
 62
     2
  6
CONTINUOUS
 10
-2.867972
 20
2.291618
  0
VERTEX
  8
PLAN_1
 62
     2
  6
CONTINUOUS
 10
-2.867972
 20
2.294799
  0
VERTEX
  8
PLAN_1
 62
     2
  6
CONTINUOUS
 10
-2.868768
 20
2.297189
  0
VERTEX
  8
PLAN_1
 62
     2
  6
CONTINUOUS
 10
-2.870358
 20
2.299575
  0
VERTEX
  8
PLAN_1
 62
     2
  6
CONTINUOUS
 10
-2.871154
 20
2.301165
  0
VERTEX
  8
PLAN_1
 62
     2
  6
CONTINUOUS
 10
-2.873543
 20
2.302756
  0
VERTEX
  8
PLAN_1
 62
     2
  6
CONTINUOUS
 10
-2.875134
 20
2.303551
  0
VERTEX
  8
PLAN_1
 62
     2
  6
CONTINUOUS
 10
-2.877520
 20
2.304346
  0
VERTEX
  8
PLAN_1
 62
     2
  6
CONTINUOUS
 10
-2.879906
 20
2.305142
  0
SEQEND
  8
0
  0
POLYLINE
  8
PLAN_1
 62
     2
  6
CONTINUOUS
 66
     1
 40
0.003000
 41
0.003000
  0
VERTEX
  8
PLAN_1
 62
     2
  6
CONTINUOUS
 10
-2.864791
 20
2.362425
  0
VERTEX
  8
PLAN_1
 62
     2
  6
CONTINUOUS
 10
-2.863197
 20
2.366402
  0
VERTEX
  8
PLAN_1
 62
     2
  6
CONTINUOUS
 10
-2.860811
 20
2.368791
  0
VERTEX
  8
PLAN_1
 62
     2
  6
CONTINUOUS
 10
-2.858425
 20
2.371177
  0
VERTEX
  8
PLAN_1
 62
     2
  6
CONTINUOUS
 10
-2.856039
 20
2.372768
  0
VERTEX
  8
PLAN_1
 62
     2
  6
CONTINUOUS
 10
-2.853654
 20
2.373563
  0
VERTEX
  8
PLAN_1
 62
     2
  6
CONTINUOUS
 10
-2.851264
 20
2.374358
  0
VERTEX
  8
PLAN_1
 62
     2
  6
CONTINUOUS
 10
-2.848878
 20
2.374358
  0
VERTEX
  8
PLAN_1
 62
     2
  6
CONTINUOUS
 10
-2.847287
 20
2.374358
  0
VERTEX
  8
PLAN_1
 62
     2
  6
CONTINUOUS
 10
-2.842512
 20
2.374358
  0
VERTEX
  8
PLAN_1
 62
     2
  6
CONTINUOUS
 10
-2.838535
 20
2.373563
  0
VERTEX
  8
PLAN_1
 62
     2
  6
CONTINUOUS
 10
-2.834559
 20
2.371177
  0
VERTEX
  8
PLAN_1
 62
     2
  6
CONTINUOUS
 10
-2.831374
 20
2.368791
  0
VERTEX
  8
PLAN_1
 62
     2
  6
CONTINUOUS
 10
-2.828193
 20
2.365606
  0
VERTEX
  8
PLAN_1
 62
     2
  6
CONTINUOUS
 10
-2.825807
 20
2.360835
  0
VERTEX
  8
PLAN_1
 62
     2
  6
CONTINUOUS
 10
-2.824217
 20
2.356059
  0
VERTEX
  8
PLAN_1
 62
     2
  6
CONTINUOUS
 10
-2.824217
 20
2.349697
  0
VERTEX
  8
PLAN_1
 62
     2
  6
CONTINUOUS
 10
-2.824217
 20
2.348106
  0
VERTEX
  8
PLAN_1
 62
     2
  6
CONTINUOUS
 10
-2.824217
 20
2.346512
  0
VERTEX
  8
PLAN_1
 62
     2
  6
CONTINUOUS
 10
-2.824217
 20
2.344126
  0
VERTEX
  8
PLAN_1
 62
     2
  6
CONTINUOUS
 10
-2.825012
 20
2.341740
  0
VERTEX
  8
PLAN_1
 62
     2
  6
CONTINUOUS
 10
-2.825807
 20
2.339354
  0
VERTEX
  8
PLAN_1
 62
     2
  6
CONTINUOUS
 10
-2.826602
 20
2.336965
  0
VERTEX
  8
PLAN_1
 62
     2
  6
CONTINUOUS
 10
-2.828193
 20
2.334579
  0
VERTEX
  8
PLAN_1
 62
     2
  6
CONTINUOUS
 10
-2.829783
 20
2.332193
  0
VERTEX
  8
PLAN_1
 62
     2
  6
CONTINUOUS
 10
-2.832169
 20
2.329807
  0
VERTEX
  8
PLAN_1
 62
     2
  6
CONTINUOUS
 10
-2.834559
 20
2.328217
  0
VERTEX
  8
PLAN_1
 62
     2
  6
CONTINUOUS
 10
-2.836945
 20
2.326622
  0
VERTEX
  8
PLAN_1
 62
     2
  6
CONTINUOUS
 10
-2.839331
 20
2.325827
  0
VERTEX
  8
PLAN_1
 62
     2
  6
CONTINUOUS
 10
-2.841717
 20
2.325031
  0
VERTEX
  8
PLAN_1
 62
     2
  6
CONTINUOUS
 10
-2.843311
 20
2.325031
  0
VERTEX
  8
PLAN_1
 62
     2
  6
CONTINUOUS
 10
-2.845697
 20
2.325031
  0
VERTEX
  8
PLAN_1
 62
     2
  6
CONTINUOUS
 10
-2.846492
 20
2.325031
  0
VERTEX
  8
PLAN_1
 62
     2
  6
CONTINUOUS
 10
-2.850469
 20
2.325031
  0
VERTEX
  8
PLAN_1
 62
     2
  6
CONTINUOUS
 10
-2.852854
 20
2.325827
  0
VERTEX
  8
PLAN_1
 62
     2
  6
CONTINUOUS
 10
-2.855244
 20
2.326622
  0
VERTEX
  8
PLAN_1
 62
     2
  6
CONTINUOUS
 10
-2.857630
 20
2.328217
  0
VERTEX
  8
PLAN_1
 62
     2
  6
CONTINUOUS
 10
-2.860016
 20
2.329807
  0
VERTEX
  8
PLAN_1
 62
     2
  6
CONTINUOUS
 10
-2.861606
 20
2.332193
  0
VERTEX
  8
PLAN_1
 62
     2
  6
CONTINUOUS
 10
-2.863197
 20
2.334579
  0
VERTEX
  8
PLAN_1
 62
     2
  6
CONTINUOUS
 10
-2.864791
 20
2.336965
  0
VERTEX
  8
PLAN_1
 62
     2
  6
CONTINUOUS
 10
-2.865587
 20
2.335374
  0
VERTEX
  8
PLAN_1
 62
     2
  6
CONTINUOUS
 10
-2.867177
 20
2.332988
  0
VERTEX
  8
PLAN_1
 62
     2
  6
CONTINUOUS
 10
-2.868768
 20
2.331398
  0
VERTEX
  8
PLAN_1
 62
     2
  6
CONTINUOUS
 10
-2.870358
 20
2.329807
  0
VERTEX
  8
PLAN_1
 62
     2
  6
CONTINUOUS
 10
-2.871949
 20
2.329012
  0
VERTEX
  8
PLAN_1
 62
     2
  6
CONTINUOUS
 10
-2.874339
 20
2.328217
  0
VERTEX
  8
PLAN_1
 62
     2
  6
CONTINUOUS
 10
-2.876724
 20
2.327421
  0
VERTEX
  8
PLAN_1
 62
     2
  6
CONTINUOUS
 10
-2.879110
 20
2.327421
  0
VERTEX
  8
PLAN_1
 62
     2
  6
CONTINUOUS
 10
-2.882291
 20
2.327421
  0
VERTEX
  8
PLAN_1
 62
     2
  6
CONTINUOUS
 10
-2.885476
 20
2.328217
  0
VERTEX
  8
PLAN_1
 62
     2
  6
CONTINUOUS
 10
-2.888657
 20
2.329807
  0
VERTEX
  8
PLAN_1
 62
     2
  6
CONTINUOUS
 10
-2.891839
 20
2.332193
  0
VERTEX
  8
PLAN_1
 62
     2
  6
CONTINUOUS
 10
-2.895024
 20
2.334579
  0
VERTEX
  8
PLAN_1
 62
     2
  6
CONTINUOUS
 10
-2.896614
 20
2.338559
  0
VERTEX
  8
PLAN_1
 62
     2
  6
CONTINUOUS
 10
-2.898205
 20
2.343331
  0
VERTEX
  8
PLAN_1
 62
     2
  6
CONTINUOUS
 10
-2.899000
 20
2.349697
  0
VERTEX
  8
PLAN_1
 62
     2
  6
CONTINUOUS
 10
-2.898205
 20
2.355264
  0
VERTEX
  8
PLAN_1
 62
     2
  6
CONTINUOUS
 10
-2.897409
 20
2.360039
  0
VERTEX
  8
PLAN_1
 62
     2
  6
CONTINUOUS
 10
-2.895024
 20
2.364016
  0
VERTEX
  8
PLAN_1
 62
     2
  6
CONTINUOUS
 10
-2.892634
 20
2.367197
  0
VERTEX
  8
PLAN_1
 62
     2
  6
CONTINUOUS
 10
-2.890248
 20
2.369587
  0
VERTEX
  8
PLAN_1
 62
     2
  6
CONTINUOUS
 10
-2.887067
 20
2.371177
  0
VERTEX
  8
PLAN_1
 62
     2
  6
CONTINUOUS
 10
-2.883087
 20
2.371972
  0
VERTEX
  8
PLAN_1
 62
     2
  6
CONTINUOUS
 10
-2.879906
 20
2.371972
  0
VERTEX
  8
PLAN_1
 62
     2
  6
CONTINUOUS
 10
-2.876724
 20
2.371972
  0
VERTEX
  8
PLAN_1
 62
     2
  6
CONTINUOUS
 10
-2.873543
 20
2.371177
  0
VERTEX
  8
PLAN_1
 62
     2
  6
CONTINUOUS
 10
-2.871154
 20
2.370382
  0
VERTEX
  8
PLAN_1
 62
     2
  6
CONTINUOUS
 10
-2.868768
 20
2.368791
  0
VERTEX
  8
PLAN_1
 62
     2
  6
CONTINUOUS
 10
-2.867972
 20
2.367197
  0
VERTEX
  8
PLAN_1
 62
     2
  6
CONTINUOUS
 10
-2.866382
 20
2.365606
  0
VERTEX
  8
PLAN_1
 62
     2
  6
CONTINUOUS
 10
-2.865587
 20
2.364016
  0
VERTEX
  8
PLAN_1
 62
     2
  6
CONTINUOUS
 10
-2.864791
 20
2.362425
  0
SEQEND
  8
0
  0
POLYLINE
  8
PLAN_1
 62
     2
  6
CONTINUOUS
 66
     1
 40
0.003000
 41
0.003000
  0
VERTEX
  8
PLAN_1
 62
     2
  6
CONTINUOUS
 10
-2.846492
 20
2.334579
  0
VERTEX
  8
PLAN_1
 62
     2
  6
CONTINUOUS
 10
-2.844106
 20
2.334579
  0
VERTEX
  8
PLAN_1
 62
     2
  6
CONTINUOUS
 10
-2.841717
 20
2.335374
  0
VERTEX
  8
PLAN_1
 62
     2
  6
CONTINUOUS
 10
-2.839331
 20
2.336169
  0
VERTEX
  8
PLAN_1
 62
     2
  6
CONTINUOUS
 10
-2.836945
 20
2.337764
  0
VERTEX
  8
PLAN_1
 62
     2
  6
CONTINUOUS
 10
-2.835354
 20
2.340150
  0
VERTEX
  8
PLAN_1
 62
     2
  6
CONTINUOUS
 10
-2.833764
 20
2.342535
  0
VERTEX
  8
PLAN_1
 62
     2
  6
CONTINUOUS
 10
-2.832169
 20
2.345717
  0
VERTEX
  8
PLAN_1
 62
     2
  6
CONTINUOUS
 10
-2.832169
 20
2.350492
  0
VERTEX
  8
PLAN_1
 62
     2
  6
CONTINUOUS
 10
-2.832169
 20
2.352878
  0
VERTEX
  8
PLAN_1
 62
     2
  6
CONTINUOUS
 10
-2.832969
 20
2.355264
  0
VERTEX
  8
PLAN_1
 62
     2
  6
CONTINUOUS
 10
-2.833764
 20
2.357650
  0
VERTEX
  8
PLAN_1
 62
     2
  6
CONTINUOUS
 10
-2.834559
 20
2.360039
  0
VERTEX
  8
PLAN_1
 62
     2
  6
CONTINUOUS
 10
-2.836150
 20
2.362425
  0
VERTEX
  8
PLAN_1
 62
     2
  6
CONTINUOUS
 10
-2.839331
 20
2.363220
  0
VERTEX
  8
PLAN_1
 62
     2
  6
CONTINUOUS
 10
-2.841717
 20
2.364811
  0
VERTEX
  8
PLAN_1
 62
     2
  6
CONTINUOUS
 10
-2.845697
 20
2.364811
  0
VERTEX
  8
PLAN_1
 62
     2
  6
CONTINUOUS
 10
-2.849673
 20
2.364811
  0
VERTEX
  8
PLAN_1
 62
     2
  6
CONTINUOUS
 10
-2.852059
 20
2.364016
  0
VERTEX
  8
PLAN_1
 62
     2
  6
CONTINUOUS
 10
-2.854449
 20
2.362425
  0
VERTEX
  8
PLAN_1
 62
     2
  6
CONTINUOUS
 10
-2.856835
 20
2.360835
  0
VERTEX
  8
PLAN_1
 62
     2
  6
CONTINUOUS
 10
-2.858425
 20
2.358449
  0
VERTEX
  8
PLAN_1
 62
     2
  6
CONTINUOUS
 10
-2.859220
 20
2.355264
  0
VERTEX
  8
PLAN_1
 62
     2
  6
CONTINUOUS
 10
-2.860016
 20
2.352878
  0
VERTEX
  8
PLAN_1
 62
     2
  6
CONTINUOUS
 10
-2.860016
 20
2.349697
  0
VERTEX
  8
PLAN_1
 62
     2
  6
CONTINUOUS
 10
-2.860016
 20
2.346512
  0
VERTEX
  8
PLAN_1
 62
     2
  6
CONTINUOUS
 10
-2.859220
 20
2.343331
  0
VERTEX
  8
PLAN_1
 62
     2
  6
CONTINUOUS
 10
-2.857630
 20
2.340150
  0
VERTEX
  8
PLAN_1
 62
     2
  6
CONTINUOUS
 10
-2.856039
 20
2.338559
  0
VERTEX
  8
PLAN_1
 62
     2
  6
CONTINUOUS
 10
-2.853654
 20
2.336965
  0
VERTEX
  8
PLAN_1
 62
     2
  6
CONTINUOUS
 10
-2.851264
 20
2.335374
  0
VERTEX
  8
PLAN_1
 62
     2
  6
CONTINUOUS
 10
-2.848878
 20
2.334579
  0
VERTEX
  8
PLAN_1
 62
     2
  6
CONTINUOUS
 10
-2.846492
 20
2.334579
  0
SEQEND
  8
0
  0
POLYLINE
  8
PLAN_1
 62
     2
  6
CONTINUOUS
 66
     1
 40
0.003000
 41
0.003000
  0
VERTEX
  8
PLAN_1
 62
     2
  6
CONTINUOUS
 10
-2.879906
 20
2.362425
  0
VERTEX
  8
PLAN_1
 62
     2
  6
CONTINUOUS
 10
-2.881496
 20
2.362425
  0
VERTEX
  8
PLAN_1
 62
     2
  6
CONTINUOUS
 10
-2.883087
 20
2.362425
  0
VERTEX
  8
PLAN_1
 62
     2
  6
CONTINUOUS
 10
-2.885476
 20
2.360835
  0
VERTEX
  8
PLAN_1
 62
     2
  6
CONTINUOUS
 10
-2.887067
 20
2.360039
  0
VERTEX
  8
PLAN_1
 62
     2
  6
CONTINUOUS
 10
-2.888657
 20
2.358449
  0
VERTEX
  8
PLAN_1
 62
     2
  6
CONTINUOUS
 10
-2.889453
 20
2.356059
  0
VERTEX
  8
PLAN_1
 62
     2
  6
CONTINUOUS
 10
-2.890248
 20
2.352878
  0
VERTEX
  8
PLAN_1
 62
     2
  6
CONTINUOUS
 10
-2.891043
 20
2.348902
  0
VERTEX
  8
PLAN_1
 62
     2
  6
CONTINUOUS
 10
-2.890248
 20
2.345717
  0
VERTEX
  8
PLAN_1
 62
     2
  6
CONTINUOUS
 10
-2.889453
 20
2.343331
  0
VERTEX
  8
PLAN_1
 62
     2
  6
CONTINUOUS
 10
-2.888657
 20
2.340945
  0
VERTEX
  8
PLAN_1
 62
     2
  6
CONTINUOUS
 10
-2.887067
 20
2.339354
  0
VERTEX
  8
PLAN_1
 62
     2
  6
CONTINUOUS
 10
-2.884681
 20
2.337764
  0
VERTEX
  8
PLAN_1
 62
     2
  6
CONTINUOUS
 10
-2.883087
 20
2.337764
  0
VERTEX
  8
PLAN_1
 62
     2
  6
CONTINUOUS
 10
-2.881496
 20
2.336965
  0
VERTEX
  8
PLAN_1
 62
     2
  6
CONTINUOUS
 10
-2.879110
 20
2.336965
  0
VERTEX
  8
PLAN_1
 62
     2
  6
CONTINUOUS
 10
-2.876724
 20
2.336965
  0
VERTEX
  8
PLAN_1
 62
     2
  6
CONTINUOUS
 10
-2.874339
 20
2.337764
  0
VERTEX
  8
PLAN_1
 62
     2
  6
CONTINUOUS
 10
-2.872744
 20
2.339354
  0
VERTEX
  8
PLAN_1
 62
     2
  6
CONTINUOUS
 10
-2.871154
 20
2.340945
  0
VERTEX
  8
PLAN_1
 62
     2
  6
CONTINUOUS
 10
-2.869563
 20
2.342535
  0
VERTEX
  8
PLAN_1
 62
     2
  6
CONTINUOUS
 10
-2.868768
 20
2.344921
  0
VERTEX
  8
PLAN_1
 62
     2
  6
CONTINUOUS
 10
-2.867972
 20
2.347307
  0
VERTEX
  8
PLAN_1
 62
     2
  6
CONTINUOUS
 10
-2.867972
 20
2.349697
  0
VERTEX
  8
PLAN_1
 62
     2
  6
CONTINUOUS
 10
-2.867972
 20
2.352878
  0
VERTEX
  8
PLAN_1
 62
     2
  6
CONTINUOUS
 10
-2.868768
 20
2.355264
  0
VERTEX
  8
PLAN_1
 62
     2
  6
CONTINUOUS
 10
-2.870358
 20
2.357650
  0
VERTEX
  8
PLAN_1
 62
     2
  6
CONTINUOUS
 10
-2.871154
 20
2.359244
  0
VERTEX
  8
PLAN_1
 62
     2
  6
CONTINUOUS
 10
-2.873543
 20
2.360835
  0
VERTEX
  8
PLAN_1
 62
     2
  6
CONTINUOUS
 10
-2.875134
 20
2.361630
  0
VERTEX
  8
PLAN_1
 62
     2
  6
CONTINUOUS
 10
-2.877520
 20
2.362425
  0
VERTEX
  8
PLAN_1
 62
     2
  6
CONTINUOUS
 10
-2.879906
 20
2.362425
  0
SEQEND
  8
0
  0
POLYLINE
  8
PLAN_1
 62
     2
  6
CONTINUOUS
 66
     1
 40
0.003976
 41
0.003976
  0
VERTEX
  8
PLAN_1
 62
     2
  6
CONTINUOUS
 10
-2.537012
 20
-1.523201
  0
VERTEX
  8
PLAN_1
 62
     2
  6
CONTINUOUS
 10
-2.825807
 20
-1.523201
  0
SEQEND
  8
0
  0
ENDSEC
  0
EOF
