999
DXF file: C:\Users\sesa63760\OneDrive - Schneider Electric\Documents\7-Dev\_Creo\CAD\MCADPP0000166_3D-CAD\drw0001_5.dxf
999
Pro/ENGINEER 2019471 by Parametric Technology Corporation
  0
SECTION
  2
HEADER
  9
$ACADVER
  1
AC1024
  9
$DWGCODEPAGE
  3
ANSI_1252
  9
$EXTMAX
 10
113.6475209612
 20
160.7300653595
 30
0.0
  9
$EXTMIN
 10
0.0
 20
0.0
 30
0.0
  9
$LIMMIN
 10
0.0
 20
0.0
  9
$LIMMAX
 10
113.6475209612
 20
160.7300653595
  9
$VIEWCTR
 10
56.8237604806
 20
80.3650326797
  9
$VIEWSIZE
 40
160.7300653595
  9
$CLAYER
  8
0
  9
$LTSCALE
 40
10.4772190753
  9
$CELTYPE
  6
BYLAYER
  9
$DIMSCALE
 40
1.0
  9
$DIMASZ
 40
1.3529466781
  9
$DIMEXO
 40
1.0
  9
$DIMDLI
 40
7.2388059066
  9
$DIMEXE
 40
1.0
  9
$DIMCEN
 40
1.7144540305
  9
$DIMLFAC
 40
1.0
  9
$DIMBLK
  1
_FILLED
  9
$DIMALT
 70
0
  9
$DIMALTF
 40
0.0393700787
  9
$DIMTXT
 40
1.8941253494
  9
$DIMTOL
 70
1
  9
$DIMLIM
 70
0
  9
$DIMTFAC
 40
1.0
  9
$DIMTP
 40
0.01
  9
$DIMTM
 40
0.01
  9
$DIMGAP
 40
0.625
  9
$DIMDSEP
 70
46
  9
$AUNITS
 70
0
  9
$PDMODE
 70
3
  9
$PDSIZE
 40
0.3125
  9
$HANDSEED
  5
2C0
  9
$TILEMODE
 70
1
  9
$MEASUREMENT
 70
1
  9
$INSUNITS
 70
4
  0
ENDSEC
  0
SECTION
  2
CLASSES
  0
CLASS
  1
ACDBDICTIONARYWDFLT
  2
AcDbDictionaryWithDefault
  3
AutoCAD 2000
 90
0
 91
1
280
0
281
0
  0
CLASS
  1
ACDBPLACEHOLDER
  2
AcDbPlaceHolder
  3
AutoCAD 2000
 90
0
 91
1
280
0
281
0
  0
CLASS
  1
LAYOUT
  2
AcDbLayout
  3
AutoCAD 2000
 90
0
 91
0
280
0
281
0
  0
ENDSEC
  0
SECTION
  2
TABLES
  0
TABLE
  2
VPORT
  5
8
100
AcDbSymbolTable
 70
2
  0
VPORT
  5
1F4
100
AcDbSymbolTableRecord
100
AcDbViewportTableRecord
  2
*ACTIVE
 70
0
 10
0.0
 20
0.0
 11
1.0
 21
1.0
 12
56.8237604806
 22
80.3650326797
 13
0.0
 23
0.0
 14
1.0
 24
1.0
 15
0.0
 25
0.0
 16
0.0
 26
0.0
 36
1.0
 17
0.0
 27
0.0
 37
0.0
 40
160.7300653595
 41
0.7070707071
 42
50.0
 43
0.0
 44
0.0
 50
0.0
 51
0.0
 71
0
 72
100
 73
1
 74
1
 75
0
 76
0
 77
0
 78
0
  0
ENDTAB
  0
TABLE
  2
LTYPE
  5
5
100
AcDbSymbolTable
 70
6
  0
LTYPE
  5
14
100
AcDbSymbolTableRecord
100
AcDbLinetypeTableRecord
  2
BYBLOCK
 70
0
  3

 72
65
 73
0
 40
0.0
  0
LTYPE
  5
15
100
AcDbSymbolTableRecord
100
AcDbLinetypeTableRecord
  2
BYLAYER
 70
0
  3

 72
65
 73
0
 40
0.0
  0
LTYPE
  5
16
100
AcDbSymbolTableRecord
100
AcDbLinetypeTableRecord
  2
CONTINUOUS
 70
64
  3
Solid line
 72
65
 73
0
 40
0.0
  0
LTYPE
  5
1F5
100
AcDbSymbolTableRecord
100
AcDbLinetypeTableRecord
  2
CENTER
 70
64
  3
____ _ ____ _ ____ _ ____ _ ____ _ ____ _ ____
 72
65
 73
4
 40
0.6
 49
0.375
 74
0
 49
-0.075
 74
0
 49
0.075
 74
0
 49
-0.075
 74
0
  0
LTYPE
  5
1F6
100
AcDbSymbolTableRecord
100
AcDbLinetypeTableRecord
  2
HIDDEN
 70
64
  3
- - - - - - - - - - - - - - - - - - - -
 72
65
 73
2
 40
0.2
 49
0.1
 74
0
 49
-0.1
 74
0
  0
LTYPE
  5
1F7
100
AcDbSymbolTableRecord
100
AcDbLinetypeTableRecord
  2
PHANTOM
 70
64
  3
_____ _ _ _____ _ _ _____ _ _ _____
 72
65
 73
6
 40
0.8
 49
0.45
 74
0
 49
-0.05
 74
0
 49
0.1
 74
0
 49
-0.05
 74
0
 49
0.1
 74
0
 49
-0.05
 74
0
  0
LTYPE
  5
1F8
100
AcDbSymbolTableRecord
100
AcDbLinetypeTableRecord
  2
DOT
 70
64
  3
. . . . . . . . . . . . . . . . . . . .
 72
65
 73
2
 40
0.2
 49
0.1
 74
0
 49
-0.1
 74
0
  0
LTYPE
  5
1F9
100
AcDbSymbolTableRecord
100
AcDbLinetypeTableRecord
  2
DASHED
 70
64
  3
- - - - - - - - - - - - - - - - - - - -
 72
65
 73
2
 40
0.2
 49
0.1
 74
0
 49
-0.1
 74
0
  0
ENDTAB
  0
TABLE
  2
LAYER
  5
2
100
AcDbSymbolTable
 70
36
  0
LAYER
  5
10
100
AcDbSymbolTableRecord
100
AcDbLayerTableRecord
  2
0
 70
0
 62
7
  6
CONTINUOUS
370
-3
390
F
  0
LAYER
  5
1FA
100
AcDbSymbolTableRecord
100
AcDbLayerTableRecord
  2
DEFAULT_1
 70
0
 62
7
  6
CENTER
370
-3
390
F
  0
LAYER
  5
1FB
100
AcDbSymbolTableRecord
100
AcDbLayerTableRecord
  2
DEFAULT_2
 70
0
 62
8
  6
HIDDEN
370
-3
390
F
  0
LAYER
  5
1FC
100
AcDbSymbolTableRecord
100
AcDbLayerTableRecord
  2
DEFAULT_3
 70
0
 62
7
  6
PHANTOM
370
-3
390
F
  0
LAYER
  5
1FD
100
AcDbSymbolTableRecord
100
AcDbLayerTableRecord
  2
00_COMPONENTS
 70
0
 62
7
  6
CONTINUOUS
370
-3
390
F
  0
LAYER
  5
1FE
100
AcDbSymbolTableRecord
100
AcDbLayerTableRecord
  2
01_1_DEFAULT_DATUMS
 70
0
 62
7
  6
CONTINUOUS
370
-3
390
F
  0
LAYER
  5
1FF
100
AcDbSymbolTableRecord
100
AcDbLayerTableRecord
  2
01_PLANES
 70
0
 62
7
  6
CONTINUOUS
370
-3
390
F
  0
LAYER
  5
200
100
AcDbSymbolTableRecord
100
AcDbLayerTableRecord
  2
02_COORD_SYS
 70
0
 62
7
  6
CONTINUOUS
370
-3
390
F
  0
LAYER
  5
201
100
AcDbSymbolTableRecord
100
AcDbLayerTableRecord
  2
03_AXES
 70
0
 62
7
  6
CONTINUOUS
370
-3
390
F
  0
LAYER
  5
202
100
AcDbSymbolTableRecord
100
AcDbLayerTableRecord
  2
04_POINTS
 70
0
 62
7
  6
CONTINUOUS
370
-3
390
F
  0
LAYER
  5
203
100
AcDbSymbolTableRecord
100
AcDbLayerTableRecord
  2
05_CURVES
 70
0
 62
7
  6
CONTINUOUS
370
-3
390
F
  0
LAYER
  5
204
100
AcDbSymbolTableRecord
100
AcDbLayerTableRecord
  2
06_SURFS
 70
0
 62
7
  6
CONTINUOUS
370
-3
390
F
  0
LAYER
  5
205
100
AcDbSymbolTableRecord
100
AcDbLayerTableRecord
  2
07_COSMETICS
 70
0
 62
7
  6
CONTINUOUS
370
-3
390
F
  0
LAYER
  5
206
100
AcDbSymbolTableRecord
100
AcDbLayerTableRecord
  2
10_NOTES
 70
0
 62
7
  6
CONTINUOUS
370
-3
390
F
  0
LAYER
  5
207
100
AcDbSymbolTableRecord
100
AcDbLayerTableRecord
  2
11_NOTES_PUB
 70
0
 62
7
  6
CONTINUOUS
370
-3
390
F
  0
LAYER
  5
208
100
AcDbSymbolTableRecord
100
AcDbLayerTableRecord
  2
13_REF_GTOL
 70
0
 62
7
  6
CONTINUOUS
370
-3
390
F
  0
LAYER
  5
209
100
AcDbSymbolTableRecord
100
AcDbLayerTableRecord
  2
16_MISC
 70
0
 62
7
  6
CONTINUOUS
370
-3
390
F
  0
LAYER
  5
20A
100
AcDbSymbolTableRecord
100
AcDbLayerTableRecord
  2
17_NO_PRINT
 70
0
 62
7
  6
CONTINUOUS
370
-3
390
F
  0
LAYER
  5
20B
100
AcDbSymbolTableRecord
100
AcDbLayerTableRecord
  2
18_DATUM_CAMS_JOINTS
 70
0
 62
7
  6
CONTINUOUS
370
-3
390
F
  0
LAYER
  5
20C
100
AcDbSymbolTableRecord
100
AcDbLayerTableRecord
  2
19_DATUM_FUNCTIONAL
 70
0
 62
7
  6
CONTINUOUS
370
-3
390
F
  0
LAYER
  5
20D
100
AcDbSymbolTableRecord
100
AcDbLayerTableRecord
  2
20_DATUM_KINEMATIC_SCHEME
 70
0
 62
7
  6
CONTINUOUS
370
-3
390
F
  0
ENDTAB
  0
TABLE
  2
STYLE
  5
3
100
AcDbSymbolTable
 70
1
  0
STYLE
  5
11
100
AcDbSymbolTableRecord
100
AcDbTextStyleTableRecord
  2
STANDARD
 70
0
 40
0.0
 41
0.8
 50
0.0
 71
0
 42
0.2
  3
txt
  4

  0
STYLE
  5
20E
100
AcDbSymbolTableRecord
100
AcDbTextStyleTableRecord
  2
TEXTSTYLE_1
 70
0
 40
0.0
 41
0.8
 50
0.0
 71
0
 42
0.2
  3
gdt
  4

  0
ENDTAB
  0
TABLE
  2
VIEW
  5
6
100
AcDbSymbolTable
 70
0
  0
ENDTAB
  0
TABLE
  2
UCS
  5
7
100
AcDbSymbolTable
 70
0
  0
ENDTAB
  0
TABLE
  2
APPID
  5
9
100
AcDbSymbolTable
 70
1
  0
APPID
  5
20F
100
AcDbSymbolTableRecord
100
AcDbRegAppTableRecord
  2
ACAD
 70
0
  0
ENDTAB
  0
TABLE
  2
BLOCK_RECORD
  5
1
100
AcDbSymbolTable
 70
0
  0
BLOCK_RECORD
  5
210
100
AcDbSymbolTableRecord
100
AcDbBlockTableRecord
  2
*Model_Space
  0
BLOCK_RECORD
  5
211
100
AcDbSymbolTableRecord
100
AcDbBlockTableRecord
  2
*Paper_Space
  0
BLOCK_RECORD
  5
212
100
AcDbSymbolTableRecord
100
AcDbBlockTableRecord
  2
_FILLED
  0
ENDTAB
  0
TABLE
  2
DIMSTYLE
  5
A
100
AcDbSymbolTable
 70
1
100
AcDbDimStyleTable
 71
0
  0
DIMSTYLE
105
213
100
AcDbSymbolTableRecord
100
AcDbDimStyleTableRecord
  2
STANDARD
 70
0
  3

  4

 40
1.0
 41
1.3529466781
 42
1.0
 43
0.38
 44
1.0
 45
0.0
 46
0.0
 47
0.01
 48
0.01
140
1.8941253494
141
0.09
142
0.0
143
25.4
144
1.0
145
0.0
146
1.0
147
0.625
 71
1
 72
0
 73
0
 74
0
 75
0
 76
0
 77
1
 78
8
 79
2
170
0
171
1
172
0
173
0
174
0
175
0
176
0
177
0
178
0
270
2
179
2
271
2
272
2
273
2
274
2
275
0
280
0
281
0
282
0
283
1
284
8
285
0
286
0
287
3
288
0
340
11
278
46
341
212
342
212
343
212
344
212
  0
ENDTAB
  0
ENDSEC
  0
SECTION
  2
BLOCKS
  0
BLOCK
  5
20
100
AcDbEntity
  8
0
100
AcDbBlockBegin
  2
*Model_Space
 70
0
 10
0.0
 20
0.0
 30
0.0
  3
*Model_Space
  1

  0
ENDBLK
  5
21
100
AcDbEntity
  8
0
100
AcDbBlockEnd
  0
BLOCK
  5
1C
100
AcDbEntity
  8
0
100
AcDbBlockBegin
  2
*Paper_Space
 70
0
 10
0.0
 20
0.0
 30
0.0
  3
*Paper_Space
  1

  0
ENDBLK
  5
1D
100
AcDbEntity
  8
0
100
AcDbBlockEnd
  0
BLOCK
  5
214
100
AcDbEntity
  8
0
100
AcDbBlockBegin
  2
_FILLED
 70
64
 10
0.0
 20
0.0
  3
_FILLED
  1

  0
SOLID
  5
215
100
AcDbEntity
  8
0
  6
BYBLOCK
 62
0
100
AcDbTrace
 10
0.0
 20
0.0
 11
-1.0
 21
0.25
 12
-1.0
 22
-0.25
 13
-1.0
 23
-0.25
  0
ENDBLK
  5
216
100
AcDbEntity
  8
0
  6
BYBLOCK
 62
0
100
AcDbBlockEnd
  0
ENDSEC
  0
SECTION
  2
ENTITIES
  0
LINE
  5
217
100
AcDbEntity
  8
0
100
AcDbLine
 62
7
  6
CONTINUOUS
 10
27.9646166898
 20
31.8604888345
 11
29.9646166898
 21
31.8604888345
  0
LINE
  5
218
100
AcDbEntity
  8
0
100
AcDbLine
 62
7
  6
CONTINUOUS
 10
59.0976166898
 20
31.8613212272
 11
81.8976166898
 21
31.8613212272
  0
LINE
  5
219
100
AcDbEntity
  8
0
100
AcDbLine
 62
7
  6
CONTINUOUS
 10
59.0976166898
 20
32.0489345964
 11
81.8976166898
 21
32.0489345964
  0
LINE
  5
21A
100
AcDbEntity
  8
0
100
AcDbLine
 62
7
  6
CONTINUOUS
 10
27.9646166898
 20
32.1746321503
 11
29.9646166898
 21
32.1746321503
  0
LINE
  5
21B
100
AcDbEntity
  8
0
100
AcDbLine
 62
7
  6
CONTINUOUS
 10
59.0976166898
 20
32.2234586608
 11
81.8976166898
 21
32.2234586608
  0
LINE
  5
21C
100
AcDbEntity
  8
0
100
AcDbLine
 62
7
  6
CONTINUOUS
 10
59.0976166898
 20
32.4197982332
 11
81.8976166898
 21
32.4197982332
  0
LINE
  5
21D
100
AcDbEntity
  8
0
100
AcDbLine
 62
7
  6
CONTINUOUS
 10
13.2476166898
 20
71.1521079561
 11
13.2476166898
 21
54.730402
  0
LINE
  5
21E
100
AcDbEntity
  8
0
100
AcDbLine
 62
7
  6
CONTINUOUS
 10
27.9646166898
 20
32.4599789956
 11
29.9646166898
 21
32.4599789956
  0
LINE
  5
21F
100
AcDbEntity
  8
0
100
AcDbLine
 62
7
  6
CONTINUOUS
 10
59.0976166898
 20
32.4634292493
 11
81.8976166898
 21
32.4634292493
  0
LINE
  5
220
100
AcDbEntity
  8
0
100
AcDbLine
 62
7
  6
CONTINUOUS
 10
59.0976166898
 20
32.6597688217
 11
81.8976166898
 21
32.6597688217
  0
LINE
  5
221
100
AcDbEntity
  8
0
100
AcDbLine
 62
7
  6
CONTINUOUS
 10
27.9646166898
 20
32.7741223115
 11
29.9646166898
 21
32.7741223115
  0
LINE
  5
222
100
AcDbEntity
  8
0
100
AcDbLine
 62
7
  6
CONTINUOUS
 10
59.0976166898
 20
32.8342928861
 11
81.8976166898
 21
32.8342928861
  0
LINE
  5
223
100
AcDbEntity
  8
0
100
AcDbLine
 62
7
  6
CONTINUOUS
 10
59.0976166898
 20
33.0306324585
 11
81.8976166898
 21
33.0306324585
  0
LINE
  5
224
100
AcDbEntity
  8
0
100
AcDbLine
 62
7
  6
CONTINUOUS
 10
27.9646166898
 20
33.0594691567
 11
29.9646166898
 21
33.0594691567
  0
LINE
  5
225
100
AcDbEntity
  8
0
100
AcDbLine
 62
7
  6
CONTINUOUS
 10
59.0976166898
 20
33.0742634746
 11
81.8976166898
 21
33.0742634746
  0
LINE
  5
226
100
AcDbEntity
  8
0
100
AcDbLine
 62
7
  6
CONTINUOUS
 10
59.0976166898
 20
33.270603047
 11
81.8976166898
 21
33.270603047
  0
LINE
  5
227
100
AcDbEntity
  8
0
100
AcDbLine
 62
7
  6
CONTINUOUS
 10
27.9646166898
 20
33.3736124726
 11
29.9646166898
 21
33.3736124726
  0
LINE
  5
228
100
AcDbEntity
  8
0
100
AcDbLine
 62
7
  6
CONTINUOUS
 10
59.0976166898
 20
33.4451271114
 11
81.8976166898
 21
33.4451271114
  0
LINE
  5
229
100
AcDbEntity
  8
0
100
AcDbLine
 62
7
  6
CONTINUOUS
 10
59.0976166898
 20
33.6327404806
 11
81.8976166898
 21
33.6327404806
  0
LINE
  5
22A
100
AcDbEntity
  8
0
100
AcDbLine
 62
7
  6
CONTINUOUS
 10
18.7376310966
 20
73.0045751136
 11
18.7376166898
 21
73.0054477339
  0
LINE
  5
22B
100
AcDbEntity
  8
0
100
AcDbLine
 62
7
  6
CONTINUOUS
 10
18.7376166898
 20
76.6874868561
 11
18.7381353341
 21
53.2886035622
  0
LINE
  5
22C
100
AcDbEntity
  8
0
100
AcDbLine
 62
7
  6
CONTINUOUS
 10
81.8976166898
 20
37.3539305219
 11
59.0976166898
 21
37.3539305219
  0
LINE
  5
22D
100
AcDbEntity
  8
0
100
AcDbLine
 62
7
  6
CONTINUOUS
 10
59.0976166898
 20
41.2686451142
 11
81.8976166898
 21
41.2686451142
  0
LINE
  5
22E
100
AcDbEntity
  8
0
100
AcDbLine
 62
7
  6
CONTINUOUS
 10
69.9976166898
 20
45.1414604187
 11
81.8976166898
 21
45.1414604187
  0
LINE
  5
22F
100
AcDbEntity
  8
0
100
AcDbLine
 62
7
  6
CONTINUOUS
 10
24.7376166898
 20
73.0054477339
 11
24.7376166898
 21
61.1072601615
  0
LINE
  5
230
100
AcDbEntity
  8
0
100
AcDbLine
 62
7
  6
CONTINUOUS
 10
25.2361182232
 20
61.1673890989
 11
25.2361182232
 21
71.9140560915
  0
LINE
  5
231
100
AcDbEntity
  8
0
100
AcDbLine
 62
7
  6
CONTINUOUS
 10
25.4977530156
 20
51.5876387536
 11
25.4976387959
 21
53.2873798604
  0
LINE
  5
232
100
AcDbEntity
  8
0
100
AcDbLine
 62
7
  6
CONTINUOUS
 10
25.4976166898
 20
53.3097781898
 11
25.4976166898
 21
55.0073166007
  0
LINE
  5
233
100
AcDbEntity
  8
0
100
AcDbLine
 62
7
  6
CONTINUOUS
 10
27.9646166898
 20
53.2005922675
 11
27.9646166898
 21
31.8604888345
  0
LINE
  5
234
100
AcDbEntity
  8
0
100
AcDbLine
 62
7
  6
CONTINUOUS
 10
59.0976166898
 20
47.1436194833
 11
69.9976166898
 21
47.1431502623
  0
LINE
  5
235
100
AcDbEntity
  8
0
100
AcDbLine
 62
7
  6
CONTINUOUS
 10
81.8976166898
 20
47.9156046706
 11
91.3976166898
 21
47.9156046706
  0
LINE
  5
236
100
AcDbEntity
  8
0
100
AcDbLine
 62
7
  6
CONTINUOUS
 10
91.3976166898
 20
48.9627490569
 11
81.8976166898
 21
48.9627490569
  0
LINE
  5
237
100
AcDbEntity
  8
0
100
AcDbLine
 62
7
  6
CONTINUOUS
 10
81.8976166898
 20
49.1372731212
 11
91.3976166898
 21
49.1372731212
  0
LINE
  5
238
100
AcDbEntity
  8
0
100
AcDbLine
 62
7
  6
CONTINUOUS
 10
81.8976166898
 20
49.5735832822
 11
91.3976166898
 21
49.5735832822
  0
LINE
  5
239
100
AcDbEntity
  8
0
100
AcDbLine
 62
7
  6
CONTINUOUS
 10
29.9646166898
 20
53.2005922675
 11
29.9646166898
 21
31.8604888345
  0
LINE
  5
23A
100
AcDbEntity
  8
0
100
AcDbLine
 62
7
  6
CONTINUOUS
 10
38.3376166898
 20
51.6874686294
 11
29.9646166898
 21
51.6874686294
  0
LINE
  5
23B
100
AcDbEntity
  8
0
100
AcDbLine
 62
7
  6
CONTINUOUS
 10
29.9646166898
 20
51.9937583624
 11
38.3376166898
 21
51.9937583624
  0
LINE
  5
23C
100
AcDbEntity
  8
0
100
AcDbLine
 62
7
  6
CONTINUOUS
 10
38.3376166898
 20
52.2869587905
 11
29.9646166898
 21
52.2869587905
  0
LINE
  5
23D
100
AcDbEntity
  8
0
100
AcDbLine
 62
7
  6
CONTINUOUS
 10
59.0976166898
 20
52.4037092395
 11
69.9976166898
 21
52.4037092395
  0
LINE
  5
23E
100
AcDbEntity
  8
0
100
AcDbLine
 62
7
  6
CONTINUOUS
 10
29.9646166898
 20
52.6011021064
 11
38.3376166898
 21
52.6011021064
  0
LINE
  5
23F
100
AcDbEntity
  8
0
100
AcDbLine
 62
7
  6
CONTINUOUS
 10
38.3376166898
 20
52.8943025345
 11
29.9646166898
 21
52.8943025345
  0
LINE
  5
240
100
AcDbEntity
  8
0
100
AcDbLine
 62
7
  6
CONTINUOUS
 10
27.9646166898
 20
53.2005922675
 11
38.3376166898
 21
53.2005922675
  0
LINE
  5
241
100
AcDbEntity
  8
0
100
AcDbLine
 62
7
  6
CONTINUOUS
 10
25.4976373802
 20
53.3084481393
 11
59.0976166898
 21
53.3084481393
  0
LINE
  5
242
100
AcDbEntity
  8
0
100
AcDbLine
 62
7
  6
CONTINUOUS
 10
69.9976166898
 20
54.0728979104
 11
91.3976166898
 21
54.0728979104
  0
LINE
  5
243
100
AcDbEntity
  8
0
100
AcDbLine
 62
7
  6
CONTINUOUS
 10
69.9976166898
 20
54.1575420816
 11
91.3976166898
 21
54.1575420816
  0
LINE
  5
244
100
AcDbEntity
  8
0
100
AcDbLine
 62
7
  6
CONTINUOUS
 10
59.0976166898
 20
51.579810455
 11
29.9646166898
 21
51.5850847388
  0
LINE
  5
245
100
AcDbEntity
  8
0
100
AcDbLine
 62
7
  6
CONTINUOUS
 10
27.9646166898
 20
51.5854468219
 11
25.4973569043
 21
51.5858934985
  0
LINE
  5
246
100
AcDbEntity
  8
0
100
AcDbLine
 62
7
  6
CONTINUOUS
 10
25.4976373802
 20
53.2873798603
 11
18.7381353341
 21
53.2886035622
  0
LINE
  5
247
100
AcDbEntity
  8
0
100
AcDbLine
 62
7
  6
CONTINUOUS
 10
36.5994952372
 20
71.9131834712
 11
36.5994952372
 21
76.7004517739
  0
LINE
  5
248
100
AcDbEntity
  8
0
100
AcDbLine
 62
7
  6
CONTINUOUS
 10
25.4977276096
 20
51.6008472198
 11
25.4973328334
 21
51.5991041114
  0
LINE
  5
249
100
AcDbEntity
  8
0
100
AcDbLine
 62
7
  6
CONTINUOUS
 10
25.4976166898
 20
54.6582425278
 11
59.0976166898
 21
54.6582425278
  0
LINE
  5
24A
100
AcDbEntity
  8
0
100
AcDbLine
 62
7
  6
CONTINUOUS
 10
13.2476166898
 20
54.730402
 11
18.7376166898
 21
54.730402
  0
LINE
  5
24B
100
AcDbEntity
  8
0
100
AcDbLine
 62
7
  6
CONTINUOUS
 10
13.2476166898
 20
54.8208157389
 11
18.7376166898
 21
54.8208157389
  0
LINE
  5
24C
100
AcDbEntity
  8
0
100
AcDbLine
 62
7
  6
CONTINUOUS
 10
18.7377319441
 20
55.0073166008
 11
25.4976166898
 21
55.0073166008
  0
LINE
  5
24D
100
AcDbEntity
  8
0
100
AcDbLine
 62
7
  6
CONTINUOUS
 10
13.2476166898
 20
55.1349590548
 11
18.7376166898
 21
55.1349590548
  0
LINE
  5
24E
100
AcDbEntity
  8
0
100
AcDbLine
 62
7
  6
CONTINUOUS
 10
13.2476166898
 20
55.4316499643
 11
18.7376166898
 21
55.4316499643
  0
LINE
  5
24F
100
AcDbEntity
  8
0
100
AcDbLine
 62
7
  6
CONTINUOUS
 10
13.2476166898
 20
55.7457932801
 11
18.7376166898
 21
55.7457932801
  0
LINE
  5
250
100
AcDbEntity
  8
0
100
AcDbLine
 62
7
  6
CONTINUOUS
 10
13.2476166898
 20
56.2313089536
 11
18.7376166898
 21
56.2313089536
  0
LINE
  5
251
100
AcDbEntity
  8
0
100
AcDbLine
 62
7
  6
CONTINUOUS
 10
91.3976166898
 20
57.829437451
 11
97.6476166898
 21
57.829437451
  0
LINE
  5
252
100
AcDbEntity
  8
0
100
AcDbLine
 62
7
  6
CONTINUOUS
 10
38.3376166898
 20
53.2005922675
 11
38.3376166898
 21
52.8943025345
  0
LINE
  5
253
100
AcDbEntity
  8
0
100
AcDbLine
 62
7
  6
CONTINUOUS
 10
38.3376166898
 20
52.6011021064
 11
38.3376166898
 21
52.2869587905
  0
LINE
  5
254
100
AcDbEntity
  8
0
100
AcDbLine
 62
7
  6
CONTINUOUS
 10
38.3376166898
 20
51.9937583624
 11
38.3376166898
 21
51.6874686294
  0
LINE
  5
255
100
AcDbEntity
  8
0
100
AcDbLine
 62
7
  6
CONTINUOUS
 10
18.7376166898
 20
53.2868583741
 11
18.7386539472
 21
53.2886034683
  0
LINE
  5
256
100
AcDbEntity
  8
0
100
AcDbLine
 62
7
  6
CONTINUOUS
 10
91.3976166898
 20
59.6567044049
 11
97.6476166898
 21
59.6567044049
  0
LINE
  5
257
100
AcDbEntity
  8
0
100
AcDbLine
 62
7
  6
CONTINUOUS
 10
13.2476166898
 20
60.1934177914
 11
18.7376166898
 21
60.1934177914
  0
LINE
  5
258
100
AcDbEntity
  8
0
100
AcDbLine
 62
7
  6
CONTINUOUS
 10
24.7376166898
 20
61.1063875412
 11
59.0976166898
 21
61.1063875412
  0
LINE
  5
259
100
AcDbEntity
  8
0
100
AcDbLine
 62
7
  6
CONTINUOUS
 10
59.0443214637
 20
61.1673890989
 11
25.2361182232
 21
61.1673890989
  0
LINE
  5
25A
100
AcDbEntity
  8
0
100
AcDbLine
 62
7
  6
CONTINUOUS
 10
97.5976166898
 20
66.7118297115
 11
92.8336166898
 21
66.7118297115
  0
LINE
  5
25B
100
AcDbEntity
  8
0
100
AcDbLine
 62
7
  6
CONTINUOUS
 10
97.5976166898
 20
66.7391255536
 11
97.6476166898
 21
66.7391255536
  0
LINE
  5
25C
100
AcDbEntity
  8
0
100
AcDbLine
 62
7
  6
CONTINUOUS
 10
46.7646166898
 20
91.3289880268
 11
46.7646166898
 21
85.1027254147
  0
LINE
  5
25D
100
AcDbEntity
  8
0
100
AcDbLine
 62
7
  6
CONTINUOUS
 10
65.4476166898
 20
101.9803280319
 11
66.8476166898
 21
103.1801452661
  0
LINE
  5
25E
100
AcDbEntity
  8
0
100
AcDbLine
 62
7
  6
CONTINUOUS
 10
89.3570503986
 20
112.5268784989
 11
84.2975977654
 21
108.984746775
  0
LINE
  5
25F
100
AcDbEntity
  8
0
100
AcDbLine
 62
7
  6
CONTINUOUS
 10
13.2476166898
 20
71.1521079561
 11
18.7376166898
 21
71.1521079561
  0
LINE
  5
260
100
AcDbEntity
  8
0
100
AcDbLine
 62
7
  6
CONTINUOUS
 10
36.5994952372
 20
71.9131834712
 11
25.2361182232
 21
71.9131834712
  0
LINE
  5
261
100
AcDbEntity
  8
0
100
AcDbLine
 62
7
  6
CONTINUOUS
 10
18.7376310966
 20
73.0045751136
 11
24.7376166898
 21
73.0045751136
  0
LINE
  5
262
100
AcDbEntity
  8
0
100
AcDbLine
 62
7
  6
CONTINUOUS
 10
59.0443214637
 20
76.6995791536
 11
36.5994952372
 21
76.6995791536
  0
LINE
  5
263
100
AcDbEntity
  8
0
100
AcDbLine
 62
7
  6
CONTINUOUS
 10
57.2646166898
 20
93.1101945529
 11
57.2646166898
 21
81.6141363892
  0
LINE
  5
264
100
AcDbEntity
  8
0
100
AcDbLine
 62
7
  6
CONTINUOUS
 10
97.6476166898
 20
80.5048973658
 11
102.6976166898
 21
80.5048973658
  0
LINE
  5
265
100
AcDbEntity
  8
0
100
AcDbLine
 62
7
  6
CONTINUOUS
 10
59.0443214637
 20
76.7004517739
 11
59.0443214637
 21
61.1673890989
  0
LINE
  5
266
100
AcDbEntity
  8
0
100
AcDbLine
 62
7
  6
CONTINUOUS
 10
59.0976166898
 20
31.8613212272
 11
59.0976166898
 21
84.1529729363
  0
LINE
  5
267
100
AcDbEntity
  8
0
100
AcDbLine
 62
7
  6
CONTINUOUS
 10
59.2646166898
 20
93.5792657659
 11
59.2646166898
 21
84.1529729363
  0
LINE
  5
268
100
AcDbEntity
  8
0
100
AcDbLine
 62
7
  6
CONTINUOUS
 10
18.7376166898
 20
76.6874868561
 11
53.7976166898
 21
81.6141363892
  0
LINE
  5
269
100
AcDbEntity
  8
0
100
AcDbLine
 62
7
  6
CONTINUOUS
 10
97.6476166898
 20
81.4063145504
 11
97.5976166898
 21
81.4063145504
  0
LINE
  5
26A
100
AcDbEntity
  8
0
100
AcDbLine
 62
7
  6
CONTINUOUS
 10
59.0976166898
 20
81.6141363892
 11
53.7976166898
 21
81.6141363892
  0
LINE
  5
26B
100
AcDbEntity
  8
0
100
AcDbLine
 62
7
  6
CONTINUOUS
 10
97.5976166898
 20
82.1024125409
 11
94.6976166898
 21
82.1024125409
  0
LINE
  5
26C
100
AcDbEntity
  8
0
100
AcDbLine
 62
7
  6
CONTINUOUS
 10
94.6976166898
 20
82.1524049256
 11
92.8336166898
 21
82.1524049256
  0
LINE
  5
26D
100
AcDbEntity
  8
0
100
AcDbLine
 62
7
  6
CONTINUOUS
 10
94.6976166898
 20
82.1993396714
 11
102.6976166898
 21
82.1993448099
  0
LINE
  5
26E
100
AcDbEntity
  8
0
100
AcDbLine
 62
7
  6
CONTINUOUS
 10
102.9646166898
 20
82.7274046345
 11
102.6976166898
 21
82.7274046345
  0
LINE
  5
26F
100
AcDbEntity
  8
0
100
AcDbLine
 62
7
  6
CONTINUOUS
 10
102.9646166898
 20
83.3408567208
 11
102.6976166898
 21
83.3408567208
  0
LINE
  5
270
100
AcDbEntity
  8
0
100
AcDbLine
 62
7
  6
CONTINUOUS
 10
102.6976166898
 20
83.6990621586
 11
95.6976166898
 21
83.6990438577
  0
LINE
  5
271
100
AcDbEntity
  8
0
100
AcDbLine
 62
7
  6
CONTINUOUS
 10
102.9646166898
 20
83.9543088071
 11
97.9646166898
 21
83.9543088071
  0
LINE
  5
272
100
AcDbEntity
  8
0
100
AcDbLine
 62
7
  6
CONTINUOUS
 10
59.0976166898
 20
84.1529729363
 11
94.6976166898
 21
84.1529729363
  0
LINE
  5
273
100
AcDbEntity
  8
0
100
AcDbLine
 62
7
  6
CONTINUOUS
 10
77.2646166898
 20
84.2273559768
 11
64.3646166898
 21
84.2273559768
  0
LINE
  5
274
100
AcDbEntity
  8
0
100
AcDbLine
 62
7
  6
CONTINUOUS
 10
93.2476166898
 20
84.440124562
 11
94.6976166898
 21
84.440124562
  0
LINE
  5
275
100
AcDbEntity
  8
0
100
AcDbLine
 62
7
  6
CONTINUOUS
 10
83.2476166898
 20
84.4647773618
 11
93.2476166898
 21
84.4647773618
  0
LINE
  5
276
100
AcDbEntity
  8
0
100
AcDbLine
 62
7
  6
CONTINUOUS
 10
77.2646166898
 20
84.8408080631
 11
64.3646166898
 21
84.8408080631
  0
LINE
  5
277
100
AcDbEntity
  8
0
100
AcDbLine
 62
7
  6
CONTINUOUS
 10
57.2646166898
 20
85.1024046345
 11
46.7646166898
 21
85.1024046345
  0
LINE
  5
278
100
AcDbEntity
  8
0
100
AcDbLine
 62
7
  6
CONTINUOUS
 10
93.2476166898
 20
85.1732527389
 11
94.6976166898
 21
85.1732527389
  0
LINE
  5
279
100
AcDbEntity
  8
0
100
AcDbLine
 62
7
  6
CONTINUOUS
 10
102.9646166898
 20
85.3133330334
 11
103.5476166898
 21
85.3133330334
  0
LINE
  5
27A
100
AcDbEntity
  8
0
100
AcDbLine
 62
7
  6
CONTINUOUS
 10
103.5476166898
 20
85.5196065156
 11
102.9646166898
 21
85.5196065156
  0
LINE
  5
27B
100
AcDbEntity
  8
0
100
AcDbLine
 62
7
  6
CONTINUOUS
 10
83.2476166898
 20
85.5658567208
 11
77.2646166898
 21
85.5658567208
  0
LINE
  5
27C
100
AcDbEntity
  8
0
100
AcDbLine
 62
7
  6
CONTINUOUS
 10
64.3646166898
 20
84.1529729363
 11
64.3646166898
 21
93.5789510146
  0
LINE
  5
27D
100
AcDbEntity
  8
0
100
AcDbLine
 62
7
  6
CONTINUOUS
 10
64.9476169335
 20
112.5257463325
 11
64.9476166898
 21
125.2636497967
  0
LINE
  5
27E
100
AcDbEntity
  8
0
100
AcDbLine
 62
7
  6
CONTINUOUS
 10
65.4476166898
 20
92.8178095511
 11
65.4476166898
 21
101.9803280319
  0
LINE
  5
27F
100
AcDbEntity
  8
0
100
AcDbLine
 62
7
  6
CONTINUOUS
 10
66.8476166898
 20
111.1089374887
 11
66.8476166898
 21
103.1801452661
  0
LINE
  5
280
100
AcDbEntity
  8
0
100
AcDbLine
 62
7
  6
CONTINUOUS
 10
57.2646166898
 20
85.7158567208
 11
46.7646166898
 21
85.7158567208
  0
LINE
  5
281
100
AcDbEntity
  8
0
100
AcDbLine
 62
7
  6
CONTINUOUS
 10
83.2476166898
 20
85.864564135
 11
93.2476166898
 21
85.864564135
  0
LINE
  5
282
100
AcDbEntity
  8
0
100
AcDbLine
 62
7
  6
CONTINUOUS
 10
97.9646166898
 20
86.1793088071
 11
95.6976166898
 21
86.1793088071
  0
LINE
  5
283
100
AcDbEntity
  8
0
100
AcDbLine
 62
7
  6
CONTINUOUS
 10
85.6976166898
 20
86.1793088071
 11
77.2646166898
 21
86.1793088071
  0
LINE
  5
284
100
AcDbEntity
  8
0
100
AcDbLine
 62
7
  6
CONTINUOUS
 10
57.2646166898
 20
86.3293088071
 11
46.7646166898
 21
86.3293088071
  0
LINE
  5
285
100
AcDbEntity
  8
0
100
AcDbLine
 62
7
  6
CONTINUOUS
 10
94.6976166898
 20
89.1474711805
 11
85.6976166898
 21
89.1474667556
  0
LINE
  5
286
100
AcDbEntity
  8
0
100
AcDbLine
 62
7
  6
CONTINUOUS
 10
73.1197816454
 20
84.2273559768
 11
73.5257330104
 21
84.1529729363
  0
LINE
  5
287
100
AcDbEntity
  8
0
100
AcDbLine
 62
7
  6
CONTINUOUS
 10
74.6514869602
 20
84.1529729363
 11
74.2455355952
 21
84.2273559768
  0
LINE
  5
288
100
AcDbEntity
  8
0
100
AcDbLine
 62
7
  6
CONTINUOUS
 10
69.9976166898
 20
45.1414604187
 11
69.9976166898
 21
54.1575420816
  0
LINE
  5
289
100
AcDbEntity
  8
0
100
AcDbLine
 62
7
  6
CONTINUOUS
 10
102.9646166898
 20
90.9187840694
 11
103.5476166898
 21
90.9187840694
  0
LINE
  5
28A
100
AcDbEntity
  8
0
100
AcDbLine
 62
7
  6
CONTINUOUS
 10
57.2646166898
 20
91.3293088071
 11
46.7646166898
 21
91.3293088071
  0
LINE
  5
28B
100
AcDbEntity
  8
0
100
AcDbLine
 62
7
  6
CONTINUOUS
 10
97.9646166898
 20
91.4793088071
 11
95.6976166898
 21
91.4793088071
  0
LINE
  5
28C
100
AcDbEntity
  8
0
100
AcDbLine
 62
7
  6
CONTINUOUS
 10
85.6976166898
 20
91.4793088071
 11
77.2646166898
 21
91.4793088071
  0
LINE
  5
28D
100
AcDbEntity
  8
0
100
AcDbLine
 62
7
  6
CONTINUOUS
 10
94.6976166898
 20
91.6543956583
 11
85.6976166898
 21
91.6543956583
  0
LINE
  5
28E
100
AcDbEntity
  8
0
100
AcDbLine
 62
7
  6
CONTINUOUS
 10
94.6976166898
 20
92.1971758871
 11
95.6976166898
 21
92.1971758871
  0
LINE
  5
28F
100
AcDbEntity
  8
0
100
AcDbLine
 62
7
  6
CONTINUOUS
 10
77.2646166898
 20
92.8178095511
 11
64.3646166898
 21
92.8178095511
  0
LINE
  5
290
100
AcDbEntity
  8
0
100
AcDbLine
 62
7
  6
CONTINUOUS
 10
59.2646166898
 20
93.1101945529
 11
57.2646166898
 21
93.1101945529
  0
LINE
  5
291
100
AcDbEntity
  8
0
100
AcDbLine
 62
7
  6
CONTINUOUS
 10
84.2976166898
 20
93.4128984165
 11
65.4476166898
 21
93.4128984165
  0
LINE
  5
292
100
AcDbEntity
  8
0
100
AcDbLine
 62
7
  6
CONTINUOUS
 10
64.3646166898
 20
93.5793088071
 11
59.2646166898
 21
93.5793088071
  0
LINE
  5
293
100
AcDbEntity
  8
0
100
AcDbLine
 62
7
  6
CONTINUOUS
 10
84.2976166898
 20
93.6615952082
 11
65.4476166898
 21
93.6615952082
  0
LINE
  5
294
100
AcDbEntity
  8
0
100
AcDbLine
 62
7
  6
CONTINUOUS
 10
102.9646166898
 20
93.7043088071
 11
97.9646166898
 21
93.7043088071
  0
LINE
  5
295
100
AcDbEntity
  8
0
100
AcDbLine
 62
7
  6
CONTINUOUS
 10
97.9646166898
 20
91.9433289692
 11
95.6976166898
 21
91.9458179792
  0
LINE
  5
296
100
AcDbEntity
  8
0
100
AcDbLine
 62
7
  6
CONTINUOUS
 10
73.0976166898
 20
129.2630405773
 11
73.0976166898
 21
125.2636497967
  0
LINE
  5
297
100
AcDbEntity
  8
0
100
AcDbLine
 62
7
  6
CONTINUOUS
 10
77.2646166898
 20
84.2274002513
 11
77.2646166898
 21
92.8177652766
  0
LINE
  5
298
100
AcDbEntity
  8
0
100
AcDbLine
 62
7
  6
CONTINUOUS
 10
81.8976166898
 20
31.8613212272
 11
81.8976166898
 21
49.5735832822
  0
LINE
  5
299
100
AcDbEntity
  8
0
100
AcDbLine
 62
7
  6
CONTINUOUS
 10
83.2476166898
 20
84.1529729363
 11
83.2476166898
 21
85.864564135
  0
LINE
  5
29A
100
AcDbEntity
  8
0
100
AcDbLine
 62
7
  6
CONTINUOUS
 10
84.2976166898
 20
92.2847964696
 11
84.2976166898
 21
129.2630405773
  0
LINE
  5
29B
100
AcDbEntity
  8
0
100
AcDbLine
 62
7
  6
CONTINUOUS
 10
85.6976166898
 20
89.141639915
 11
85.6976166898
 21
85.864564135
  0
LINE
  5
29C
100
AcDbEntity
  8
0
100
AcDbLine
 62
7
  6
CONTINUOUS
 10
85.6976166898
 20
89.1474667556
 11
85.6976166898
 21
91.6543956583
  0
LINE
  5
29D
100
AcDbEntity
  8
0
100
AcDbLine
 62
7
  6
CONTINUOUS
 10
89.3570503986
 20
112.2738186056
 11
89.3570503986
 21
112.5268784989
  0
LINE
  5
29E
100
AcDbEntity
  8
0
100
AcDbLine
 62
7
  6
CONTINUOUS
 10
64.9476166898
 20
112.5257599749
 11
66.8476166898
 21
110.6259829674
  0
LINE
  5
29F
100
AcDbEntity
  8
0
100
AcDbLine
 62
7
  6
CONTINUOUS
 10
66.8476166898
 20
111.1089374887
 11
64.9476166898
 21
113.0086481095
  0
LINE
  5
2A0
100
AcDbEntity
  8
0
100
AcDbLine
 62
7
  6
CONTINUOUS
 10
84.2976166898
 20
92.2847964696
 11
84.6732789705
 21
91.4793088071
  0
LINE
  5
2A1
100
AcDbEntity
  8
0
100
AcDbLine
 62
7
  6
CONTINUOUS
 10
91.3976166898
 20
47.9156046706
 11
91.3976166898
 21
59.6567044049
  0
LINE
  5
2A2
100
AcDbEntity
  8
0
100
AcDbLine
 62
7
  6
CONTINUOUS
 10
92.8336166898
 20
66.7118297115
 11
92.8336166898
 21
82.153277546
  0
LINE
  5
2A3
100
AcDbEntity
  8
0
100
AcDbLine
 62
7
  6
CONTINUOUS
 10
93.2476166898
 20
84.1529729363
 11
93.2476166898
 21
85.864564135
  0
LINE
  5
2A4
100
AcDbEntity
  8
0
100
AcDbLine
 62
7
  6
CONTINUOUS
 10
94.6976166898
 20
82.1024125409
 11
94.6976166898
 21
92.1971758871
  0
LINE
  5
2A5
100
AcDbEntity
  8
0
100
AcDbLine
 62
7
  6
CONTINUOUS
 10
95.6976166898
 20
83.6990438577
 11
95.6976166898
 21
92.1971758871
  0
LINE
  5
2A6
100
AcDbEntity
  8
0
100
AcDbLine
 62
7
  6
CONTINUOUS
 10
97.5976166898
 20
66.7118297115
 11
97.5976166898
 21
82.1024125409
  0
LINE
  5
2A7
100
AcDbEntity
  8
0
100
AcDbLine
 62
7
  6
CONTINUOUS
 10
97.6476166898
 20
57.829437451
 11
97.6476166898
 21
81.4063145504
  0
LINE
  5
2A8
100
AcDbEntity
  8
0
100
AcDbLine
 62
7
  6
CONTINUOUS
 10
97.9646166898
 20
93.7039675188
 11
97.9646166898
 21
83.9546500953
  0
LINE
  5
2A9
100
AcDbEntity
  8
0
100
AcDbLine
 62
7
  6
CONTINUOUS
 10
102.6976166898
 20
80.5048757565
 11
102.6976166898
 21
83.9543088071
  0
LINE
  5
2AA
100
AcDbEntity
  8
0
100
AcDbLine
 62
7
  6
CONTINUOUS
 10
102.9646166898
 20
82.7277527703
 11
102.9646166898
 21
93.7039606712
  0
LINE
  5
2AB
100
AcDbEntity
  8
0
100
AcDbLine
 62
7
  6
CONTINUOUS
 10
84.2976166898
 20
122.407216444
 11
64.9476166898
 21
122.407216444
  0
LINE
  5
2AC
100
AcDbEntity
  8
0
100
AcDbLine
 62
7
  6
CONTINUOUS
 10
73.0976166898
 20
125.2636497967
 11
64.9476166898
 21
125.2636497967
  0
LINE
  5
2AD
100
AcDbEntity
  8
0
100
AcDbLine
 62
7
  6
CONTINUOUS
 10
84.2975388351
 20
119.7516709499
 11
89.3570503986
 21
112.5268784989
  0
LINE
  5
2AE
100
AcDbEntity
  8
0
100
AcDbLine
 62
7
  6
CONTINUOUS
 10
103.5476166898
 20
85.3133334816
 11
103.5476166898
 21
90.9187840694
  0
LINE
  5
2AF
100
AcDbEntity
  8
0
100
AcDbLine
 62
7
  6
CONTINUOUS
 10
84.2976166898
 20
129.2630405773
 11
73.0976166898
 21
129.2630405773
  0
SPLINE
  5
2B0
100
AcDbEntity
  8
0
100
AcDbSpline
 62
7
  6
CONTINUOUS
 70
0
 71
3
 72
22
 73
18
 74
0
 42
0.0000001
 43
0.0000001
 44
0.0000000001
 40
0.0
 40
0.0
 40
0.0
 40
0.0
 40
0.0013837199
 40
0.005034241
 40
0.0110499419
 40
0.0194454433
 40
0.0302013361
 40
0.043281814
 40
0.0762675261
 40
0.1181013116
 40
0.1684546123
 40
0.2268120346
 40
0.2925710697
 40
0.4438315621
 40
0.6166584674
 40
0.8047192629
 40
1.0
 40
1.0
 40
1.0
 40
1.0
 10
87.6352054345
 20
111.103511558
 30
0.0
 10
87.6348282227
 20
111.1040560294
 30
0.0
 10
87.6317422636
 20
111.1027082835
 30
0.0
 10
87.627655093
 20
111.1009935848
 30
0.0
 10
87.6196909283
 20
111.096515084
 30
0.0
 10
87.6094729137
 20
111.0905486937
 30
0.0
 10
87.5962418177
 20
111.0824499907
 30
0.0
 10
87.5732257785
 20
111.0680281888
 30
0.0
 10
87.5378350252
 20
111.0452199445
 30
0.0
 10
87.4877618332
 20
111.0123310941
 30
0.0
 10
87.4277719159
 20
110.9723927657
 30
0.0
 10
87.3584569986
 20
110.9258059332
 30
0.0
 10
87.249302911
 20
110.8518996096
 30
0.0
 10
87.0952244602
 20
110.7466124298
 30
0.0
 10
86.8933476234
 20
110.6075097654
 30
0.0
 10
86.6746110813
 20
110.4557397123
 30
0.0
 10
86.5241412527
 20
110.3507071844
 30
0.0
 10
86.4475639511
 20
110.2970953471
 30
0.0
  0
SPLINE
  5
2B1
100
AcDbEntity
  8
0
100
AcDbSpline
 62
7
  6
CONTINUOUS
 70
0
 71
3
 72
22
 73
18
 74
0
 42
0.0000001
 43
0.0000001
 44
0.0000000001
 40
0.0
 40
0.0
 40
0.0
 40
0.0
 40
0.0013837199
 40
0.005034241
 40
0.0110499419
 40
0.0194454433
 40
0.0302013361
 40
0.043281814
 40
0.0762675261
 40
0.1181013116
 40
0.1684546123
 40
0.2268120346
 40
0.2925710697
 40
0.4438315621
 40
0.6166584674
 40
0.8047192629
 40
1.0
 40
1.0
 40
1.0
 40
1.0
 10
87.6352054345
 20
111.1645949805
 30
0.0
 10
87.6348282227
 20
111.165139452
 30
0.0
 10
87.6317422636
 20
111.163791706
 30
0.0
 10
87.627655093
 20
111.1620770073
 30
0.0
 10
87.6196909283
 20
111.1575985065
 30
0.0
 10
87.6094729137
 20
111.1516321162
 30
0.0
 10
87.5962418177
 20
111.1435334132
 30
0.0
 10
87.5732257785
 20
111.1291116113
 30
0.0
 10
87.5378350252
 20
111.106303367
 30
0.0
 10
87.4877618332
 20
111.0734145166
 30
0.0
 10
87.4277719159
 20
111.0334761882
 30
0.0
 10
87.3584569986
 20
110.9868893557
 30
0.0
 10
87.249302911
 20
110.9129830321
 30
0.0
 10
87.0952244602
 20
110.8076958523
 30
0.0
 10
86.8933476234
 20
110.6685931879
 30
0.0
 10
86.6746110813
 20
110.5168231348
 30
0.0
 10
86.5241412527
 20
110.4117906069
 30
0.0
 10
86.4475639511
 20
110.3581787696
 30
0.0
  0
SPLINE
  5
2B2
100
AcDbEntity
  8
0
100
AcDbSpline
 62
7
  6
CONTINUOUS
 70
0
 71
3
 72
22
 73
18
 74
0
 42
0.0000001
 43
0.0000001
 44
0.0000000001
 40
0.0
 40
0.0
 40
0.0
 40
0.0
 40
0.0013837199
 40
0.005034241
 40
0.0110499419
 40
0.0194454433
 40
0.0302013361
 40
0.043281814
 40
0.0762675261
 40
0.1181013116
 40
0.1684546123
 40
0.2268120346
 40
0.2925710697
 40
0.4438315621
 40
0.6166584674
 40
0.8047192629
 40
1.0
 40
1.0
 40
1.0
 40
1.0
 10
87.6352054345
 20
111.2256784031
 30
0.0
 10
87.6348282227
 20
111.2262228745
 30
0.0
 10
87.6317422636
 20
111.2248751286
 30
0.0
 10
87.627655093
 20
111.2231604299
 30
0.0
 10
87.6196909283
 20
111.218681929
 30
0.0
 10
87.6094729137
 20
111.2127155388
 30
0.0
 10
87.5962418177
 20
111.2046168358
 30
0.0
 10
87.5732257785
 20
111.1901950338
 30
0.0
 10
87.5378350252
 20
111.1673867895
 30
0.0
 10
87.4877618332
 20
111.1344979392
 30
0.0
 10
87.4277719159
 20
111.0945596108
 30
0.0
 10
87.3584569986
 20
111.0479727783
 30
0.0
 10
87.249302911
 20
110.9740664547
 30
0.0
 10
87.0952244602
 20
110.8687792749
 30
0.0
 10
86.8933476234
 20
110.7296766104
 30
0.0
 10
86.6746110813
 20
110.5779065574
 30
0.0
 10
86.5241412527
 20
110.4728740294
 30
0.0
 10
86.4475639511
 20
110.4192621922
 30
0.0
  0
SPLINE
  5
2B3
100
AcDbEntity
  8
0
100
AcDbSpline
 62
7
  6
CONTINUOUS
 70
0
 71
3
 72
22
 73
18
 74
0
 42
0.0000001
 43
0.0000001
 44
0.0000000001
 40
0.0
 40
0.0
 40
0.0
 40
0.0
 40
0.1942323905
 40
0.3818352153
 40
0.5546544811
 40
0.7062010648
 40
0.7721711348
 40
0.8307488883
 40
0.8813040193
 40
0.9233357978
 40
0.9564985601
 40
0.9696496665
 40
0.9804588954
 40
0.9888899017
 40
0.9949349536
 40
0.9986074103
 40
1.0
 40
1.0
 40
1.0
 40
1.0
 10
86.4475639511
 20
110.2970953471
 30
0.0
 10
86.3698580503
 20
110.2426933765
 30
0.0
 10
86.2172492209
 20
110.1355308448
 30
0.0
 10
85.9960116487
 20
109.9792385118
 30
0.0
 10
85.7922696995
 20
109.834311866
 30
0.0
 10
85.6373615478
 20
109.7232158343
 30
0.0
 10
85.5281246689
 20
109.6441710962
 30
0.0
 10
85.4590167376
 20
109.5938062298
 30
0.0
 10
85.3995425323
 20
109.5500635984
 30
0.0
 10
85.3503038974
 20
109.5133806499
 30
0.0
 10
85.3159045057
 20
109.4872932633
 30
0.0
 10
85.2939226552
 20
109.4701815276
 30
0.0
 10
85.2814729554
 20
109.4602838685
 30
0.0
 10
85.2721402805
 20
109.4525373284
 30
0.0
 10
85.2650218285
 20
109.4464514807
 30
0.0
 10
85.2619376149
 20
109.4431069621
 30
0.0
 10
85.2595351637
 20
109.4406261961
 30
0.0
 10
85.2599224677
 20
109.4400671575
 30
0.0
  0
SPLINE
  5
2B4
100
AcDbEntity
  8
0
100
AcDbSpline
 62
7
  6
CONTINUOUS
 70
0
 71
3
 72
22
 73
18
 74
0
 42
0.0000001
 43
0.0000001
 44
0.0000000001
 40
0.0
 40
0.0
 40
0.0
 40
0.0
 40
0.1942323905
 40
0.3818352153
 40
0.5546544811
 40
0.7062010648
 40
0.7721711348
 40
0.8307488883
 40
0.8813040193
 40
0.9233357978
 40
0.9564985601
 40
0.9696496665
 40
0.9804588954
 40
0.9888899017
 40
0.9949349536
 40
0.9986074103
 40
1.0
 40
1.0
 40
1.0
 40
1.0
 10
86.4475639511
 20
110.3581787696
 30
0.0
 10
86.3698580503
 20
110.3037767991
 30
0.0
 10
86.2172492209
 20
110.1966142673
 30
0.0
 10
85.9960116487
 20
110.0403219343
 30
0.0
 10
85.7922696995
 20
109.8953952885
 30
0.0
 10
85.6373615478
 20
109.7842992568
 30
0.0
 10
85.5281246689
 20
109.7052545188
 30
0.0
 10
85.4590167376
 20
109.6548896523
 30
0.0
 10
85.3995425323
 20
109.611147021
 30
0.0
 10
85.3503038974
 20
109.5744640725
 30
0.0
 10
85.3159045057
 20
109.5483766858
 30
0.0
 10
85.2939226552
 20
109.5312649502
 30
0.0
 10
85.2814729554
 20
109.5213672911
 30
0.0
 10
85.2721402805
 20
109.513620751
 30
0.0
 10
85.2650218285
 20
109.5075349032
 30
0.0
 10
85.2619376149
 20
109.5041903846
 30
0.0
 10
85.2595351637
 20
109.5017096186
 30
0.0
 10
85.2599224677
 20
109.5011505801
 30
0.0
  0
SPLINE
  5
2B5
100
AcDbEntity
  8
0
100
AcDbSpline
 62
7
  6
CONTINUOUS
 70
0
 71
3
 72
22
 73
18
 74
0
 42
0.0000001
 43
0.0000001
 44
0.0000000001
 40
0.0
 40
0.0
 40
0.0
 40
0.0
 40
0.1942323905
 40
0.3818352153
 40
0.5546544811
 40
0.7062010648
 40
0.7721711348
 40
0.8307488883
 40
0.8813040193
 40
0.9233357978
 40
0.9564985601
 40
0.9696496665
 40
0.9804588954
 40
0.9888899017
 40
0.9949349536
 40
0.9986074103
 40
1.0
 40
1.0
 40
1.0
 40
1.0
 10
86.4475639511
 20
110.4192621922
 30
0.0
 10
86.3698580503
 20
110.3648602216
 30
0.0
 10
86.2172492209
 20
110.2576976899
 30
0.0
 10
85.9960116487
 20
110.1014053569
 30
0.0
 10
85.7922696995
 20
109.956478711
 30
0.0
 10
85.6373615478
 20
109.8453826793
 30
0.0
 10
85.5281246689
 20
109.7663379413
 30
0.0
 10
85.4590167376
 20
109.7159730749
 30
0.0
 10
85.3995425323
 20
109.6722304435
 30
0.0
 10
85.3503038974
 20
109.635547495
 30
0.0
 10
85.3159045057
 20
109.6094601083
 30
0.0
 10
85.2939226552
 20
109.5923483727
 30
0.0
 10
85.2814729554
 20
109.5824507136
 30
0.0
 10
85.2721402805
 20
109.5747041735
 30
0.0
 10
85.2650218285
 20
109.5686183257
 30
0.0
 10
85.2619376149
 20
109.5652738072
 30
0.0
 10
85.2595351637
 20
109.5627930411
 30
0.0
 10
85.2599224677
 20
109.5622340026
 30
0.0
  0
SPLINE
  5
2B6
100
AcDbEntity
  8
0
100
AcDbSpline
 62
7
  6
CONTINUOUS
 70
0
 71
3
 72
22
 73
18
 74
0
 42
0.0000001
 43
0.0000001
 44
0.0000000001
 40
0.0
 40
0.0
 40
0.0
 40
0.0
 40
0.0013837199
 40
0.005034241
 40
0.0110499419
 40
0.0194454433
 40
0.0302013361
 40
0.043281814
 40
0.0762675261
 40
0.1181013116
 40
0.1684546123
 40
0.2268120346
 40
0.2925710697
 40
0.4438315621
 40
0.6166584674
 40
0.8047192629
 40
1.0
 40
1.0
 40
1.0
 40
1.0
 10
85.2599224677
 20
109.6233174251
 30
0.0
 10
85.2602996795
 20
109.6227729537
 30
0.0
 10
85.2633856385
 20
109.6241206996
 30
0.0
 10
85.2674728091
 20
109.6258353983
 30
0.0
 10
85.2754369739
 20
109.6303138992
 30
0.0
 10
85.2856549884
 20
109.6362802894
 30
0.0
 10
85.2988860845
 20
109.6443789924
 30
0.0
 10
85.3219021237
 20
109.6588007944
 30
0.0
 10
85.3572928769
 20
109.6816090386
 30
0.0
 10
85.4073660689
 20
109.714497889
 30
0.0
 10
85.4673559863
 20
109.7544362174
 30
0.0
 10
85.5366709036
 20
109.8010230499
 30
0.0
 10
85.6458249912
 20
109.8749293735
 30
0.0
 10
85.7999034419
 20
109.9802165533
 30
0.0
 10
86.0017802788
 20
110.1193192177
 30
0.0
 10
86.2205168208
 20
110.2710892708
 30
0.0
 10
86.3709866494
 20
110.3761217987
 30
0.0
 10
86.4475639511
 20
110.429733636
 30
0.0
  0
SPLINE
  5
2B7
100
AcDbEntity
  8
0
100
AcDbSpline
 62
7
  6
CONTINUOUS
 70
0
 71
3
 72
22
 73
18
 74
0
 42
0.0000001
 43
0.0000001
 44
0.0000000001
 40
0.0
 40
0.0
 40
0.0
 40
0.0
 40
0.1942323905
 40
0.3818352153
 40
0.5546544811
 40
0.7062010648
 40
0.7721711348
 40
0.8307488883
 40
0.8813040193
 40
0.9233357978
 40
0.9564985601
 40
0.9696496665
 40
0.9804588954
 40
0.9888899017
 40
0.9949349536
 40
0.9986074103
 40
1.0
 40
1.0
 40
1.0
 40
1.0
 10
86.4475639511
 20
110.2464833684
 30
0.0
 10
86.5252698519
 20
110.300885339
 30
0.0
 10
86.6778786812
 20
110.4080478707
 30
0.0
 10
86.8991162535
 20
110.5643402037
 30
0.0
 10
87.1028582027
 20
110.7092668495
 30
0.0
 10
87.2577663544
 20
110.8203628813
 30
0.0
 10
87.3670032333
 20
110.8994076193
 30
0.0
 10
87.4361111646
 20
110.9497724857
 30
0.0
 10
87.4955853699
 20
110.9935151171
 30
0.0
 10
87.5448240047
 20
111.0301980656
 30
0.0
 10
87.5792233965
 20
111.0562854523
 30
0.0
 10
87.6012052469
 20
111.0733971879
 30
0.0
 10
87.6136549468
 20
111.083294847
 30
0.0
 10
87.6229876217
 20
111.0910413871
 30
0.0
 10
87.6301060736
 20
111.0971272348
 30
0.0
 10
87.6331902872
 20
111.1004717534
 30
0.0
 10
87.6355927385
 20
111.1029525194
 30
0.0
 10
87.6352054345
 20
111.103511558
 30
0.0
  0
SPLINE
  5
2B8
100
AcDbEntity
  8
0
100
AcDbSpline
 62
7
  6
CONTINUOUS
 70
0
 71
3
 72
22
 73
18
 74
0
 42
0.0000001
 43
0.0000001
 44
0.0000000001
 40
0.0
 40
0.0
 40
0.0
 40
0.0
 40
0.1942323905
 40
0.3818352153
 40
0.5546544811
 40
0.7062010648
 40
0.7721711348
 40
0.8307488883
 40
0.8813040193
 40
0.9233357978
 40
0.9564985601
 40
0.9696496665
 40
0.9804588954
 40
0.9888899017
 40
0.9949349536
 40
0.9986074103
 40
1.0
 40
1.0
 40
1.0
 40
1.0
 10
86.4475639511
 20
110.307566791
 30
0.0
 10
86.5252698519
 20
110.3619687615
 30
0.0
 10
86.6778786812
 20
110.4691312932
 30
0.0
 10
86.8991162535
 20
110.6254236263
 30
0.0
 10
87.1028582027
 20
110.7703502721
 30
0.0
 10
87.2577663544
 20
110.8814463038
 30
0.0
 10
87.3670032333
 20
110.9604910418
 30
0.0
 10
87.4361111646
 20
111.0108559082
 30
0.0
 10
87.4955853699
 20
111.0545985396
 30
0.0
 10
87.5448240047
 20
111.0912814881
 30
0.0
 10
87.5792233965
 20
111.1173688748
 30
0.0
 10
87.6012052469
 20
111.1344806104
 30
0.0
 10
87.6136549468
 20
111.1443782695
 30
0.0
 10
87.6229876217
 20
111.1521248096
 30
0.0
 10
87.6301060736
 20
111.1582106574
 30
0.0
 10
87.6331902872
 20
111.161555176
 30
0.0
 10
87.6355927385
 20
111.164035942
 30
0.0
 10
87.6352054345
 20
111.1645949805
 30
0.0
  0
SPLINE
  5
2B9
100
AcDbEntity
  8
0
100
AcDbSpline
 62
7
  6
CONTINUOUS
 70
0
 71
3
 72
22
 73
18
 74
0
 42
0.0000001
 43
0.0000001
 44
0.0000000001
 40
0.0
 40
0.0
 40
0.0
 40
0.0
 40
0.0013837199
 40
0.005034241
 40
0.0110499419
 40
0.0194454433
 40
0.0302013361
 40
0.043281814
 40
0.0762675261
 40
0.1181013116
 40
0.1684546123
 40
0.2268120346
 40
0.2925710697
 40
0.4438315621
 40
0.6166584674
 40
0.8047192629
 40
1.0
 40
1.0
 40
1.0
 40
1.0
 10
85.2599224677
 20
109.4400671575
 30
0.0
 10
85.2602996795
 20
109.4395226861
 30
0.0
 10
85.2633856385
 20
109.440870432
 30
0.0
 10
85.2674728091
 20
109.4425851307
 30
0.0
 10
85.2754369739
 20
109.4470636316
 30
0.0
 10
85.2856549884
 20
109.4530300218
 30
0.0
 10
85.2988860845
 20
109.4611287248
 30
0.0
 10
85.3219021237
 20
109.4755505268
 30
0.0
 10
85.3572928769
 20
109.4983587711
 30
0.0
 10
85.4073660689
 20
109.5312476214
 30
0.0
 10
85.4673559863
 20
109.5711859498
 30
0.0
 10
85.5366709036
 20
109.6177727823
 30
0.0
 10
85.6458249912
 20
109.6916791059
 30
0.0
 10
85.7999034419
 20
109.7969662857
 30
0.0
 10
86.0017802788
 20
109.9360689501
 30
0.0
 10
86.2205168208
 20
110.0878390032
 30
0.0
 10
86.3709866494
 20
110.1928715311
 30
0.0
 10
86.4475639511
 20
110.2464833684
 30
0.0
  0
SPLINE
  5
2BA
100
AcDbEntity
  8
0
100
AcDbSpline
 62
7
  6
CONTINUOUS
 70
0
 71
3
 72
22
 73
18
 74
0
 42
0.0000001
 43
0.0000001
 44
0.0000000001
 40
0.0
 40
0.0
 40
0.0
 40
0.0
 40
0.0013837199
 40
0.005034241
 40
0.0110499419
 40
0.0194454433
 40
0.0302013361
 40
0.043281814
 40
0.0762675261
 40
0.1181013116
 40
0.1684546123
 40
0.2268120346
 40
0.2925710697
 40
0.4438315621
 40
0.6166584674
 40
0.8047192629
 40
1.0
 40
1.0
 40
1.0
 40
1.0
 10
85.2599224677
 20
109.5011505801
 30
0.0
 10
85.2602996795
 20
109.5006061086
 30
0.0
 10
85.2633856385
 20
109.5019538545
 30
0.0
 10
85.2674728091
 20
109.5036685533
 30
0.0
 10
85.2754369739
 20
109.5081470541
 30
0.0
 10
85.2856549884
 20
109.5141134443
 30
0.0
 10
85.2988860845
 20
109.5222121473
 30
0.0
 10
85.3219021237
 20
109.5366339493
 30
0.0
 10
85.3572928769
 20
109.5594421936
 30
0.0
 10
85.4073660689
 20
109.5923310439
 30
0.0
 10
85.4673559863
 20
109.6322693724
 30
0.0
 10
85.5366709036
 20
109.6788562048
 30
0.0
 10
85.6458249912
 20
109.7527625284
 30
0.0
 10
85.7999034419
 20
109.8580497082
 30
0.0
 10
86.0017802788
 20
109.9971523727
 30
0.0
 10
86.2205168208
 20
110.1489224257
 30
0.0
 10
86.3709866494
 20
110.2539549537
 30
0.0
 10
86.4475639511
 20
110.307566791
 30
0.0
  0
SPLINE
  5
2BB
100
AcDbEntity
  8
0
100
AcDbSpline
 62
7
  6
CONTINUOUS
 70
0
 71
3
 72
22
 73
18
 74
0
 42
0.0000001
 43
0.0000001
 44
0.0000000001
 40
0.0
 40
0.0
 40
0.0
 40
0.0
 40
0.1942323905
 40
0.3818352153
 40
0.5546544811
 40
0.7062010648
 40
0.7721711348
 40
0.8307488883
 40
0.8813040193
 40
0.9233357978
 40
0.9564985601
 40
0.9696496665
 40
0.9804588954
 40
0.9888899017
 40
0.9949349536
 40
0.9986074103
 40
1.0
 40
1.0
 40
1.0
 40
1.0
 10
86.4475639511
 20
110.3686502135
 30
0.0
 10
86.5252698519
 20
110.4230521841
 30
0.0
 10
86.6778786812
 20
110.5302147158
 30
0.0
 10
86.8991162535
 20
110.6865070488
 30
0.0
 10
87.1028582027
 20
110.8314336946
 30
0.0
 10
87.2577663544
 20
110.9425297263
 30
0.0
 10
87.3670032333
 20
111.0215744643
 30
0.0
 10
87.4361111646
 20
111.0719393308
 30
0.0
 10
87.4955853699
 20
111.1156819621
 30
0.0
 10
87.5448240047
 20
111.1523649106
 30
0.0
 10
87.5792233965
 20
111.1784522973
 30
0.0
 10
87.6012052469
 20
111.1955640329
 30
0.0
 10
87.6136549468
 20
111.2054616921
 30
0.0
 10
87.6229876217
 20
111.2132082322
 30
0.0
 10
87.6301060736
 20
111.2192940799
 30
0.0
 10
87.6331902872
 20
111.2226385985
 30
0.0
 10
87.6355927385
 20
111.2251193645
 30
0.0
 10
87.6352054345
 20
111.2256784031
 30
0.0
  0
SPLINE
  5
2BC
100
AcDbEntity
  8
0
100
AcDbSpline
 62
7
  6
CONTINUOUS
 70
0
 71
3
 72
22
 73
18
 74
0
 42
0.0000001
 43
0.0000001
 44
0.0000000001
 40
0.0
 40
0.0
 40
0.0
 40
0.0
 40
0.1942323905
 40
0.3818352153
 40
0.5546544811
 40
0.7062010648
 40
0.7721711348
 40
0.8307488883
 40
0.8813040193
 40
0.9233357978
 40
0.9564985601
 40
0.9696496665
 40
0.9804588954
 40
0.9888899017
 40
0.9949349536
 40
0.9986074103
 40
1.0
 40
1.0
 40
1.0
 40
1.0
 10
86.4475639511
 20
110.429733636
 30
0.0
 10
86.5252698519
 20
110.4841356066
 30
0.0
 10
86.6778786812
 20
110.5912981383
 30
0.0
 10
86.8991162535
 20
110.7475904713
 30
0.0
 10
87.1028582027
 20
110.8925171171
 30
0.0
 10
87.2577663544
 20
111.0036131489
 30
0.0
 10
87.3670032333
 20
111.0826578869
 30
0.0
 10
87.4361111646
 20
111.1330227533
 30
0.0
 10
87.4955853699
 20
111.1767653847
 30
0.0
 10
87.5448240047
 20
111.2134483332
 30
0.0
 10
87.5792233965
 20
111.2395357198
 30
0.0
 10
87.6012052469
 20
111.2566474555
 30
0.0
 10
87.6136549468
 20
111.2665451146
 30
0.0
 10
87.6229876217
 20
111.2742916547
 30
0.0
 10
87.6301060736
 20
111.2803775024
 30
0.0
 10
87.6331902872
 20
111.283722021
 30
0.0
 10
87.6355927385
 20
111.286202787
 30
0.0
 10
87.6352054345
 20
111.2867618256
 30
0.0
  0
SPLINE
  5
2BD
100
AcDbEntity
  8
0
100
AcDbSpline
 62
7
  6
CONTINUOUS
 70
0
 71
3
 72
22
 73
18
 74
0
 42
0.0000001
 43
0.0000001
 44
0.0000000001
 40
0.0
 40
0.0
 40
0.0
 40
0.0
 40
0.0013837199
 40
0.005034241
 40
0.0110499419
 40
0.0194454433
 40
0.0302013361
 40
0.043281814
 40
0.0762675261
 40
0.1181013116
 40
0.1684546123
 40
0.2268120346
 40
0.2925710697
 40
0.4438315621
 40
0.6166584674
 40
0.8047192629
 40
1.0
 40
1.0
 40
1.0
 40
1.0
 10
85.2599224677
 20
109.5622340026
 30
0.0
 10
85.2602996795
 20
109.5616895312
 30
0.0
 10
85.2633856385
 20
109.5630372771
 30
0.0
 10
85.2674728091
 20
109.5647519758
 30
0.0
 10
85.2754369739
 20
109.5692304766
 30
0.0
 10
85.2856549884
 20
109.5751968669
 30
0.0
 10
85.2988860845
 20
109.5832955699
 30
0.0
 10
85.3219021237
 20
109.5977173718
 30
0.0
 10
85.3572928769
 20
109.6205256161
 30
0.0
 10
85.4073660689
 20
109.6534144665
 30
0.0
 10
85.4673559863
 20
109.6933527949
 30
0.0
 10
85.5366709036
 20
109.7399396274
 30
0.0
 10
85.6458249912
 20
109.813845951
 30
0.0
 10
85.7999034419
 20
109.9191331308
 30
0.0
 10
86.0017802788
 20
110.0582357952
 30
0.0
 10
86.2205168208
 20
110.2100058483
 30
0.0
 10
86.3709866494
 20
110.3150383762
 30
0.0
 10
86.4475639511
 20
110.3686502135
 30
0.0
  0
ENDSEC
  0
SECTION
  2
OBJECTS
  0
DICTIONARY
  5
C
100
AcDbDictionary
280
0
281
1
  3
ACAD_GROUP
350
D
  3
ACAD_MLINESTYLE
350
17
  3
ACAD_LAYOUT
350
1A
  3
ACAD_PLOTSETTINGS
350
19
  3
ACAD_PLOTSTYLENAME
350
E
  0
DICTIONARY
  5
D
102
{ACAD_REACTORS
330
C
102
}
100
AcDbDictionary
280
0
281
1
  0
ACDBDICTIONARYWDFLT
  5
E
102
{ACAD_REACTORS
330
C
102
}
100
AcDbDictionary
281
1
  3
Normal
350
F
100
AcDbDictionaryWithDefault
340
F
  0
DICTIONARY
  5
17
102
{ACAD_REACTORS
330
C
102
}
100
AcDbDictionary
280
0
281
1
  3
Standard
350
18
  0
DICTIONARY
  5
19
102
{ACAD_REACTORS
330
C
102
}
100
AcDbDictionary
281
1
  0
DICTIONARY
  5
1A
102
{ACAD_REACTORS
330
C
102
}
100
AcDbDictionary
281
1
  3
Model
350
2BE
  3
Layout1
350
2BF
  0
ACDBPLACEHOLDER
  5
F
102
{ACAD_REACTORS
330
E
102
}
  0
MLINESTYLE
  5
18
102
{ACAD_REACTORS
330
17
102
}
100
AcDbMlineStyle
  2
STANDARD
 70
0
  3

 62
256
 51
90.0
 52
90.0
 71
2
 49
0.5
 62
256
  6
BYLAYER
 49
-0.5
 62
256
  6
BYLAYER
  0
LAYOUT
  5
2BE
102
{ACAD_REACTORS
330
1A
102
}
100
AcDbPlotSettings
  1

  2
none_device
  4

  6

 40
0.0
 41
0.0
 42
0.0
 43
0.0
 44
210.0
 45
297.0
 46
0.0
 47
0.0
 48
0.0
 49
0.0
140
0.0
141
0.0
142
1.0
143
1.0
 70
1024
 72
1
 73
0
 74
0
  7

 75
0
147
1.0
148
0.0
149
0.0
100
AcDbLayout
  1
Model
 70
0
 71
0
 10
0.0
 20
0.0
 11
210.0
 21
297.0
 12
0.0
 22
0.0
 32
0.0
 14
0.0
 24
0.0
 34
0.0
 15
0.0
 25
0.0
 35
0.0
146
0.0
 13
0.0
 23
0.0
 33
0.0
 16
1.0
 26
0.0
 36
0.0
 17
0.0
 27
1.0
 37
0.0
 76
0
330
210
345
0
346
0
  0
LAYOUT
  5
2BF
102
{ACAD_REACTORS
330
1A
102
}
100
AcDbPlotSettings
  1

  2
none_device
  4

  6

 40
0.0
 41
0.0
 42
0.0
 43
0.0
 44
210.0
 45
297.0
 46
0.0
 47
0.0
 48
0.0
 49
0.0
140
0.0
141
0.0
142
1.0
143
1.0
 70
0
 72
1
 73
0
 74
0
  7

 75
0
147
1.0
148
0.0
149
0.0
100
AcDbLayout
  1
Layout1
 70
0
 71
1
 10
0.0
 20
0.0
 11
210.0
 21
297.0
 12
0.0
 22
0.0
 32
0.0
 14
0.0
 24
0.0
 34
0.0
 15
0.0
 25
0.0
 35
0.0
146
0.0
 13
0.0
 23
0.0
 33
0.0
 16
1.0
 26
0.0
 36
0.0
 17
0.0
 27
1.0
 37
0.0
 76
0
330
211
345
0
346
0
  0
ENDSEC
  0
EOF
