999
DXF file: C:\Users\sesa63760\Dev\_Creo\CAD\MCADID0003615_3D-CAD\drw0001_2.dxf
999
Pro/ENGINEER 2019471 by Parametric Technology Corporation
  0
SECTION
  2
HEADER
  9
$ACADVER
  1
AC1024
  9
$DWGCODEPAGE
  3
ANSI_1252
  9
$EXTMAX
 10
123.3383948417
 20
174.4357298475
 30
0.0
  9
$EXTMIN
 10
0.0
 20
0.0
 30
0.0
  9
$LIMMIN
 10
0.0
 20
0.0
  9
$LIMMAX
 10
123.3383948417
 20
174.4357298475
  9
$VIEWCTR
 10
61.6691974208
 20
87.2178649237
  9
$VIEWSIZE
 40
174.4357298475
  9
$CLAYER
  8
0
  9
$LTSCALE
 40
11.370625353
  9
$CELTYPE
  6
BYLAYER
  9
$DIMSCALE
 40
1.0
  9
$DIMASZ
 40
1.4683142243
  9
$DIMEXO
 40
1.0
  9
$DIMDLI
 40
7.8560684257
  9
$DIMEXE
 40
1.0
  9
$DIMCEN
 40
1.860647785
  9
$DIMLFAC
 40
1.0
  9
$DIMBLK
  1
_FILLED
  9
$DIMALT
 70
0
  9
$DIMALTF
 40
0.0393700787
  9
$DIMTXT
 40
2.055639914
  9
$DIMTOL
 70
1
  9
$DIMLIM
 70
0
  9
$DIMTFAC
 40
1.0
  9
$DIMTP
 40
0.01
  9
$DIMTM
 40
0.01
  9
$DIMGAP
 40
0.625
  9
$DIMDSEP
 70
46
  9
$AUNITS
 70
0
  9
$PDMODE
 70
3
  9
$PDSIZE
 40
0.3125
  9
$HANDSEED
  5
2A9
  9
$TILEMODE
 70
1
  9
$MEASUREMENT
 70
1
  9
$INSUNITS
 70
4
  0
ENDSEC
  0
SECTION
  2
CLASSES
  0
CLASS
  1
ACDBDICTIONARYWDFLT
  2
AcDbDictionaryWithDefault
  3
AutoCAD 2000
 90
0
 91
1
280
0
281
0
  0
CLASS
  1
ACDBPLACEHOLDER
  2
AcDbPlaceHolder
  3
AutoCAD 2000
 90
0
 91
1
280
0
281
0
  0
CLASS
  1
LAYOUT
  2
AcDbLayout
  3
AutoCAD 2000
 90
0
 91
0
280
0
281
0
  0
ENDSEC
  0
SECTION
  2
TABLES
  0
TABLE
  2
VPORT
  5
8
100
AcDbSymbolTable
 70
2
  0
VPORT
  5
1F4
100
AcDbSymbolTableRecord
100
AcDbViewportTableRecord
  2
*ACTIVE
 70
0
 10
0.0
 20
0.0
 11
1.0
 21
1.0
 12
61.6691974208
 22
87.2178649237
 13
0.0
 23
0.0
 14
1.0
 24
1.0
 15
0.0
 25
0.0
 16
0.0
 26
0.0
 36
1.0
 17
0.0
 27
0.0
 37
0.0
 40
174.4357298475
 41
0.7070707071
 42
50.0
 43
0.0
 44
0.0
 50
0.0
 51
0.0
 71
0
 72
100
 73
1
 74
1
 75
0
 76
0
 77
0
 78
0
  0
ENDTAB
  0
TABLE
  2
LTYPE
  5
5
100
AcDbSymbolTable
 70
6
  0
LTYPE
  5
14
100
AcDbSymbolTableRecord
100
AcDbLinetypeTableRecord
  2
BYBLOCK
 70
0
  3

 72
65
 73
0
 40
0.0
  0
LTYPE
  5
15
100
AcDbSymbolTableRecord
100
AcDbLinetypeTableRecord
  2
BYLAYER
 70
0
  3

 72
65
 73
0
 40
0.0
  0
LTYPE
  5
16
100
AcDbSymbolTableRecord
100
AcDbLinetypeTableRecord
  2
CONTINUOUS
 70
64
  3
Solid line
 72
65
 73
0
 40
0.0
  0
LTYPE
  5
1F5
100
AcDbSymbolTableRecord
100
AcDbLinetypeTableRecord
  2
CENTER
 70
64
  3
____ _ ____ _ ____ _ ____ _ ____ _ ____ _ ____
 72
65
 73
4
 40
0.6
 49
0.375
 74
0
 49
-0.075
 74
0
 49
0.075
 74
0
 49
-0.075
 74
0
  0
LTYPE
  5
1F6
100
AcDbSymbolTableRecord
100
AcDbLinetypeTableRecord
  2
HIDDEN
 70
64
  3
- - - - - - - - - - - - - - - - - - - -
 72
65
 73
2
 40
0.2
 49
0.1
 74
0
 49
-0.1
 74
0
  0
LTYPE
  5
1F7
100
AcDbSymbolTableRecord
100
AcDbLinetypeTableRecord
  2
PHANTOM
 70
64
  3
_____ _ _ _____ _ _ _____ _ _ _____
 72
65
 73
6
 40
0.8
 49
0.45
 74
0
 49
-0.05
 74
0
 49
0.1
 74
0
 49
-0.05
 74
0
 49
0.1
 74
0
 49
-0.05
 74
0
  0
LTYPE
  5
1F8
100
AcDbSymbolTableRecord
100
AcDbLinetypeTableRecord
  2
DOT
 70
64
  3
. . . . . . . . . . . . . . . . . . . .
 72
65
 73
2
 40
0.2
 49
0.1
 74
0
 49
-0.1
 74
0
  0
LTYPE
  5
1F9
100
AcDbSymbolTableRecord
100
AcDbLinetypeTableRecord
  2
DASHED
 70
64
  3
- - - - - - - - - - - - - - - - - - - -
 72
65
 73
2
 40
0.2
 49
0.1
 74
0
 49
-0.1
 74
0
  0
ENDTAB
  0
TABLE
  2
LAYER
  5
2
100
AcDbSymbolTable
 70
36
  0
LAYER
  5
10
100
AcDbSymbolTableRecord
100
AcDbLayerTableRecord
  2
0
 70
0
 62
7
  6
CONTINUOUS
370
-3
390
F
  0
LAYER
  5
1FA
100
AcDbSymbolTableRecord
100
AcDbLayerTableRecord
  2
DEFAULT_1
 70
0
 62
7
  6
CENTER
370
-3
390
F
  0
LAYER
  5
1FB
100
AcDbSymbolTableRecord
100
AcDbLayerTableRecord
  2
DEFAULT_2
 70
0
 62
7
  6
HIDDEN
370
-3
390
F
  0
LAYER
  5
1FC
100
AcDbSymbolTableRecord
100
AcDbLayerTableRecord
  2
DEFAULT_3
 70
0
 62
7
  6
PHANTOM
370
-3
390
F
  0
LAYER
  5
1FD
100
AcDbSymbolTableRecord
100
AcDbLayerTableRecord
  2
00_COMPONENTS
 70
0
 62
7
  6
CONTINUOUS
370
-3
390
F
  0
LAYER
  5
1FE
100
AcDbSymbolTableRecord
100
AcDbLayerTableRecord
  2
01_1_DEFAULT_DATUMS
 70
0
 62
7
  6
CONTINUOUS
370
-3
390
F
  0
LAYER
  5
1FF
100
AcDbSymbolTableRecord
100
AcDbLayerTableRecord
  2
01_PLANES
 70
0
 62
7
  6
CONTINUOUS
370
-3
390
F
  0
LAYER
  5
200
100
AcDbSymbolTableRecord
100
AcDbLayerTableRecord
  2
02_COORD_SYS
 70
0
 62
7
  6
CONTINUOUS
370
-3
390
F
  0
LAYER
  5
201
100
AcDbSymbolTableRecord
100
AcDbLayerTableRecord
  2
03_AXES
 70
0
 62
7
  6
CONTINUOUS
370
-3
390
F
  0
LAYER
  5
202
100
AcDbSymbolTableRecord
100
AcDbLayerTableRecord
  2
04_POINTS
 70
0
 62
7
  6
CONTINUOUS
370
-3
390
F
  0
LAYER
  5
203
100
AcDbSymbolTableRecord
100
AcDbLayerTableRecord
  2
05_CURVES
 70
0
 62
7
  6
CONTINUOUS
370
-3
390
F
  0
LAYER
  5
204
100
AcDbSymbolTableRecord
100
AcDbLayerTableRecord
  2
06_SURFS
 70
0
 62
7
  6
CONTINUOUS
370
-3
390
F
  0
LAYER
  5
205
100
AcDbSymbolTableRecord
100
AcDbLayerTableRecord
  2
07_COSMETICS
 70
0
 62
7
  6
CONTINUOUS
370
-3
390
F
  0
LAYER
  5
206
100
AcDbSymbolTableRecord
100
AcDbLayerTableRecord
  2
10_NOTES
 70
0
 62
7
  6
CONTINUOUS
370
-3
390
F
  0
LAYER
  5
207
100
AcDbSymbolTableRecord
100
AcDbLayerTableRecord
  2
11_NOTES_PUB
 70
0
 62
7
  6
CONTINUOUS
370
-3
390
F
  0
LAYER
  5
208
100
AcDbSymbolTableRecord
100
AcDbLayerTableRecord
  2
13_REF_GTOL
 70
0
 62
7
  6
CONTINUOUS
370
-3
390
F
  0
LAYER
  5
209
100
AcDbSymbolTableRecord
100
AcDbLayerTableRecord
  2
16_MISC
 70
0
 62
7
  6
CONTINUOUS
370
-3
390
F
  0
LAYER
  5
20A
100
AcDbSymbolTableRecord
100
AcDbLayerTableRecord
  2
17_NO_PRINT
 70
0
 62
7
  6
CONTINUOUS
370
-3
390
F
  0
LAYER
  5
20B
100
AcDbSymbolTableRecord
100
AcDbLayerTableRecord
  2
18_DATUM_CAMS_JOINTS
 70
0
 62
7
  6
CONTINUOUS
370
-3
390
F
  0
LAYER
  5
20C
100
AcDbSymbolTableRecord
100
AcDbLayerTableRecord
  2
19_DATUM_FUNCTIONAL
 70
0
 62
7
  6
CONTINUOUS
370
-3
390
F
  0
LAYER
  5
20D
100
AcDbSymbolTableRecord
100
AcDbLayerTableRecord
  2
20_DATUM_KINEMATIC_SCHEME
 70
0
 62
7
  6
CONTINUOUS
370
-3
390
F
  0
ENDTAB
  0
TABLE
  2
STYLE
  5
3
100
AcDbSymbolTable
 70
1
  0
STYLE
  5
11
100
AcDbSymbolTableRecord
100
AcDbTextStyleTableRecord
  2
STANDARD
 70
0
 40
0.0
 41
1.0
 50
0.0
 71
0
 42
0.2
  3
ARIAL.TTF
  4

  0
STYLE
  5
20E
100
AcDbSymbolTableRecord
100
AcDbTextStyleTableRecord
  2
TEXTSTYLE_1
 70
0
 40
0.0
 41
0.8
 50
0.0
 71
0
 42
0.2
  3
gdt
  4

  0
ENDTAB
  0
TABLE
  2
VIEW
  5
6
100
AcDbSymbolTable
 70
0
  0
ENDTAB
  0
TABLE
  2
UCS
  5
7
100
AcDbSymbolTable
 70
0
  0
ENDTAB
  0
TABLE
  2
APPID
  5
9
100
AcDbSymbolTable
 70
1
  0
APPID
  5
20F
100
AcDbSymbolTableRecord
100
AcDbRegAppTableRecord
  2
ACAD
 70
0
  0
ENDTAB
  0
TABLE
  2
BLOCK_RECORD
  5
1
100
AcDbSymbolTable
 70
0
  0
BLOCK_RECORD
  5
210
100
AcDbSymbolTableRecord
100
AcDbBlockTableRecord
  2
*Model_Space
  0
BLOCK_RECORD
  5
211
100
AcDbSymbolTableRecord
100
AcDbBlockTableRecord
  2
*Paper_Space
  0
BLOCK_RECORD
  5
212
100
AcDbSymbolTableRecord
100
AcDbBlockTableRecord
  2
_FILLED
  0
ENDTAB
  0
TABLE
  2
DIMSTYLE
  5
A
100
AcDbSymbolTable
 70
1
100
AcDbDimStyleTable
 71
0
  0
DIMSTYLE
105
213
100
AcDbSymbolTableRecord
100
AcDbDimStyleTableRecord
  2
STANDARD
 70
0
  3

  4

 40
1.0
 41
1.4683142243
 42
1.0
 43
0.38
 44
1.0
 45
0.0
 46
0.0
 47
0.01
 48
0.01
140
2.055639914
141
0.09
142
0.0
143
25.4
144
1.0
145
0.0
146
1.0
147
0.625
 71
1
 72
0
 73
0
 74
0
 75
0
 76
0
 77
1
 78
8
 79
2
170
0
171
1
172
0
173
0
174
0
175
0
176
0
177
0
178
0
270
2
179
2
271
2
272
2
273
2
274
2
275
0
280
0
281
0
282
0
283
1
284
8
285
0
286
0
287
3
288
0
340
11
278
46
341
212
342
212
343
212
344
212
  0
ENDTAB
  0
ENDSEC
  0
SECTION
  2
BLOCKS
  0
BLOCK
  5
20
100
AcDbEntity
  8
0
100
AcDbBlockBegin
  2
*Model_Space
 70
0
 10
0.0
 20
0.0
 30
0.0
  3
*Model_Space
  1

  0
ENDBLK
  5
21
100
AcDbEntity
  8
0
100
AcDbBlockEnd
  0
BLOCK
  5
1C
100
AcDbEntity
  8
0
100
AcDbBlockBegin
  2
*Paper_Space
 70
0
 10
0.0
 20
0.0
 30
0.0
  3
*Paper_Space
  1

  0
ENDBLK
  5
1D
100
AcDbEntity
  8
0
100
AcDbBlockEnd
  0
BLOCK
  5
214
100
AcDbEntity
  8
0
100
AcDbBlockBegin
  2
_FILLED
 70
64
 10
0.0
 20
0.0
  3
_FILLED
  1

  0
SOLID
  5
215
100
AcDbEntity
  8
0
  6
BYBLOCK
 62
0
100
AcDbTrace
 10
0.0
 20
0.0
 11
-1.0
 21
0.25
 12
-1.0
 22
-0.25
 13
-1.0
 23
-0.25
  0
ENDBLK
  5
216
100
AcDbEntity
  8
0
  6
BYBLOCK
 62
0
100
AcDbBlockEnd
  0
ENDSEC
  0
SECTION
  2
ENTITIES
  0
LINE
  5
217
100
AcDbEntity
  8
0
100
AcDbLine
 62
7
  6
BYLAYER
 10
13.5232279219
 20
103.5226034858
 11
13.5232279219
 21
101.5226034858
  0
LINE
  5
218
100
AcDbEntity
  8
0
100
AcDbLine
 62
7
  6
BYLAYER
 10
13.8232279219
 20
62.9226034858
 11
13.8232279219
 21
62.5226034858
  0
LINE
  5
219
100
AcDbEntity
  8
0
100
AcDbLine
 62
7
  6
BYLAYER
 10
15.0232279219
 20
101.5226034858
 11
15.0232279219
 21
103.5226034858
  0
LINE
  5
21A
100
AcDbEntity
  8
0
100
AcDbLine
 62
7
  6
BYLAYER
 10
15.3732279219
 20
107.3726034858
 11
15.3732279219
 21
103.5226034858
  0
LINE
  5
21B
100
AcDbEntity
  8
0
100
AcDbLine
 62
7
  6
BYLAYER
 10
13.846994717
 20
100.0226034858
 11
13.5232279219
 21
62.9226034858
  0
LINE
  5
21C
100
AcDbEntity
  8
0
100
AcDbLine
 62
7
  6
BYLAYER
 10
16.3732279219
 20
103.5226034858
 11
16.3732279219
 21
107.3726034858
  0
LINE
  5
21D
100
AcDbEntity
  8
0
100
AcDbLine
 62
7
  6
BYLAYER
 10
17.0732279219
 20
62.9226034858
 11
17.0732279219
 21
95.9226034858
  0
LINE
  5
21E
100
AcDbEntity
  8
0
100
AcDbLine
 62
7
  6
BYLAYER
 10
17.5732279219
 20
63.1226034858
 11
17.5732279219
 21
95.9226034858
  0
LINE
  5
21F
100
AcDbEntity
  8
0
100
AcDbLine
 62
7
  6
BYLAYER
 10
18.1661211407
 20
73.2813996403
 11
18.1661211407
 21
64.8638073314
  0
LINE
  5
220
100
AcDbEntity
  8
0
100
AcDbLine
 62
7
  6
BYLAYER
 10
18.5196745313
 20
64.8638073314
 11
18.5196745313
 21
73.2813996403
  0
LINE
  5
221
100
AcDbEntity
  8
0
100
AcDbLine
 62
7
  6
BYLAYER
 10
18.5732279219
 20
103.5226034858
 11
18.5732279219
 21
101.5226034858
  0
LINE
  5
222
100
AcDbEntity
  8
0
100
AcDbLine
 62
7
  6
BYLAYER
 10
18.5732279219
 20
100.0226034858
 11
18.5732279219
 21
95.9226034858
  0
LINE
  5
223
100
AcDbEntity
  8
0
100
AcDbLine
 62
7
  6
BYLAYER
 10
18.7611826588
 20
64.1302136759
 11
18.7611826588
 21
64.4170018941
  0
LINE
  5
224
100
AcDbEntity
  8
0
100
AcDbLine
 62
7
  6
BYLAYER
 10
18.7611826588
 20
73.7282050776
 11
18.7611826588
 21
74.0149932958
  0
LINE
  5
225
100
AcDbEntity
  8
0
100
AcDbLine
 62
7
  6
BYLAYER
 10
20.5267813125
 20
70.4149540914
 11
18.5196745313
 21
73.2813996403
  0
LINE
  5
226
100
AcDbEntity
  8
0
100
AcDbLine
 62
7
  6
BYLAYER
 10
18.7611826588
 20
73.7282050776
 11
20.8214661841
 21
70.7858152677
  0
LINE
  5
227
100
AcDbEntity
  8
0
100
AcDbLine
 62
7
  6
BYLAYER
 10
20.5267813125
 20
70.4149540914
 11
20.5267813125
 21
67.7302528803
  0
LINE
  5
228
100
AcDbEntity
  8
0
100
AcDbLine
 62
7
  6
BYLAYER
 10
20.6732279219
 20
67.5699566574
 11
20.6732279219
 21
70.575291476
  0
LINE
  5
229
100
AcDbEntity
  8
0
100
AcDbLine
 62
7
  6
BYLAYER
 10
20.8214661841
 20
67.359391704
 11
20.8214661841
 21
67.5726034858
  0
LINE
  5
22A
100
AcDbEntity
  8
0
100
AcDbLine
 62
7
  6
BYLAYER
 10
20.8214661841
 20
70.5726034858
 11
20.8214661841
 21
70.7858152677
  0
LINE
  5
22B
100
AcDbEntity
  8
0
100
AcDbLine
 62
7
  6
BYLAYER
 10
22.9261625986
 20
62.5226034858
 11
22.9261625986
 21
62.9226034858
  0
LINE
  5
22C
100
AcDbEntity
  8
0
100
AcDbLine
 62
7
  6
BYLAYER
 10
23.5732279219
 20
103.5226034858
 11
23.5732279219
 21
95.9226034858
  0
LINE
  5
22D
100
AcDbEntity
  8
0
100
AcDbLine
 62
7
  6
BYLAYER
 10
25.0732279219
 20
97.0226034858
 11
25.0732279219
 21
103.5226034858
  0
LINE
  5
22E
100
AcDbEntity
  8
0
100
AcDbLine
 62
7
  6
BYLAYER
 10
25.4232279219
 20
107.3726034858
 11
25.4232279219
 21
103.5226034858
  0
LINE
  5
22F
100
AcDbEntity
  8
0
100
AcDbLine
 62
7
  6
BYLAYER
 10
26.4232279219
 20
103.5226034858
 11
26.4232279219
 21
107.3726034858
  0
LINE
  5
230
100
AcDbEntity
  8
0
100
AcDbLine
 62
7
  6
BYLAYER
 10
27.7732279219
 20
107.3726034858
 11
27.7732279219
 21
103.5226034858
  0
LINE
  5
231
100
AcDbEntity
  8
0
100
AcDbLine
 62
7
  6
BYLAYER
 10
28.346994717
 20
68.6913486748
 11
28.346994717
 21
70.5726034858
  0
LINE
  5
232
100
AcDbEntity
  8
0
100
AcDbLine
 62
7
  6
BYLAYER
 10
28.7732279219
 20
103.5226034858
 11
28.7732279219
 21
107.3726034858
  0
LINE
  5
233
100
AcDbEntity
  8
0
100
AcDbLine
 62
7
  6
BYLAYER
 10
29.9732279219
 20
103.5226034858
 11
29.9732279219
 21
106.3226034858
  0
LINE
  5
234
100
AcDbEntity
  8
0
100
AcDbLine
 62
7
  6
BYLAYER
 10
37.1732279219
 20
103.5226034858
 11
37.1732279219
 21
106.3226034858
  0
LINE
  5
235
100
AcDbEntity
  8
0
100
AcDbLine
 62
7
  6
BYLAYER
 10
38.3732279219
 20
107.3726034858
 11
38.3732279219
 21
103.5226034858
  0
LINE
  5
236
100
AcDbEntity
  8
0
100
AcDbLine
 62
7
  6
BYLAYER
 10
39.3732279219
 20
103.5226034858
 11
39.3732279219
 21
107.3726034858
  0
LINE
  5
237
100
AcDbEntity
  8
0
100
AcDbLine
 62
7
  6
BYLAYER
 10
18.5196745313
 20
64.8638073314
 11
20.5267813125
 21
67.7302528803
  0
LINE
  5
238
100
AcDbEntity
  8
0
100
AcDbLine
 62
7
  6
BYLAYER
 10
20.8214661841
 20
67.359391704
 11
18.7611826588
 21
64.4170018941
  0
LINE
  5
239
100
AcDbEntity
  8
0
100
AcDbLine
 62
7
  6
BYLAYER
 10
111.3232279219
 20
62.5226034858
 11
101.8232279219
 21
62.5226034858
  0
LINE
  5
23A
100
AcDbEntity
  8
0
100
AcDbLine
 62
7
  6
BYLAYER
 10
22.9261625986
 20
62.5226034858
 11
13.8232279219
 21
62.5226034858
  0
LINE
  5
23B
100
AcDbEntity
  8
0
100
AcDbLine
 62
7
  6
BYLAYER
 10
111.5232279219
 20
62.9226034858
 11
13.5232279219
 21
62.9226034858
  0
LINE
  5
23C
100
AcDbEntity
  8
0
100
AcDbLine
 62
7
  6
BYLAYER
 10
17.5732279219
 20
63.1226034858
 11
49.5732279219
 21
63.1226034858
  0
LINE
  5
23D
100
AcDbEntity
  8
0
100
AcDbLine
 62
7
  6
BYLAYER
 10
50.0732279219
 20
63.6226034858
 11
17.0732279219
 21
63.6226034858
  0
LINE
  5
23E
100
AcDbEntity
  8
0
100
AcDbLine
 62
7
  6
BYLAYER
 10
18.7611826588
 20
64.1302136759
 11
48.385273185
 21
64.1302136759
  0
LINE
  5
23F
100
AcDbEntity
  8
0
100
AcDbLine
 62
7
  6
BYLAYER
 10
48.385273185
 20
64.4170018941
 11
18.7611826588
 21
64.4170018941
  0
LINE
  5
240
100
AcDbEntity
  8
0
100
AcDbLine
 62
7
  6
BYLAYER
 10
48.9803347031
 20
64.8638073314
 11
48.6267813125
 21
64.8638073314
  0
LINE
  5
241
100
AcDbEntity
  8
0
100
AcDbLine
 62
7
  6
BYLAYER
 10
18.5196745313
 20
64.8638073314
 11
18.1661211407
 21
64.8638073314
  0
LINE
  5
242
100
AcDbEntity
  8
0
100
AcDbLine
 62
7
  6
BYLAYER
 10
48.385273185
 20
64.4170018941
 11
46.3249896597
 21
67.359391704
  0
LINE
  5
243
100
AcDbEntity
  8
0
100
AcDbLine
 62
7
  6
BYLAYER
 10
46.6196745313
 20
67.7302528803
 11
48.6267813125
 21
64.8638073314
  0
LINE
  5
244
100
AcDbEntity
  8
0
100
AcDbLine
 62
7
  6
BYLAYER
 10
20.8214661841
 20
67.359391704
 11
46.3249896597
 21
67.359391704
  0
LINE
  5
245
100
AcDbEntity
  8
0
100
AcDbLine
 62
7
  6
BYLAYER
 10
20.6733892824
 20
67.5726034858
 11
46.473167365
 21
67.5726034858
  0
LINE
  5
246
100
AcDbEntity
  8
0
100
AcDbLine
 62
7
  6
BYLAYER
 10
46.6196745313
 20
67.7302528803
 11
46.4732279219
 21
67.7302528803
  0
LINE
  5
247
100
AcDbEntity
  8
0
100
AcDbLine
 62
7
  6
BYLAYER
 10
20.6732279219
 20
67.7302528803
 11
20.5267813125
 21
67.7302528803
  0
LINE
  5
248
100
AcDbEntity
  8
0
100
AcDbLine
 62
7
  6
BYLAYER
 10
46.3249896598
 20
70.7858152677
 11
46.3249896598
 21
70.5726034858
  0
LINE
  5
249
100
AcDbEntity
  8
0
100
AcDbLine
 62
7
  6
BYLAYER
 10
46.3249896598
 20
67.5726034858
 11
46.3249896598
 21
67.359391704
  0
LINE
  5
24A
100
AcDbEntity
  8
0
100
AcDbLine
 62
7
  6
BYLAYER
 10
46.4732279219
 20
67.5699154957
 11
46.4732279219
 21
70.5752503143
  0
LINE
  5
24B
100
AcDbEntity
  8
0
100
AcDbLine
 62
7
  6
BYLAYER
 10
46.6196745313
 20
67.7302528803
 11
46.6196745313
 21
70.4149540914
  0
LINE
  5
24C
100
AcDbEntity
  8
0
100
AcDbLine
 62
7
  6
BYLAYER
 10
48.385273185
 20
74.0149932958
 11
48.385273185
 21
73.7282050776
  0
LINE
  5
24D
100
AcDbEntity
  8
0
100
AcDbLine
 62
7
  6
BYLAYER
 10
48.385273185
 20
64.4170018941
 11
48.385273185
 21
64.1302136759
  0
LINE
  5
24E
100
AcDbEntity
  8
0
100
AcDbLine
 62
7
  6
BYLAYER
 10
20.5267813125
 20
70.4149540914
 11
20.6732279219
 21
70.4149540914
  0
LINE
  5
24F
100
AcDbEntity
  8
0
100
AcDbLine
 62
7
  6
BYLAYER
 10
46.4732279219
 20
70.4149540914
 11
46.6196745313
 21
70.4149540914
  0
LINE
  5
250
100
AcDbEntity
  8
0
100
AcDbLine
 62
7
  6
BYLAYER
 10
20.6732884789
 20
70.5726034858
 11
46.4730665614
 21
70.5726034858
  0
LINE
  5
251
100
AcDbEntity
  8
0
100
AcDbLine
 62
7
  6
BYLAYER
 10
46.3249896597
 20
70.7858152677
 11
20.8214661841
 21
70.7858152677
  0
LINE
  5
252
100
AcDbEntity
  8
0
100
AcDbLine
 62
7
  6
BYLAYER
 10
48.6267813125
 20
73.2813996403
 11
48.6267813125
 21
64.8638073314
  0
LINE
  5
253
100
AcDbEntity
  8
0
100
AcDbLine
 62
7
  6
BYLAYER
 10
48.9803347031
 20
64.8638073314
 11
48.9803347031
 21
73.2813996403
  0
LINE
  5
254
100
AcDbEntity
  8
0
100
AcDbLine
 62
7
  6
BYLAYER
 10
49.5232279219
 20
110.7726034858
 11
49.5232279219
 21
109.7726034858
  0
LINE
  5
255
100
AcDbEntity
  8
0
100
AcDbLine
 62
7
  6
BYLAYER
 10
49.5732279219
 20
95.9226034858
 11
49.5732279219
 21
63.1226034858
  0
LINE
  5
256
100
AcDbEntity
  8
0
100
AcDbLine
 62
7
  6
BYLAYER
 10
50.0732279219
 20
62.9226034858
 11
50.0732279219
 21
95.9226034858
  0
LINE
  5
257
100
AcDbEntity
  8
0
100
AcDbLine
 62
7
  6
BYLAYER
 10
50.2732279219
 20
109.7726034858
 11
50.2732279219
 21
108.7726034858
  0
LINE
  5
258
100
AcDbEntity
  8
0
100
AcDbLine
 62
7
  6
BYLAYER
 10
50.7732279219
 20
97.0226034858
 11
50.7732279219
 21
101.5226034858
  0
LINE
  5
259
100
AcDbEntity
  8
0
100
AcDbLine
 62
7
  6
BYLAYER
 10
51.0232279219
 20
95.9226034858
 11
51.0232279219
 21
100.0226034858
  0
LINE
  5
25A
100
AcDbEntity
  8
0
100
AcDbLine
 62
7
  6
BYLAYER
 10
51.2732279219
 20
108.3726034858
 11
51.2732279219
 21
107.3726034858
  0
LINE
  5
25B
100
AcDbEntity
  8
0
100
AcDbLine
 62
7
  6
BYLAYER
 10
18.1661211407
 20
73.2813996403
 11
18.5196745313
 21
73.2813996403
  0
LINE
  5
25C
100
AcDbEntity
  8
0
100
AcDbLine
 62
7
  6
BYLAYER
 10
48.6267813125
 20
73.2813996403
 11
48.9803347031
 21
73.2813996403
  0
LINE
  5
25D
100
AcDbEntity
  8
0
100
AcDbLine
 62
7
  6
BYLAYER
 10
18.7611826588
 20
73.7282050776
 11
48.385273185
 21
73.7282050776
  0
LINE
  5
25E
100
AcDbEntity
  8
0
100
AcDbLine
 62
7
  6
BYLAYER
 10
48.385273185
 20
74.0149932958
 11
18.7611826588
 21
74.0149932958
  0
LINE
  5
25F
100
AcDbEntity
  8
0
100
AcDbLine
 62
7
  6
BYLAYER
 10
53.4232279219
 20
108.7726034858
 11
53.4232279219
 21
108.3726034858
  0
LINE
  5
260
100
AcDbEntity
  8
0
100
AcDbLine
 62
7
  6
BYLAYER
 10
46.3249896597
 20
70.7858152677
 11
48.385273185
 21
73.7282050776
  0
LINE
  5
261
100
AcDbEntity
  8
0
100
AcDbLine
 62
7
  6
BYLAYER
 10
48.6267813125
 20
73.2813996403
 11
46.6196745313
 21
70.4149540914
  0
LINE
  5
262
100
AcDbEntity
  8
0
100
AcDbLine
 62
7
  6
BYLAYER
 10
70.1232279219
 20
108.7726034858
 11
70.1232279219
 21
108.3726034858
  0
LINE
  5
263
100
AcDbEntity
  8
0
100
AcDbLine
 62
7
  6
BYLAYER
 10
72.2732279219
 20
108.3726034858
 11
72.2732279219
 21
107.3726034858
  0
LINE
  5
264
100
AcDbEntity
  8
0
100
AcDbLine
 62
7
  6
BYLAYER
 10
73.2732279219
 20
109.7726034858
 11
73.2732279219
 21
108.7726034858
  0
LINE
  5
265
100
AcDbEntity
  8
0
100
AcDbLine
 62
7
  6
BYLAYER
 10
17.0732279219
 20
95.4226034858
 11
50.0732279219
 21
95.4226034858
  0
LINE
  5
266
100
AcDbEntity
  8
0
100
AcDbLine
 62
7
  6
BYLAYER
 10
51.0232279219
 20
95.9226034858
 11
13.811214559
 21
95.9226034858
  0
LINE
  5
267
100
AcDbEntity
  8
0
100
AcDbLine
 62
7
  6
BYLAYER
 10
101.4732279219
 20
95.9226034858
 11
111.2352412848
 21
95.9226034858
  0
LINE
  5
268
100
AcDbEntity
  8
0
100
AcDbLine
 62
7
  6
BYLAYER
 10
23.5732279219
 20
97.0226034858
 11
50.7732279219
 21
97.0226034858
  0
LINE
  5
269
100
AcDbEntity
  8
0
100
AcDbLine
 62
7
  6
BYLAYER
 10
74.0232279219
 20
110.7726034858
 11
74.0232279219
 21
109.7726034858
  0
LINE
  5
26A
100
AcDbEntity
  8
0
100
AcDbLine
 62
7
  6
BYLAYER
 10
13.846994717
 20
100.0226034858
 11
23.5732279219
 21
100.0226034858
  0
LINE
  5
26B
100
AcDbEntity
  8
0
100
AcDbLine
 62
7
  6
BYLAYER
 10
50.7732279219
 20
100.0226034858
 11
111.1994611269
 21
100.0226034858
  0
LINE
  5
26C
100
AcDbEntity
  8
0
100
AcDbLine
 62
7
  6
BYLAYER
 10
23.5732279219
 20
101.5226034858
 11
13.5232279219
 21
101.5226034858
  0
LINE
  5
26D
100
AcDbEntity
  8
0
100
AcDbLine
 62
7
  6
BYLAYER
 10
50.7732279219
 20
101.5226034858
 11
111.5232279219
 21
101.5226034858
  0
LINE
  5
26E
100
AcDbEntity
  8
0
100
AcDbLine
 62
7
  6
BYLAYER
 10
13.5232279219
 20
103.5226034858
 11
111.5232279219
 21
103.5226034858
  0
LINE
  5
26F
100
AcDbEntity
  8
0
100
AcDbLine
 62
7
  6
BYLAYER
 10
103.5020719733
 20
106.2526034858
 11
110.1443838705
 21
106.2526034858
  0
LINE
  5
270
100
AcDbEntity
  8
0
100
AcDbLine
 62
7
  6
BYLAYER
 10
29.9732279219
 20
106.3226034858
 11
37.1732279219
 21
106.3226034858
  0
LINE
  5
271
100
AcDbEntity
  8
0
100
AcDbLine
 62
7
  6
BYLAYER
 10
15.3732279219
 20
107.3726034858
 11
109.6732279219
 21
107.3726034858
  0
LINE
  5
272
100
AcDbEntity
  8
0
100
AcDbLine
 62
7
  6
BYLAYER
 10
51.2732279219
 20
108.3726034858
 11
72.2732279219
 21
108.3726034858
  0
LINE
  5
273
100
AcDbEntity
  8
0
100
AcDbLine
 62
7
  6
BYLAYER
 10
73.2731427888
 20
108.7726034858
 11
50.2732352908
 21
108.7726034858
  0
LINE
  5
274
100
AcDbEntity
  8
0
100
AcDbLine
 62
7
  6
BYLAYER
 10
74.0232279219
 20
109.7726034858
 11
49.5232279219
 21
109.7726034858
  0
LINE
  5
275
100
AcDbEntity
  8
0
100
AcDbLine
 62
7
  6
BYLAYER
 10
49.5232279219
 20
110.7726034858
 11
74.0231068505
 21
110.7726034858
  0
LINE
  5
276
100
AcDbEntity
  8
0
100
AcDbLine
 62
7
  6
BYLAYER
 10
50.0232280576
 20
111.2726034858
 11
73.5231116565
 21
111.2726034858
  0
LINE
  5
277
100
AcDbEntity
  8
0
100
AcDbLine
 62
7
  6
BYLAYER
 10
98.6232279219
 20
107.3726034858
 11
98.6232279219
 21
103.5226034858
  0
LINE
  5
278
100
AcDbEntity
  8
0
100
AcDbLine
 62
7
  6
BYLAYER
 10
99.6232279219
 20
103.5226034858
 11
99.6232279219
 21
107.3726034858
  0
LINE
  5
279
100
AcDbEntity
  8
0
100
AcDbLine
 62
7
  6
BYLAYER
 10
99.9732279219
 20
103.5226034858
 11
99.9732279219
 21
101.5226034858
  0
LINE
  5
27A
100
AcDbEntity
  8
0
100
AcDbLine
 62
7
  6
BYLAYER
 10
101.4732279219
 20
100.0226034858
 11
101.4732279219
 21
95.9226034858
  0
LINE
  5
27B
100
AcDbEntity
  8
0
100
AcDbLine
 62
7
  6
BYLAYER
 10
101.4732279219
 20
101.5226034858
 11
101.4732279219
 21
103.5226034858
  0
LINE
  5
27C
100
AcDbEntity
  8
0
100
AcDbLine
 62
7
  6
BYLAYER
 10
101.8232279219
 20
62.5226034858
 11
101.8232279219
 21
62.9226034858
  0
LINE
  5
27D
100
AcDbEntity
  8
0
100
AcDbLine
 62
7
  6
BYLAYER
 10
103.5020719733
 20
106.2526034858
 11
103.2632279219
 21
103.5226034858
  0
LINE
  5
27E
100
AcDbEntity
  8
0
100
AcDbLine
 62
7
  6
BYLAYER
 10
105.0732279219
 20
101.5226034858
 11
105.0732279219
 21
100.0226034858
  0
LINE
  5
27F
100
AcDbEntity
  8
0
100
AcDbLine
 62
7
  6
BYLAYER
 10
106.4732279219
 20
95.9226034858
 11
106.4732279219
 21
100.0226034858
  0
LINE
  5
280
100
AcDbEntity
  8
0
100
AcDbLine
 62
7
  6
BYLAYER
 10
106.4732279219
 20
101.5226034858
 11
106.4732279219
 21
103.5226034858
  0
LINE
  5
281
100
AcDbEntity
  8
0
100
AcDbLine
 62
7
  6
BYLAYER
 10
108.5732279219
 20
101.5226034858
 11
108.5732279219
 21
100.0226034858
  0
LINE
  5
282
100
AcDbEntity
  8
0
100
AcDbLine
 62
7
  6
BYLAYER
 10
108.6732279219
 20
107.3726034858
 11
108.6732279219
 21
106.2526034858
  0
LINE
  5
283
100
AcDbEntity
  8
0
100
AcDbLine
 62
7
  6
BYLAYER
 10
109.6732279219
 20
106.2526034858
 11
109.6732279219
 21
107.3726034858
  0
LINE
  5
284
100
AcDbEntity
  8
0
100
AcDbLine
 62
7
  6
BYLAYER
 10
110.0232279219
 20
103.5226034858
 11
110.0232279219
 21
101.5226034858
  0
LINE
  5
285
100
AcDbEntity
  8
0
100
AcDbLine
 62
7
  6
BYLAYER
 10
110.1443838705
 20
106.2526034858
 11
110.3832279219
 21
103.5226034858
  0
LINE
  5
286
100
AcDbEntity
  8
0
100
AcDbLine
 62
7
  6
BYLAYER
 10
111.5232279219
 20
62.9226034858
 11
111.1994611269
 21
100.0226034858
  0
LINE
  5
287
100
AcDbEntity
  8
0
100
AcDbLine
 62
7
  6
BYLAYER
 10
111.3232279219
 20
62.5226034858
 11
111.3232279219
 21
62.9226034858
  0
LINE
  5
288
100
AcDbEntity
  8
0
100
AcDbLine
 62
7
  6
BYLAYER
 10
111.5232279219
 20
101.5226034858
 11
111.5232279219
 21
103.5226034858
  0
ARC
  5
289
100
AcDbEntity
  8
0
100
AcDbCircle
 62
7
  6
BYLAYER
 10
33.5732279219
 20
79.4226034858
 40
14.25
100
AcDbArc
 50
216.6356383431
 51
234.2376652256
  0
ARC
  5
28A
100
AcDbEntity
  8
0
100
AcDbCircle
 62
7
  6
BYLAYER
 10
33.5732279219
 20
79.4226034858
 40
14.25
100
AcDbArc
 50
305.7389456044
 51
323.3387476935
  0
ARC
  5
28B
100
AcDbEntity
  8
0
100
AcDbCircle
 62
7
  6
BYLAYER
 10
33.5732279219
 20
79.4226034858
 40
12.0
100
AcDbArc
 50
229.162379555
 51
315.4481211038
  0
ARC
  5
28C
100
AcDbEntity
  8
0
100
AcDbCircle
 62
7
  6
BYLAYER
 10
39.5232279219
 20
78.5226034858
 40
9.25
100
AcDbArc
 50
239.5837643933
 51
275.4450165503
  0
ARC
  5
28D
100
AcDbEntity
  8
0
100
AcDbCircle
 62
7
  6
BYLAYER
 10
50.0232279219
 20
110.7726034858
 40
0.5
100
AcDbArc
 50
89.9999844522
 51
180.0
  0
ARC
  5
28E
100
AcDbEntity
  8
0
100
AcDbCircle
 62
7
  6
BYLAYER
 10
73.5232279219
 20
110.7726034858
 40
0.5
100
AcDbArc
 50
0.0
 51
90.0000155478
  0
ARC
  5
28F
100
AcDbEntity
  8
0
100
AcDbCircle
 62
7
  6
BYLAYER
 10
49.5732279219
 20
63.6226034858
 40
0.5
100
AcDbArc
 50
270.0
 51
360.0
  0
ARC
  5
290
100
AcDbEntity
  8
0
100
AcDbCircle
 62
7
  6
BYLAYER
 10
49.5732279219
 20
95.4226034858
 40
0.5
100
AcDbArc
 50
0.0
 51
90.0
  0
ARC
  5
291
100
AcDbEntity
  8
0
100
AcDbCircle
 62
7
  6
BYLAYER
 10
17.5732279219
 20
95.4226034858
 40
0.5
100
AcDbArc
 50
90.0
 51
180.0
  0
ARC
  5
292
100
AcDbEntity
  8
0
100
AcDbCircle
 62
7
  6
BYLAYER
 10
17.5732279219
 20
63.6226034858
 40
0.5
100
AcDbArc
 50
180.0
 51
270.0
  0
SPLINE
  5
293
100
AcDbEntity
  8
0
100
AcDbSpline
 62
7
  6
BYLAYER
 70
0
 71
3
 72
18
 73
14
 74
0
 42
0.0000001
 43
0.0000001
 44
0.0000000001
 40
0.0
 40
0.0
 40
0.0
 40
0.0
 40
0.0151236722
 40
0.0409453445
 40
0.076773901
 40
0.1213431989
 40
0.1733779794
 40
0.2316953499
 40
0.3631258512
 40
0.5091945459
 40
0.6656501435
 40
0.8298154656
 40
1.0
 40
1.0
 40
1.0
 40
1.0
 10
46.4732223168
 20
67.5699154944
 30
0.0
 10
46.4732243273
 20
67.5676371938
 30
0.0
 10
46.4757693726
 20
67.5617431592
 30
0.0
 10
46.4813704241
 20
67.5517813124
 30
0.0
 10
46.4902882452
 20
67.5384058409
 30
0.0
 10
46.501876608
 20
67.5221956749
 30
0.0
 10
46.5158632478
 20
67.5035006505
 30
0.0
 10
46.5380605798
 20
67.4746264602
 30
0.0
 10
46.5694341134
 20
67.4349360673
 30
0.0
 10
46.6104167994
 20
67.3840048632
 30
0.0
 10
46.6548498039
 20
67.3295208013
 30
0.0
 10
46.7019214758
 20
67.2725030466
 30
0.0
 10
46.7342296322
 20
67.2338615207
 30
0.0
 10
46.7507396222
 20
67.2142478348
 30
0.0
  0
SPLINE
  5
294
100
AcDbEntity
  8
0
100
AcDbSpline
 62
7
  6
BYLAYER
 70
0
 71
3
 72
18
 73
14
 74
0
 42
0.0000001
 43
0.0000001
 44
0.0000000001
 40
0.0
 40
0.0
 40
0.0
 40
0.0
 40
0.0151647672
 40
0.0410098282
 40
0.0768209285
 40
0.1213939235
 40
0.1734378796
 40
0.2317609989
 40
0.3631835918
 40
0.5092254474
 40
0.6656643316
 40
0.8298254619
 40
1.0
 40
1.0
 40
1.0
 40
1.0
 10
46.4732279219
 20
70.5752503143
 30
0.0
 10
46.4732279212
 20
70.5775349906
 30
0.0
 10
46.4757640636
 20
70.5834433167
 30
0.0
 10
46.4813617883
 20
70.5934178904
 30
0.0
 10
46.4902872502
 20
70.6067910865
 30
0.0
 10
46.501872075
 20
70.6230049283
 30
0.0
 10
46.5158578359
 20
70.6417064747
 30
0.0
 10
46.5380545839
 20
70.6705861521
 30
0.0
 10
46.5694241325
 20
70.7102793653
 30
0.0
 10
46.6104150353
 20
70.7612007898
 30
0.0
 10
46.6548479696
 20
70.8156828769
 30
0.0
 10
46.7019085553
 20
70.872711444
 30
0.0
 10
46.734218945
 20
70.9113537208
 30
0.0
 10
46.7507396222
 20
70.9309591368
 30
0.0
  0
SPLINE
  5
295
100
AcDbEntity
  8
0
100
AcDbSpline
 62
7
  6
BYLAYER
 70
0
 71
3
 72
10
 73
6
 74
0
 42
0.0000001
 43
0.0000001
 44
0.0000000001
 40
0.0
 40
0.0
 40
0.0
 40
0.0
 40
0.2634061814
 40
0.5178508694
 40
1.0
 40
1.0
 40
1.0
 40
1.0
 10
46.3249896597
 20
70.7858152677
 30
0.0
 10
46.3630477234
 20
70.7964171799
 30
0.0
 10
46.4373669604
 20
70.8190594098
 30
0.0
 10
46.5796976135
 20
70.8663786603
 30
0.0
 10
46.6833954238
 20
70.9046097486
 30
0.0
 10
46.7507396222
 20
70.9309591368
 30
0.0
  0
SPLINE
  5
296
100
AcDbEntity
  8
0
100
AcDbSpline
 62
7
  6
BYLAYER
 70
0
 71
3
 72
9
 73
5
 74
0
 42
0.0000001
 43
0.0000001
 44
0.0000000001
 40
0.0
 40
0.0
 40
0.0
 40
0.0
 40
0.491275274
 40
1.0
 40
1.0
 40
1.0
 40
1.0
 10
46.7507396222
 20
70.9309591368
 30
0.0
 10
46.7281160171
 20
70.8467596196
 30
0.0
 10
46.6830246737
 20
70.6751124383
 30
0.0
 10
46.6402666398
 20
70.5028570123
 30
0.0
 10
46.6196745313
 20
70.4149540914
 30
0.0
  0
SPLINE
  5
297
100
AcDbEntity
  8
0
100
AcDbSpline
 62
7
  6
BYLAYER
 70
0
 71
3
 72
10
 73
6
 74
0
 42
0.0000001
 43
0.0000001
 44
0.0000000001
 40
0.0
 40
0.0
 40
0.0
 40
0.0
 40
0.2634061814
 40
0.5178508694
 40
1.0
 40
1.0
 40
1.0
 40
1.0
 10
20.8214661841
 20
67.359391704
 30
0.0
 10
20.7834081205
 20
67.3487897918
 30
0.0
 10
20.7090888834
 20
67.3261475619
 30
0.0
 10
20.5667582303
 20
67.2788283114
 30
0.0
 10
20.4630604201
 20
67.2405972231
 30
0.0
 10
20.3957162217
 20
67.2142478348
 30
0.0
  0
SPLINE
  5
298
100
AcDbEntity
  8
0
100
AcDbSpline
 62
7
  6
BYLAYER
 70
0
 71
3
 72
9
 73
5
 74
0
 42
0.0000001
 43
0.0000001
 44
0.0000000001
 40
0.0
 40
0.0
 40
0.0
 40
0.0
 40
0.491275274
 40
1.0
 40
1.0
 40
1.0
 40
1.0
 10
20.3957162217
 20
67.2142478348
 30
0.0
 10
20.4183398267
 20
67.2984473521
 30
0.0
 10
20.4634311701
 20
67.4700945334
 30
0.0
 10
20.5061892041
 20
67.6423499593
 30
0.0
 10
20.5267813125
 20
67.7302528803
 30
0.0
  0
SPLINE
  5
299
100
AcDbEntity
  8
0
100
AcDbSpline
 62
7
  6
BYLAYER
 70
0
 71
3
 72
18
 73
14
 74
0
 42
0.0000001
 43
0.0000001
 44
0.0000000001
 40
0.0
 40
0.0
 40
0.0
 40
0.0
 40
0.1237562563
 40
0.2477113846
 40
0.3719529225
 40
0.4966691406
 40
0.5594357557
 40
0.6224954136
 40
0.6857677549
 40
0.7491042622
 40
0.8122778387
 40
0.8751648031
 40
1.0
 40
1.0
 40
1.0
 40
1.0
 10
18.5196745313
 20
64.8638073314
 30
0.0
 10
18.5135052003
 20
64.8374793181
 30
0.0
 10
18.5024860224
 20
64.7844516245
 30
0.0
 10
18.4916643046
 20
64.703800888
 30
0.0
 10
18.4886965631
 20
64.6222399475
 30
0.0
 10
18.4965308921
 20
64.5540193477
 30
0.0
 10
18.513491394
 20
64.5017440671
 30
0.0
 10
18.5334086517
 20
64.4651678146
 30
0.0
 10
18.56210166
 20
64.4345000848
 30
0.0
 10
18.5985876292
 20
64.4135163075
 30
0.0
 10
18.6391489779
 20
64.4034415635
 30
0.0
 10
18.6942179313
 20
64.4013558576
 30
0.0
 10
18.7348805637
 20
64.4097748386
 30
0.0
 10
18.7611826588
 20
64.4170018941
 30
0.0
  0
SPLINE
  5
29A
100
AcDbEntity
  8
0
100
AcDbSpline
 62
7
  6
BYLAYER
 70
0
 71
3
 72
9
 73
5
 74
0
 42
0.0000001
 43
0.0000001
 44
0.0000000001
 40
0.0
 40
0.0
 40
0.0
 40
0.0
 40
0.4959980855
 40
1.0
 40
1.0
 40
1.0
 40
1.0
 10
46.7507388556
 20
67.2142461458
 30
0.0
 10
46.6814612916
 20
67.2413448378
 30
0.0
 10
46.5406910719
 20
67.2932013925
 30
0.0
 10
46.397714611
 20
67.3387808685
 30
0.0
 10
46.3249890516
 20
67.359390264
 30
0.0
  0
SPLINE
  5
29B
100
AcDbEntity
  8
0
100
AcDbSpline
 62
7
  6
BYLAYER
 70
0
 71
3
 72
14
 73
10
 74
0
 42
0.0000001
 43
0.0000001
 44
0.0000000001
 40
0.0
 40
0.0
 40
0.0
 40
0.0
 40
0.12507049
 40
0.2500397099
 40
0.3749651895
 40
0.4999240625
 40
0.6249761781
 40
0.7500948566
 40
1.0
 40
1.0
 40
1.0
 40
1.0
 10
48.385273185
 20
74.0149932958
 30
0.0
 10
48.4297233443
 20
74.0149892894
 30
0.0
 10
48.5189066272
 20
74.0071963557
 30
0.0
 10
48.6471174649
 20
73.9662987836
 30
0.0
 10
48.7605413262
 20
73.8932850898
 30
0.0
 10
48.8504226132
 20
73.7929353786
 30
0.0
 10
48.9141714348
 20
73.6746914283
 30
0.0
 10
48.9681261246
 20
73.5046041057
 30
0.0
 10
48.9803304
 20
73.3702161425
 30
0.0
 10
48.9803347031
 20
73.2813996403
 30
0.0
  0
SPLINE
  5
29C
100
AcDbEntity
  8
0
100
AcDbSpline
 62
7
  6
BYLAYER
 70
0
 71
3
 72
14
 73
10
 74
0
 42
0.0000001
 43
0.0000001
 44
0.0000000001
 40
0.0
 40
0.0
 40
0.0
 40
0.0
 40
0.2376445724
 40
0.3599766906
 40
0.4856913043
 40
0.6151021261
 40
0.7460768475
 40
0.8748981972
 40
1.0
 40
1.0
 40
1.0
 40
1.0
 10
18.1661211407
 20
73.2813996403
 30
0.0
 10
18.1661211407
 20
73.3658593613
 30
0.0
 10
18.1772792905
 20
73.4947094295
 30
0.0
 10
18.2267531894
 20
73.6607325229
 30
0.0
 10
18.2879153588
 20
73.7812083533
 30
0.0
 10
18.3778388677
 20
73.8869361446
 30
0.0
 10
18.4946053544
 20
73.9646202807
 30
0.0
 10
18.6261578014
 20
74.007089023
 30
0.0
 10
18.7167210359
 20
74.0149932958
 30
0.0
 10
18.7611826588
 20
74.0149932958
 30
0.0
  0
SPLINE
  5
29D
100
AcDbEntity
  8
0
100
AcDbSpline
 62
7
  6
BYLAYER
 70
0
 71
3
 72
14
 73
10
 74
0
 42
0.0000001
 43
0.0000001
 44
0.0000000001
 40
0.0
 40
0.0
 40
0.0
 40
0.0
 40
0.12507049
 40
0.2500397099
 40
0.3749651895
 40
0.4999240625
 40
0.6249761781
 40
0.7500948566
 40
1.0
 40
1.0
 40
1.0
 40
1.0
 10
18.7611826588
 20
64.1302136759
 30
0.0
 10
18.7167324996
 20
64.1302176823
 30
0.0
 10
18.6275492167
 20
64.1380106159
 30
0.0
 10
18.499338379
 20
64.1789081881
 30
0.0
 10
18.3859145177
 20
64.2519218818
 30
0.0
 10
18.2960332306
 20
64.3522715931
 30
0.0
 10
18.2322844091
 20
64.4705155434
 30
0.0
 10
18.1783297193
 20
64.6406028659
 30
0.0
 10
18.1661254438
 20
64.7749908292
 30
0.0
 10
18.1661211407
 20
64.8638073314
 30
0.0
  0
SPLINE
  5
29E
100
AcDbEntity
  8
0
100
AcDbSpline
 62
7
  6
BYLAYER
 70
0
 71
3
 72
14
 73
10
 74
0
 42
0.0000001
 43
0.0000001
 44
0.0000000001
 40
0.0
 40
0.0
 40
0.0
 40
0.0
 40
0.2376445724
 40
0.3599766906
 40
0.4856913043
 40
0.6151021261
 40
0.7460768475
 40
0.8748981973
 40
1.0
 40
1.0
 40
1.0
 40
1.0
 10
48.9803347031
 20
64.8638073314
 30
0.0
 10
48.9803347031
 20
64.7793476104
 30
0.0
 10
48.9691765533
 20
64.6504975421
 30
0.0
 10
48.9197026544
 20
64.4844744487
 30
0.0
 10
48.8585404851
 20
64.3639986184
 30
0.0
 10
48.7686169762
 20
64.2582708271
 30
0.0
 10
48.6518504894
 20
64.180586691
 30
0.0
 10
48.5202980425
 20
64.1381179487
 30
0.0
 10
48.4297348079
 20
64.1302136759
 30
0.0
 10
48.385273185
 20
64.1302136759
 30
0.0
  0
SPLINE
  5
29F
100
AcDbEntity
  8
0
100
AcDbSpline
 62
7
  6
BYLAYER
 70
0
 71
3
 72
9
 73
5
 74
0
 42
0.0000001
 43
0.0000001
 44
0.0000000001
 40
0.0
 40
0.0
 40
0.0
 40
0.0
 40
0.2506990804
 40
1.0
 40
1.0
 40
1.0
 40
1.0
 10
20.5267804278
 20
70.4149536757
 30
0.0
 10
20.5166054152
 20
70.4582656132
 30
0.0
 10
20.4749845193
 20
70.6307873874
 30
0.0
 10
20.4302249013
 20
70.802537685
 30
0.0
 10
20.3957150639
 20
70.9309586199
 30
0.0
  0
SPLINE
  5
2A0
100
AcDbEntity
  8
0
100
AcDbSpline
 62
7
  6
BYLAYER
 70
0
 71
3
 72
17
 73
13
 74
0
 42
0.0000001
 43
0.0000001
 44
0.0000000001
 40
0.0
 40
0.0
 40
0.0
 40
0.0
 40
0.1249151795
 40
0.2503112096
 40
0.3136855813
 40
0.3770134251
 40
0.4401067876
 40
0.5029236746
 40
0.6277260059
 40
0.7520787733
 40
0.8761319568
 40
1.0
 40
1.0
 40
1.0
 40
1.0
 10
18.7611826588
 20
73.7282050776
 30
0.0
 10
18.7350036452
 20
73.7358542228
 30
0.0
 10
18.6809910014
 20
73.7460579713
 30
0.0
 10
18.6105051622
 20
73.738688313
 30
0.0
 10
18.5621185893
 20
73.7106946184
 30
0.0
 10
18.5334220803
 20
73.6800582816
 30
0.0
 10
18.5134828503
 20
73.6434882254
 30
0.0
 10
18.4965530022
 20
73.5912067195
 30
0.0
 10
18.4887405107
 20
73.5229881758
 30
0.0
 10
18.4916175851
 20
73.4414187164
 30
0.0
 10
18.5025324498
 20
73.3607722691
 30
0.0
 10
18.5134793394
 20
73.3077255017
 30
0.0
 10
18.5196745313
 20
73.2813996403
 30
0.0
  0
SPLINE
  5
2A1
100
AcDbEntity
  8
0
100
AcDbSpline
 62
7
  6
BYLAYER
 70
0
 71
3
 72
9
 73
5
 74
0
 42
0.0000001
 43
0.0000001
 44
0.0000000001
 40
0.0
 40
0.0
 40
0.0
 40
0.0
 40
0.4959980855
 40
1.0
 40
1.0
 40
1.0
 40
1.0
 10
20.3957169882
 20
70.9309608259
 30
0.0
 10
20.4649945522
 20
70.9038621338
 30
0.0
 10
20.6057647719
 20
70.8520055792
 30
0.0
 10
20.7487412329
 20
70.8064261032
 30
0.0
 10
20.8214667923
 20
70.7858167077
 30
0.0
  0
SPLINE
  5
2A2
100
AcDbEntity
  8
0
100
AcDbSpline
 62
7
  6
BYLAYER
 70
0
 71
3
 72
18
 73
14
 74
0
 42
0.0000001
 43
0.0000001
 44
0.0000000001
 40
0.0
 40
0.0
 40
0.0
 40
0.0
 40
0.0151236724
 40
0.0409453447
 40
0.076773901
 40
0.1213431984
 40
0.1733779784
 40
0.231695349
 40
0.3631258503
 40
0.5091945453
 40
0.6656501432
 40
0.8298154656
 40
1.0
 40
1.0
 40
1.0
 40
1.0
 10
20.673233527
 20
70.5752914773
 30
0.0
 10
20.6732315165
 20
70.5775697779
 30
0.0
 10
20.6706864712
 20
70.5834638126
 30
0.0
 10
20.6650854198
 20
70.5934256594
 30
0.0
 10
20.6561675987
 20
70.6068011307
 30
0.0
 10
20.6445792359
 20
70.6230112965
 30
0.0
 10
20.6305925963
 20
70.6417063209
 30
0.0
 10
20.6083952643
 20
70.6705805111
 30
0.0
 10
20.5770217307
 20
70.7102709041
 30
0.0
 10
20.5360390446
 20
70.7612021083
 30
0.0
 10
20.4916060401
 20
70.8156861702
 30
0.0
 10
20.4445343681
 20
70.872703925
 30
0.0
 10
20.4122262116
 20
70.9113454509
 30
0.0
 10
20.3957162217
 20
70.9309591368
 30
0.0
  0
SPLINE
  5
2A3
100
AcDbEntity
  8
0
100
AcDbSpline
 62
7
  6
BYLAYER
 70
0
 71
3
 72
17
 73
13
 74
0
 42
0.0000001
 43
0.0000001
 44
0.0000000001
 40
0.0
 40
0.0
 40
0.0
 40
0.0
 40
0.1249151795
 40
0.2503112096
 40
0.3136855813
 40
0.3770134251
 40
0.4401067876
 40
0.5029236746
 40
0.6277260059
 40
0.7520787733
 40
0.8761319568
 40
1.0
 40
1.0
 40
1.0
 40
1.0
 10
48.385273185
 20
64.4170018941
 30
0.0
 10
48.4114521986
 20
64.4093527489
 30
0.0
 10
48.4654648424
 20
64.3991490004
 30
0.0
 10
48.5359506817
 20
64.4065186587
 30
0.0
 10
48.5843372545
 20
64.4345123532
 30
0.0
 10
48.6130337635
 20
64.46514869
 30
0.0
 10
48.6329729935
 20
64.5017187463
 30
0.0
 10
48.6499028417
 20
64.5540002522
 30
0.0
 10
48.6577153332
 20
64.6222187959
 30
0.0
 10
48.6548382587
 20
64.7037882553
 30
0.0
 10
48.6439233941
 20
64.7844347026
 30
0.0
 10
48.6329765045
 20
64.83748147
 30
0.0
 10
48.6267813125
 20
64.8638073314
 30
0.0
  0
SPLINE
  5
2A4
100
AcDbEntity
  8
0
100
AcDbSpline
 62
7
  6
BYLAYER
 70
0
 71
3
 72
18
 73
14
 74
0
 42
0.0000001
 43
0.0000001
 44
0.0000000001
 40
0.0
 40
0.0
 40
0.0
 40
0.0
 40
0.0151647672
 40
0.0410098282
 40
0.0768209285
 40
0.1213939235
 40
0.1734378796
 40
0.2317609989
 40
0.3631835918
 40
0.5092254474
 40
0.6656643316
 40
0.8298254619
 40
1.0
 40
1.0
 40
1.0
 40
1.0
 10
20.6732279219
 20
67.5699566574
 30
0.0
 10
20.6732279227
 20
67.5676719811
 30
0.0
 10
20.6706917803
 20
67.561763655
 30
0.0
 10
20.6650940555
 20
67.5517890813
 30
0.0
 10
20.6561685936
 20
67.5384158852
 30
0.0
 10
20.6445837688
 20
67.5222020434
 30
0.0
 10
20.6305980079
 20
67.503500497
 30
0.0
 10
20.6084012599
 20
67.4746208196
 30
0.0
 10
20.5770317113
 20
67.4349276064
 30
0.0
 10
20.5360408085
 20
67.3840061819
 30
0.0
 10
20.4916078743
 20
67.3295240948
 30
0.0
 10
20.4445472885
 20
67.2724955277
 30
0.0
 10
20.4122368988
 20
67.2338532509
 30
0.0
 10
20.3957162217
 20
67.2142478348
 30
0.0
  0
SPLINE
  5
2A5
100
AcDbEntity
  8
0
100
AcDbSpline
 62
7
  6
BYLAYER
 70
0
 71
3
 72
18
 73
14
 74
0
 42
0.0000001
 43
0.0000001
 44
0.0000000001
 40
0.0
 40
0.0
 40
0.0
 40
0.0
 40
0.1237562563
 40
0.2477113846
 40
0.3719529225
 40
0.4966691406
 40
0.5594357557
 40
0.6224954136
 40
0.6857677549
 40
0.7491042622
 40
0.8122778387
 40
0.8751648031
 40
1.0
 40
1.0
 40
1.0
 40
1.0
 10
48.6267813125
 20
73.2813996403
 30
0.0
 10
48.6329506435
 20
73.3077276535
 30
0.0
 10
48.6439698214
 20
73.3607553472
 30
0.0
 10
48.6547915393
 20
73.4414060837
 30
0.0
 10
48.6577592808
 20
73.5229670242
 30
0.0
 10
48.6499249517
 20
73.591187624
 30
0.0
 10
48.6329644498
 20
73.6434629046
 30
0.0
 10
48.6130471921
 20
73.6800391571
 30
0.0
 10
48.5843541838
 20
73.7107068869
 30
0.0
 10
48.5478682146
 20
73.7316906642
 30
0.0
 10
48.5073068659
 20
73.7417654082
 30
0.0
 10
48.4522379125
 20
73.743851114
 30
0.0
 10
48.4115752802
 20
73.7354321331
 30
0.0
 10
48.385273185
 20
73.7282050776
 30
0.0
  0
SPLINE
  5
2A6
100
AcDbEntity
  8
0
100
AcDbSpline
 62
7
  6
BYLAYER
 70
0
 71
3
 72
9
 73
5
 74
0
 42
0.0000001
 43
0.0000001
 44
0.0000000001
 40
0.0
 40
0.0
 40
0.0
 40
0.0
 40
0.2506990804
 40
1.0
 40
1.0
 40
1.0
 40
1.0
 10
46.6196754161
 20
67.730253296
 30
0.0
 10
46.6298504287
 20
67.6869413585
 30
0.0
 10
46.6714713245
 20
67.5144195843
 30
0.0
 10
46.7162309426
 20
67.3426692867
 30
0.0
 10
46.75074078
 20
67.2142483518
 30
0.0
  0
ENDSEC
  0
SECTION
  2
OBJECTS
  0
DICTIONARY
  5
C
100
AcDbDictionary
280
0
281
1
  3
ACAD_GROUP
350
D
  3
ACAD_MLINESTYLE
350
17
  3
ACAD_LAYOUT
350
1A
  3
ACAD_PLOTSETTINGS
350
19
  3
ACAD_PLOTSTYLENAME
350
E
  0
DICTIONARY
  5
D
102
{ACAD_REACTORS
330
C
102
}
100
AcDbDictionary
280
0
281
1
  0
ACDBDICTIONARYWDFLT
  5
E
102
{ACAD_REACTORS
330
C
102
}
100
AcDbDictionary
281
1
  3
Normal
350
F
100
AcDbDictionaryWithDefault
340
F
  0
DICTIONARY
  5
17
102
{ACAD_REACTORS
330
C
102
}
100
AcDbDictionary
280
0
281
1
  3
Standard
350
18
  0
DICTIONARY
  5
19
102
{ACAD_REACTORS
330
C
102
}
100
AcDbDictionary
281
1
  0
DICTIONARY
  5
1A
102
{ACAD_REACTORS
330
C
102
}
100
AcDbDictionary
281
1
  3
Model
350
2A7
  3
Layout1
350
2A8
  0
ACDBPLACEHOLDER
  5
F
102
{ACAD_REACTORS
330
E
102
}
  0
MLINESTYLE
  5
18
102
{ACAD_REACTORS
330
17
102
}
100
AcDbMlineStyle
  2
STANDARD
 70
0
  3

 62
256
 51
90.0
 52
90.0
 71
2
 49
0.5
 62
256
  6
BYLAYER
 49
-0.5
 62
256
  6
BYLAYER
  0
LAYOUT
  5
2A7
102
{ACAD_REACTORS
330
1A
102
}
100
AcDbPlotSettings
  1

  2
none_device
  4

  6

 40
0.0
 41
0.0
 42
0.0
 43
0.0
 44
210.0
 45
297.0
 46
0.0
 47
0.0
 48
0.0
 49
0.0
140
0.0
141
0.0
142
1.0
143
1.0
 70
1024
 72
1
 73
0
 74
0
  7

 75
0
147
1.0
148
0.0
149
0.0
100
AcDbLayout
  1
Model
 70
0
 71
0
 10
0.0
 20
0.0
 11
210.0
 21
297.0
 12
0.0
 22
0.0
 32
0.0
 14
0.0
 24
0.0
 34
0.0
 15
0.0
 25
0.0
 35
0.0
146
0.0
 13
0.0
 23
0.0
 33
0.0
 16
1.0
 26
0.0
 36
0.0
 17
0.0
 27
1.0
 37
0.0
 76
0
330
210
345
0
346
0
  0
LAYOUT
  5
2A8
102
{ACAD_REACTORS
330
1A
102
}
100
AcDbPlotSettings
  1

  2
none_device
  4

  6

 40
0.0
 41
0.0
 42
0.0
 43
0.0
 44
210.0
 45
297.0
 46
0.0
 47
0.0
 48
0.0
 49
0.0
140
0.0
141
0.0
142
1.0
143
1.0
 70
0
 72
1
 73
0
 74
0
  7

 75
0
147
1.0
148
0.0
149
0.0
100
AcDbLayout
  1
Layout1
 70
0
 71
1
 10
0.0
 20
0.0
 11
210.0
 21
297.0
 12
0.0
 22
0.0
 32
0.0
 14
0.0
 24
0.0
 34
0.0
 15
0.0
 25
0.0
 35
0.0
146
0.0
 13
0.0
 23
0.0
 33
0.0
 16
1.0
 26
0.0
 36
0.0
 17
0.0
 27
1.0
 37
0.0
 76
0
330
211
345
0
346
0
  0
ENDSEC
  0
EOF
