999
DXF file: C:\Users\sesa63760\Dev\_Creo\CAD\MCADID0002109_3D-CAD\drw0001_3.dxf
999
Pro/ENGINEER 2019471 by Parametric Technology Corporation
  0
SECTION
  2
HEADER
  9
$ACADVER
  1
AC1024
  9
$DWGCODEPAGE
  3
ANSI_1252
  9
$EXTMAX
 10
68.3948518507
 20
96.7298619032
 30
0.0
  9
$EXTMIN
 10
0.0
 20
0.0
 30
0.0
  9
$LIMMIN
 10
0.0
 20
0.0
  9
$LIMMAX
 10
68.3948518507
 20
96.7298619032
  9
$VIEWCTR
 10
34.1974259254
 20
48.3649309516
  9
$VIEWSIZE
 40
96.7298619032
  9
$CLAYER
  8
0
  9
$LTSCALE
 40
6.3053539611
  9
$CELTYPE
  6
BYLAYER
  9
$DIMSCALE
 40
1.0
  9
$DIMASZ
 40
0.8142244268
  9
$DIMEXO
 40
1.0
  9
$DIMDLI
 40
4.3564263731
  9
$DIMEXE
 40
1.0
  9
$DIMCEN
 40
1.0317851936
  9
$DIMLFAC
 40
1.0
  9
$DIMBLK
  1
_FILLED
  9
$DIMALT
 70
0
  9
$DIMALTF
 40
0.0393700787
  9
$DIMTXT
 40
1.1399141975
  9
$DIMTOL
 70
1
  9
$DIMLIM
 70
0
  9
$DIMTFAC
 40
1.0
  9
$DIMTP
 40
0.01
  9
$DIMTM
 40
0.01
  9
$DIMGAP
 40
0.625
  9
$DIMDSEP
 70
46
  9
$AUNITS
 70
0
  9
$PDMODE
 70
3
  9
$PDSIZE
 40
0.3125
  9
$HANDSEED
  5
2FD
  9
$TILEMODE
 70
1
  9
$MEASUREMENT
 70
1
  9
$INSUNITS
 70
4
  0
ENDSEC
  0
SECTION
  2
CLASSES
  0
CLASS
  1
ACDBDICTIONARYWDFLT
  2
AcDbDictionaryWithDefault
  3
AutoCAD 2000
 90
0
 91
1
280
0
281
0
  0
CLASS
  1
ACDBPLACEHOLDER
  2
AcDbPlaceHolder
  3
AutoCAD 2000
 90
0
 91
1
280
0
281
0
  0
CLASS
  1
LAYOUT
  2
AcDbLayout
  3
AutoCAD 2000
 90
0
 91
0
280
0
281
0
  0
ENDSEC
  0
SECTION
  2
TABLES
  0
TABLE
  2
VPORT
  5
8
100
AcDbSymbolTable
 70
2
  0
VPORT
  5
1F4
100
AcDbSymbolTableRecord
100
AcDbViewportTableRecord
  2
*ACTIVE
 70
0
 10
0.0
 20
0.0
 11
1.0
 21
1.0
 12
34.1974259254
 22
48.3649309516
 13
0.0
 23
0.0
 14
1.0
 24
1.0
 15
0.0
 25
0.0
 16
0.0
 26
0.0
 36
1.0
 17
0.0
 27
0.0
 37
0.0
 40
96.7298619032
 41
0.7070707071
 42
50.0
 43
0.0
 44
0.0
 50
0.0
 51
0.0
 71
0
 72
100
 73
1
 74
1
 75
0
 76
0
 77
0
 78
0
  0
ENDTAB
  0
TABLE
  2
LTYPE
  5
5
100
AcDbSymbolTable
 70
6
  0
LTYPE
  5
14
100
AcDbSymbolTableRecord
100
AcDbLinetypeTableRecord
  2
BYBLOCK
 70
0
  3

 72
65
 73
0
 40
0.0
  0
LTYPE
  5
15
100
AcDbSymbolTableRecord
100
AcDbLinetypeTableRecord
  2
BYLAYER
 70
0
  3

 72
65
 73
0
 40
0.0
  0
LTYPE
  5
16
100
AcDbSymbolTableRecord
100
AcDbLinetypeTableRecord
  2
CONTINUOUS
 70
64
  3
Solid line
 72
65
 73
0
 40
0.0
  0
LTYPE
  5
1F5
100
AcDbSymbolTableRecord
100
AcDbLinetypeTableRecord
  2
CENTER
 70
64
  3
____ _ ____ _ ____ _ ____ _ ____ _ ____ _ ____
 72
65
 73
4
 40
0.6
 49
0.375
 74
0
 49
-0.075
 74
0
 49
0.075
 74
0
 49
-0.075
 74
0
  0
LTYPE
  5
1F6
100
AcDbSymbolTableRecord
100
AcDbLinetypeTableRecord
  2
HIDDEN
 70
64
  3
- - - - - - - - - - - - - - - - - - - -
 72
65
 73
2
 40
0.2
 49
0.1
 74
0
 49
-0.1
 74
0
  0
LTYPE
  5
1F7
100
AcDbSymbolTableRecord
100
AcDbLinetypeTableRecord
  2
PHANTOM
 70
64
  3
_____ _ _ _____ _ _ _____ _ _ _____
 72
65
 73
6
 40
0.8
 49
0.45
 74
0
 49
-0.05
 74
0
 49
0.1
 74
0
 49
-0.05
 74
0
 49
0.1
 74
0
 49
-0.05
 74
0
  0
LTYPE
  5
1F8
100
AcDbSymbolTableRecord
100
AcDbLinetypeTableRecord
  2
DOT
 70
64
  3
. . . . . . . . . . . . . . . . . . . .
 72
65
 73
2
 40
0.2
 49
0.1
 74
0
 49
-0.1
 74
0
  0
LTYPE
  5
1F9
100
AcDbSymbolTableRecord
100
AcDbLinetypeTableRecord
  2
DASHED
 70
64
  3
- - - - - - - - - - - - - - - - - - - -
 72
65
 73
2
 40
0.2
 49
0.1
 74
0
 49
-0.1
 74
0
  0
ENDTAB
  0
TABLE
  2
LAYER
  5
2
100
AcDbSymbolTable
 70
36
  0
LAYER
  5
10
100
AcDbSymbolTableRecord
100
AcDbLayerTableRecord
  2
0
 70
0
 62
7
  6
CONTINUOUS
370
-3
390
F
  0
LAYER
  5
1FA
100
AcDbSymbolTableRecord
100
AcDbLayerTableRecord
  2
DEFAULT_1
 70
0
 62
7
  6
CENTER
370
-3
390
F
  0
LAYER
  5
1FB
100
AcDbSymbolTableRecord
100
AcDbLayerTableRecord
  2
DEFAULT_2
 70
0
 62
8
  6
HIDDEN
370
-3
390
F
  0
LAYER
  5
1FC
100
AcDbSymbolTableRecord
100
AcDbLayerTableRecord
  2
DEFAULT_3
 70
0
 62
7
  6
PHANTOM
370
-3
390
F
  0
LAYER
  5
1FD
100
AcDbSymbolTableRecord
100
AcDbLayerTableRecord
  2
00_COMPONENTS
 70
0
 62
7
  6
CONTINUOUS
370
-3
390
F
  0
LAYER
  5
1FE
100
AcDbSymbolTableRecord
100
AcDbLayerTableRecord
  2
01_1_DEFAULT_DATUMS
 70
0
 62
7
  6
CONTINUOUS
370
-3
390
F
  0
LAYER
  5
1FF
100
AcDbSymbolTableRecord
100
AcDbLayerTableRecord
  2
01_PLANES
 70
0
 62
7
  6
CONTINUOUS
370
-3
390
F
  0
LAYER
  5
200
100
AcDbSymbolTableRecord
100
AcDbLayerTableRecord
  2
02_COORD_SYS
 70
0
 62
7
  6
CONTINUOUS
370
-3
390
F
  0
LAYER
  5
201
100
AcDbSymbolTableRecord
100
AcDbLayerTableRecord
  2
03_AXES
 70
0
 62
7
  6
CONTINUOUS
370
-3
390
F
  0
LAYER
  5
202
100
AcDbSymbolTableRecord
100
AcDbLayerTableRecord
  2
04_POINTS
 70
0
 62
7
  6
CONTINUOUS
370
-3
390
F
  0
LAYER
  5
203
100
AcDbSymbolTableRecord
100
AcDbLayerTableRecord
  2
05_CURVES
 70
0
 62
7
  6
CONTINUOUS
370
-3
390
F
  0
LAYER
  5
204
100
AcDbSymbolTableRecord
100
AcDbLayerTableRecord
  2
06_SURFS
 70
0
 62
7
  6
CONTINUOUS
370
-3
390
F
  0
LAYER
  5
205
100
AcDbSymbolTableRecord
100
AcDbLayerTableRecord
  2
07_COSMETICS
 70
0
 62
7
  6
CONTINUOUS
370
-3
390
F
  0
LAYER
  5
206
100
AcDbSymbolTableRecord
100
AcDbLayerTableRecord
  2
10_NOTES
 70
0
 62
7
  6
CONTINUOUS
370
-3
390
F
  0
LAYER
  5
207
100
AcDbSymbolTableRecord
100
AcDbLayerTableRecord
  2
11_NOTES_PUB
 70
0
 62
7
  6
CONTINUOUS
370
-3
390
F
  0
LAYER
  5
208
100
AcDbSymbolTableRecord
100
AcDbLayerTableRecord
  2
13_REF_GTOL
 70
0
 62
7
  6
CONTINUOUS
370
-3
390
F
  0
LAYER
  5
209
100
AcDbSymbolTableRecord
100
AcDbLayerTableRecord
  2
16_MISC
 70
0
 62
7
  6
CONTINUOUS
370
-3
390
F
  0
LAYER
  5
20A
100
AcDbSymbolTableRecord
100
AcDbLayerTableRecord
  2
17_NO_PRINT
 70
0
 62
7
  6
CONTINUOUS
370
-3
390
F
  0
LAYER
  5
20B
100
AcDbSymbolTableRecord
100
AcDbLayerTableRecord
  2
18_DATUM_CAMS_JOINTS
 70
0
 62
7
  6
CONTINUOUS
370
-3
390
F
  0
LAYER
  5
20C
100
AcDbSymbolTableRecord
100
AcDbLayerTableRecord
  2
19_DATUM_FUNCTIONAL
 70
0
 62
7
  6
CONTINUOUS
370
-3
390
F
  0
LAYER
  5
20D
100
AcDbSymbolTableRecord
100
AcDbLayerTableRecord
  2
20_DATUM_KINEMATIC_SCHEME
 70
0
 62
7
  6
CONTINUOUS
370
-3
390
F
  0
ENDTAB
  0
TABLE
  2
STYLE
  5
3
100
AcDbSymbolTable
 70
1
  0
STYLE
  5
11
100
AcDbSymbolTableRecord
100
AcDbTextStyleTableRecord
  2
STANDARD
 70
0
 40
0.0
 41
0.8
 50
0.0
 71
0
 42
0.2
  3
txt
  4

  0
STYLE
  5
20E
100
AcDbSymbolTableRecord
100
AcDbTextStyleTableRecord
  2
TEXTSTYLE_1
 70
0
 40
0.0
 41
0.8
 50
0.0
 71
0
 42
0.2
  3
gdt
  4

  0
ENDTAB
  0
TABLE
  2
VIEW
  5
6
100
AcDbSymbolTable
 70
0
  0
ENDTAB
  0
TABLE
  2
UCS
  5
7
100
AcDbSymbolTable
 70
0
  0
ENDTAB
  0
TABLE
  2
APPID
  5
9
100
AcDbSymbolTable
 70
1
  0
APPID
  5
20F
100
AcDbSymbolTableRecord
100
AcDbRegAppTableRecord
  2
ACAD
 70
0
  0
ENDTAB
  0
TABLE
  2
BLOCK_RECORD
  5
1
100
AcDbSymbolTable
 70
0
  0
BLOCK_RECORD
  5
210
100
AcDbSymbolTableRecord
100
AcDbBlockTableRecord
  2
*Model_Space
  0
BLOCK_RECORD
  5
211
100
AcDbSymbolTableRecord
100
AcDbBlockTableRecord
  2
*Paper_Space
  0
BLOCK_RECORD
  5
212
100
AcDbSymbolTableRecord
100
AcDbBlockTableRecord
  2
_FILLED
  0
ENDTAB
  0
TABLE
  2
DIMSTYLE
  5
A
100
AcDbSymbolTable
 70
1
100
AcDbDimStyleTable
 71
0
  0
DIMSTYLE
105
213
100
AcDbSymbolTableRecord
100
AcDbDimStyleTableRecord
  2
STANDARD
 70
0
  3

  4

 40
1.0
 41
0.8142244268
 42
1.0
 43
0.38
 44
1.0
 45
0.0
 46
0.0
 47
0.01
 48
0.01
140
1.1399141975
141
0.09
142
0.0
143
25.4
144
1.0
145
0.0
146
1.0
147
0.625
 71
1
 72
0
 73
0
 74
0
 75
0
 76
0
 77
1
 78
8
 79
2
170
0
171
1
172
0
173
0
174
0
175
0
176
0
177
0
178
0
270
2
179
2
271
2
272
2
273
2
274
2
275
0
280
0
281
0
282
0
283
1
284
8
285
0
286
0
287
3
288
0
340
11
278
46
341
212
342
212
343
212
344
212
  0
ENDTAB
  0
ENDSEC
  0
SECTION
  2
BLOCKS
  0
BLOCK
  5
20
100
AcDbEntity
  8
0
100
AcDbBlockBegin
  2
*Model_Space
 70
0
 10
0.0
 20
0.0
 30
0.0
  3
*Model_Space
  1

  0
ENDBLK
  5
21
100
AcDbEntity
  8
0
100
AcDbBlockEnd
  0
BLOCK
  5
1C
100
AcDbEntity
  8
0
100
AcDbBlockBegin
  2
*Paper_Space
 70
0
 10
0.0
 20
0.0
 30
0.0
  3
*Paper_Space
  1

  0
ENDBLK
  5
1D
100
AcDbEntity
  8
0
100
AcDbBlockEnd
  0
BLOCK
  5
214
100
AcDbEntity
  8
0
100
AcDbBlockBegin
  2
_FILLED
 70
64
 10
0.0
 20
0.0
  3
_FILLED
  1

  0
SOLID
  5
215
100
AcDbEntity
  8
0
  6
BYBLOCK
 62
0
100
AcDbTrace
 10
0.0
 20
0.0
 11
-1.0
 21
0.25
 12
-1.0
 22
-0.25
 13
-1.0
 23
-0.25
  0
ENDBLK
  5
216
100
AcDbEntity
  8
0
  6
BYBLOCK
 62
0
100
AcDbBlockEnd
  0
ENDSEC
  0
SECTION
  2
ENTITIES
  0
LINE
  5
217
100
AcDbEntity
  8
0
100
AcDbLine
 62
7
  6
CONTINUOUS
 10
20.4945971557
 20
7.7549644488
 11
30.3945971557
 21
7.7549644488
  0
LINE
  5
218
100
AcDbEntity
  8
0
100
AcDbLine
 62
7
  6
CONTINUOUS
 10
39.8945971557
 20
7.7549644488
 11
49.7945971557
 21
7.7549644488
  0
LINE
  5
219
100
AcDbEntity
  8
0
100
AcDbLine
 62
7
  6
CONTINUOUS
 10
42.1945971557
 20
8.7755675553
 11
40.9945971557
 21
8.7755675553
  0
LINE
  5
21A
100
AcDbEntity
  8
0
100
AcDbLine
 62
7
  6
CONTINUOUS
 10
22.7945971557
 20
8.7755675553
 11
21.5945971557
 21
8.7755675553
  0
LINE
  5
21B
100
AcDbEntity
  8
0
100
AcDbLine
 62
7
  6
CONTINUOUS
 10
49.7945971557
 20
8.8172951715
 11
48.0445971557
 21
8.8172951715
  0
LINE
  5
21C
100
AcDbEntity
  8
0
100
AcDbLine
 62
7
  6
CONTINUOUS
 10
40.9945971557
 20
8.8172951715
 11
39.8945971557
 21
8.8172951715
  0
LINE
  5
21D
100
AcDbEntity
  8
0
100
AcDbLine
 62
7
  6
CONTINUOUS
 10
30.3945971557
 20
8.8172951715
 11
28.6445971557
 21
8.8172951715
  0
LINE
  5
21E
100
AcDbEntity
  8
0
100
AcDbLine
 62
7
  6
CONTINUOUS
 10
21.5945971557
 20
8.8172951715
 11
20.4945971557
 21
8.8172951715
  0
LINE
  5
21F
100
AcDbEntity
  8
0
100
AcDbLine
 62
7
  6
CONTINUOUS
 10
48.0445971557
 20
11.0932256615
 11
42.1945971557
 21
11.0932256615
  0
LINE
  5
220
100
AcDbEntity
  8
0
100
AcDbLine
 62
7
  6
CONTINUOUS
 10
28.6445971557
 20
11.0932256615
 11
22.7945971557
 21
11.0932256615
  0
LINE
  5
221
100
AcDbEntity
  8
0
100
AcDbLine
 62
7
  6
CONTINUOUS
 10
21.5945971557
 20
12.5438695059
 11
22.7945971557
 21
12.5438695059
  0
LINE
  5
222
100
AcDbEntity
  8
0
100
AcDbLine
 62
7
  6
CONTINUOUS
 10
40.9945971557
 20
12.5438695059
 11
42.1945971557
 21
12.5438695059
  0
LINE
  5
223
100
AcDbEntity
  8
0
100
AcDbLine
 62
7
  6
CONTINUOUS
 10
22.7945971557
 20
12.6516708474
 11
28.6445971557
 21
12.6516708474
  0
LINE
  5
224
100
AcDbEntity
  8
0
100
AcDbLine
 62
7
  6
CONTINUOUS
 10
42.1945971557
 20
12.6516708474
 11
48.0445971557
 21
12.6516708474
  0
LINE
  5
225
100
AcDbEntity
  8
0
100
AcDbLine
 62
7
  6
CONTINUOUS
 10
42.1945971557
 20
12.8639076292
 11
40.9945971557
 21
12.8639076292
  0
LINE
  5
226
100
AcDbEntity
  8
0
100
AcDbLine
 62
7
  6
CONTINUOUS
 10
22.7945971557
 20
12.8639076292
 11
21.5945971557
 21
12.8639076292
  0
LINE
  5
227
100
AcDbEntity
  8
0
100
AcDbLine
 62
7
  6
CONTINUOUS
 10
48.0445971557
 20
14.2241156362
 11
40.9945971557
 21
14.2241156362
  0
LINE
  5
228
100
AcDbEntity
  8
0
100
AcDbLine
 62
7
  6
CONTINUOUS
 10
28.6445971557
 20
14.2241156362
 11
21.5945971557
 21
14.2241156362
  0
LINE
  5
229
100
AcDbEntity
  8
0
100
AcDbLine
 62
7
  6
CONTINUOUS
 10
48.0445971557
 20
15.2241156362
 11
40.9945971557
 21
15.2241156362
  0
LINE
  5
22A
100
AcDbEntity
  8
0
100
AcDbLine
 62
7
  6
CONTINUOUS
 10
28.6445971557
 20
15.2241156362
 11
21.5945971557
 21
15.2241156362
  0
LINE
  5
22B
100
AcDbEntity
  8
0
100
AcDbLine
 62
7
  6
CONTINUOUS
 10
21.5945971557
 20
15.6205151539
 11
28.6445971557
 21
15.6205151539
  0
LINE
  5
22C
100
AcDbEntity
  8
0
100
AcDbLine
 62
7
  6
CONTINUOUS
 10
40.9945971557
 20
15.6205151539
 11
48.0445971557
 21
15.6205151539
  0
LINE
  5
22D
100
AcDbEntity
  8
0
100
AcDbLine
 62
7
  6
CONTINUOUS
 10
48.0445971557
 20
16.5034627468
 11
40.9945971557
 21
16.5034627468
  0
LINE
  5
22E
100
AcDbEntity
  8
0
100
AcDbLine
 62
7
  6
CONTINUOUS
 10
28.6445971557
 20
16.5034627468
 11
21.5945971557
 21
16.5034627468
  0
LINE
  5
22F
100
AcDbEntity
  8
0
100
AcDbLine
 62
7
  6
CONTINUOUS
 10
21.5945971557
 20
17.1829441357
 11
28.6445971557
 21
17.1829441357
  0
LINE
  5
230
100
AcDbEntity
  8
0
100
AcDbLine
 62
7
  6
CONTINUOUS
 10
40.9945971557
 20
17.1829441357
 11
48.0445971557
 21
17.1829441357
  0
LINE
  5
231
100
AcDbEntity
  8
0
100
AcDbLine
 62
7
  6
CONTINUOUS
 10
48.0445971557
 20
18.5353632914
 11
40.9945971557
 21
18.5353632914
  0
LINE
  5
232
100
AcDbEntity
  8
0
100
AcDbLine
 62
7
  6
CONTINUOUS
 10
28.6445971557
 20
18.5353632914
 11
21.5945971557
 21
18.5353632914
  0
LINE
  5
233
100
AcDbEntity
  8
0
100
AcDbLine
 62
7
  6
CONTINUOUS
 10
22.2445781561
 20
73.1749644488
 11
20.8945773376
 21
72.6749641314
  0
LINE
  5
234
100
AcDbEntity
  8
0
100
AcDbLine
 62
7
  6
CONTINUOUS
 10
48.0445971557
 20
22.6701641542
 11
40.9945971557
 21
22.6701641542
  0
LINE
  5
235
100
AcDbEntity
  8
0
100
AcDbLine
 62
7
  6
CONTINUOUS
 10
28.6445971557
 20
22.6701641542
 11
21.5945971557
 21
22.6701641542
  0
LINE
  5
236
100
AcDbEntity
  8
0
100
AcDbLine
 62
7
  6
CONTINUOUS
 10
49.7945971557
 20
24.7167261947
 11
39.8945971557
 21
24.7167261947
  0
LINE
  5
237
100
AcDbEntity
  8
0
100
AcDbLine
 62
7
  6
CONTINUOUS
 10
30.3945971557
 20
24.7167261947
 11
20.4945971557
 21
24.7167261947
  0
LINE
  5
238
100
AcDbEntity
  8
0
100
AcDbLine
 62
7
  6
CONTINUOUS
 10
20.1945971557
 20
42.7549644488
 11
20.1945971557
 21
52.5549644488
  0
LINE
  5
239
100
AcDbEntity
  8
0
100
AcDbLine
 62
7
  6
CONTINUOUS
 10
20.4795971557
 20
52.5549644488
 11
20.4795971557
 21
58.5549644488
  0
LINE
  5
23A
100
AcDbEntity
  8
0
100
AcDbLine
 62
7
  6
CONTINUOUS
 10
20.4945971557
 20
7.7549644488
 11
20.4945971557
 21
45.7549644488
  0
LINE
  5
23B
100
AcDbEntity
  8
0
100
AcDbLine
 62
7
  6
CONTINUOUS
 10
20.5445971557
 20
44.5549644488
 11
20.5445971557
 21
49.4549644488
  0
LINE
  5
23C
100
AcDbEntity
  8
0
100
AcDbLine
 62
7
  6
CONTINUOUS
 10
20.8945773376
 20
65.8749629865
 11
20.8945773376
 21
72.6749641314
  0
LINE
  5
23D
100
AcDbEntity
  8
0
100
AcDbLine
 62
7
  6
CONTINUOUS
 10
48.7445971557
 20
31.6469693843
 11
47.5445971557
 21
31.6469693843
  0
LINE
  5
23E
100
AcDbEntity
  8
0
100
AcDbLine
 62
7
  6
CONTINUOUS
 10
29.3445971557
 20
31.6469693843
 11
28.1445971557
 21
31.6469693843
  0
LINE
  5
23F
100
AcDbEntity
  8
0
100
AcDbLine
 62
7
  6
CONTINUOUS
 10
21.5445971557
 20
31.7549644488
 11
23.1445971557
 21
31.7549644488
  0
LINE
  5
240
100
AcDbEntity
  8
0
100
AcDbLine
 62
7
  6
CONTINUOUS
 10
40.9445971557
 20
31.7549644488
 11
42.5445971557
 21
31.7549644488
  0
LINE
  5
241
100
AcDbEntity
  8
0
100
AcDbLine
 62
7
  6
CONTINUOUS
 10
21.2945971557
 20
50.2549643964
 11
21.2945971557
 21
46.7549644488
  0
LINE
  5
242
100
AcDbEntity
  8
0
100
AcDbLine
 62
7
  6
CONTINUOUS
 10
21.3445971557
 20
44.2549644488
 11
21.3445971557
 21
46.7549644488
  0
LINE
  5
243
100
AcDbEntity
  8
0
100
AcDbLine
 62
7
  6
CONTINUOUS
 10
21.3945971557
 20
46.7549644488
 11
21.3945971557
 21
45.7549644488
  0
LINE
  5
244
100
AcDbEntity
  8
0
100
AcDbLine
 62
7
  6
CONTINUOUS
 10
21.5445971557
 20
31.7549644488
 11
21.5445971557
 21
43.3049644488
  0
LINE
  5
245
100
AcDbEntity
  8
0
100
AcDbLine
 62
7
  6
CONTINUOUS
 10
21.5695808546
 20
64.6249629865
 11
21.5695808546
 21
65.8749629865
  0
LINE
  5
246
100
AcDbEntity
  8
0
100
AcDbLine
 62
7
  6
CONTINUOUS
 10
21.5945971557
 20
22.6701641542
 11
21.5945971557
 21
15.6205151539
  0
LINE
  5
247
100
AcDbEntity
  8
0
100
AcDbLine
 62
7
  6
CONTINUOUS
 10
21.5945971557
 20
7.7549644488
 11
21.5945971557
 21
15.2241156362
  0
LINE
  5
248
100
AcDbEntity
  8
0
100
AcDbLine
 62
7
  6
CONTINUOUS
 10
21.8945971557
 20
46.7549644488
 11
21.8945971557
 21
45.7549644488
  0
LINE
  5
249
100
AcDbEntity
  8
0
100
AcDbLine
 62
7
  6
CONTINUOUS
 10
22.6445781559
 20
73.1749644488
 11
22.6445781559
 21
73.4749602994
  0
LINE
  5
24A
100
AcDbEntity
  8
0
100
AcDbLine
 62
7
  6
CONTINUOUS
 10
22.7945971557
 20
12.8638969929
 11
22.7945971557
 21
7.7549644488
  0
LINE
  5
24B
100
AcDbEntity
  8
0
100
AcDbLine
 62
7
  6
CONTINUOUS
 10
22.9795971557
 20
58.5549644488
 11
22.9795971557
 21
52.5549644488
  0
LINE
  5
24C
100
AcDbEntity
  8
0
100
AcDbLine
 62
7
  6
CONTINUOUS
 10
23.0195971557
 20
58.7549657633
 11
23.0195971557
 21
52.5549644488
  0
LINE
  5
24D
100
AcDbEntity
  8
0
100
AcDbLine
 62
7
  6
CONTINUOUS
 10
23.1445971557
 20
43.3049644488
 11
23.1445971557
 21
31.7549644488
  0
LINE
  5
24E
100
AcDbEntity
  8
0
100
AcDbLine
 62
7
  6
CONTINUOUS
 10
23.3089157026
 20
54.5549653251
 11
23.3089157026
 21
58.7549657633
  0
LINE
  5
24F
100
AcDbEntity
  8
0
100
AcDbLine
 62
7
  6
CONTINUOUS
 10
21.8385873195
 20
87.5090752213
 11
21.5529892849
 21
73.4749644488
  0
LINE
  5
250
100
AcDbEntity
  8
0
100
AcDbLine
 62
7
  6
CONTINUOUS
 10
24.0446452163
 20
58.7549657633
 11
24.0446452163
 21
61.6749629865
  0
LINE
  5
251
100
AcDbEntity
  8
0
100
AcDbLine
 62
7
  6
CONTINUOUS
 10
24.2695811372
 20
61.9763004504
 11
24.2695811372
 21
64.6249629865
  0
LINE
  5
252
100
AcDbEntity
  8
0
100
AcDbLine
 62
7
  6
CONTINUOUS
 10
25.5945971557
 20
54.5549644488
 11
25.5945971557
 21
52.5549644488
  0
LINE
  5
253
100
AcDbEntity
  8
0
100
AcDbLine
 62
7
  6
CONTINUOUS
 10
25.8196041583
 20
46.7549644488
 11
25.8196041583
 21
45.7549644488
  0
LINE
  5
254
100
AcDbEntity
  8
0
100
AcDbLine
 62
7
  6
CONTINUOUS
 10
25.8945971557
 20
45.8549644488
 11
25.8945971557
 21
46.7549644488
  0
LINE
  5
255
100
AcDbEntity
  8
0
100
AcDbLine
 62
7
  6
CONTINUOUS
 10
27.3945971557
 20
45.8549644488
 11
27.3945971557
 21
46.7549644488
  0
LINE
  5
256
100
AcDbEntity
  8
0
100
AcDbLine
 62
7
  6
CONTINUOUS
 10
27.4695948216
 20
46.7549644488
 11
27.4695948216
 21
45.7549644488
  0
LINE
  5
257
100
AcDbEntity
  8
0
100
AcDbLine
 62
7
  6
CONTINUOUS
 10
27.8511018499
 20
58.7549657633
 11
27.8511018499
 21
54.5549653251
  0
LINE
  5
258
100
AcDbEntity
  8
0
100
AcDbLine
 62
7
  6
CONTINUOUS
 10
27.9945971557
 20
46.7549644488
 11
27.9945971557
 21
45.7549644488
  0
LINE
  5
259
100
AcDbEntity
  8
0
100
AcDbLine
 62
7
  6
CONTINUOUS
 10
28.1445971557
 20
54.5549644488
 11
28.1445971557
 21
46.7549644488
  0
LINE
  5
25A
100
AcDbEntity
  8
0
100
AcDbLine
 62
7
  6
CONTINUOUS
 10
28.1445971557
 20
31.6469693843
 11
28.1445971557
 21
43.3049644488
  0
LINE
  5
25B
100
AcDbEntity
  8
0
100
AcDbLine
 62
7
  6
CONTINUOUS
 10
28.5617824972
 20
54.5549653251
 11
28.5617818438
 21
58.7549657633
  0
LINE
  5
25C
100
AcDbEntity
  8
0
100
AcDbLine
 62
7
  6
CONTINUOUS
 10
28.6445971557
 20
22.6701641542
 11
28.6445971557
 21
15.6205151539
  0
LINE
  5
25D
100
AcDbEntity
  8
0
100
AcDbLine
 62
7
  6
CONTINUOUS
 10
28.6445971557
 20
7.7549644488
 11
28.6445971557
 21
15.2241156362
  0
LINE
  5
25E
100
AcDbEntity
  8
0
100
AcDbLine
 62
7
  6
CONTINUOUS
 10
28.9945971557
 20
50.3549644488
 11
28.9945971557
 21
45.7549644488
  0
LINE
  5
25F
100
AcDbEntity
  8
0
100
AcDbLine
 62
7
  6
CONTINUOUS
 10
29.3445971557
 20
31.6469693843
 11
29.3445971557
 21
43.3049644488
  0
LINE
  5
260
100
AcDbEntity
  8
0
100
AcDbLine
 62
7
  6
CONTINUOUS
 10
29.5445971557
 20
44.2549644488
 11
29.5445971557
 21
49.4549644488
  0
LINE
  5
261
100
AcDbEntity
  8
0
100
AcDbLine
 62
7
  6
CONTINUOUS
 10
49.7945971557
 20
41.547316798
 11
48.7445971557
 21
41.547316798
  0
LINE
  5
262
100
AcDbEntity
  8
0
100
AcDbLine
 62
7
  6
CONTINUOUS
 10
47.5445971557
 20
41.547316798
 11
42.5445971557
 21
41.547316798
  0
LINE
  5
263
100
AcDbEntity
  8
0
100
AcDbLine
 62
7
  6
CONTINUOUS
 10
40.9445971557
 20
41.547316798
 11
39.8945971557
 21
41.547316798
  0
LINE
  5
264
100
AcDbEntity
  8
0
100
AcDbLine
 62
7
  6
CONTINUOUS
 10
30.3945971557
 20
41.547316798
 11
29.3445971557
 21
41.547316798
  0
LINE
  5
265
100
AcDbEntity
  8
0
100
AcDbLine
 62
7
  6
CONTINUOUS
 10
28.1445971557
 20
41.547316798
 11
23.1445971557
 21
41.547316798
  0
LINE
  5
266
100
AcDbEntity
  8
0
100
AcDbLine
 62
7
  6
CONTINUOUS
 10
21.5445971557
 20
41.547316798
 11
20.4945971557
 21
41.547316798
  0
LINE
  5
267
100
AcDbEntity
  8
0
100
AcDbLine
 62
7
  6
CONTINUOUS
 10
21.5445971557
 20
42.3049644488
 11
23.1445971557
 21
42.3049644488
  0
LINE
  5
268
100
AcDbEntity
  8
0
100
AcDbLine
 62
7
  6
CONTINUOUS
 10
28.1445971557
 20
42.3049644488
 11
29.3445971557
 21
42.3049644488
  0
LINE
  5
269
100
AcDbEntity
  8
0
100
AcDbLine
 62
7
  6
CONTINUOUS
 10
40.9445971557
 20
42.3049644488
 11
42.5445971557
 21
42.3049644488
  0
LINE
  5
26A
100
AcDbEntity
  8
0
100
AcDbLine
 62
7
  6
CONTINUOUS
 10
47.5445971557
 20
42.3049644488
 11
48.7445971557
 21
42.3049644488
  0
LINE
  5
26B
100
AcDbEntity
  8
0
100
AcDbLine
 62
7
  6
CONTINUOUS
 10
39.8945971557
 20
42.7549644488
 11
30.3945971557
 21
42.7549644488
  0
LINE
  5
26C
100
AcDbEntity
  8
0
100
AcDbLine
 62
7
  6
CONTINUOUS
 10
20.1945971557
 20
42.7549644488
 11
20.4945971557
 21
42.7549644488
  0
LINE
  5
26D
100
AcDbEntity
  8
0
100
AcDbLine
 62
7
  6
CONTINUOUS
 10
49.7945971557
 20
42.7549644488
 11
50.0945971557
 21
42.7549644488
  0
LINE
  5
26E
100
AcDbEntity
  8
0
100
AcDbLine
 62
7
  6
CONTINUOUS
 10
50.0945971557
 20
43.1465329051
 11
49.7945971557
 21
43.1465329051
  0
LINE
  5
26F
100
AcDbEntity
  8
0
100
AcDbLine
 62
7
  6
CONTINUOUS
 10
20.4945971557
 20
43.1465329051
 11
20.1945971557
 21
43.1465329051
  0
LINE
  5
270
100
AcDbEntity
  8
0
100
AcDbLine
 62
7
  6
CONTINUOUS
 10
30.3445971557
 20
44.5549644488
 11
30.3445971557
 21
49.4549644488
  0
LINE
  5
271
100
AcDbEntity
  8
0
100
AcDbLine
 62
7
  6
CONTINUOUS
 10
30.3945971557
 20
7.7549644488
 11
30.3945971557
 21
45.7549644488
  0
LINE
  5
272
100
AcDbEntity
  8
0
100
AcDbLine
 62
7
  6
CONTINUOUS
 10
31.3445971557
 20
50.3549644488
 11
31.3445971557
 21
49.5549644488
  0
LINE
  5
273
100
AcDbEntity
  8
0
100
AcDbLine
 62
7
  6
CONTINUOUS
 10
31.3445971557
 20
45.7549644488
 11
31.3445971557
 21
48.6549644488
  0
LINE
  5
274
100
AcDbEntity
  8
0
100
AcDbLine
 62
7
  6
CONTINUOUS
 10
31.9119559169
 20
49.5549644488
 11
31.9119559169
 21
49.2549644488
  0
LINE
  5
275
100
AcDbEntity
  8
0
100
AcDbLine
 62
7
  6
CONTINUOUS
 10
32.1445971557
 20
41.0119834725
 11
32.1445971557
 21
42.7549644488
  0
LINE
  5
276
100
AcDbEntity
  8
0
100
AcDbLine
 62
7
  6
CONTINUOUS
 10
48.7445971557
 20
43.3049644488
 11
47.5445971557
 21
43.3049644488
  0
LINE
  5
277
100
AcDbEntity
  8
0
100
AcDbLine
 62
7
  6
CONTINUOUS
 10
42.5445971557
 20
43.3049644488
 11
40.9445971557
 21
43.3049644488
  0
LINE
  5
278
100
AcDbEntity
  8
0
100
AcDbLine
 62
7
  6
CONTINUOUS
 10
29.3445971557
 20
43.3049644488
 11
28.1445971557
 21
43.3049644488
  0
LINE
  5
279
100
AcDbEntity
  8
0
100
AcDbLine
 62
7
  6
CONTINUOUS
 10
23.1445971557
 20
43.3049644488
 11
21.5445971557
 21
43.3049644488
  0
LINE
  5
27A
100
AcDbEntity
  8
0
100
AcDbLine
 62
7
  6
CONTINUOUS
 10
21.6445971557
 20
43.4549644488
 11
29.2445971557
 21
43.4549644488
  0
LINE
  5
27B
100
AcDbEntity
  8
0
100
AcDbLine
 62
7
  6
CONTINUOUS
 10
41.0445971557
 20
43.4549644488
 11
48.6445971557
 21
43.4549644488
  0
LINE
  5
27C
100
AcDbEntity
  8
0
100
AcDbLine
 62
7
  6
CONTINUOUS
 10
21.3445971557
 20
44.2549644488
 11
29.5445971557
 21
44.2549644488
  0
LINE
  5
27D
100
AcDbEntity
  8
0
100
AcDbLine
 62
7
  6
CONTINUOUS
 10
40.7445971557
 20
44.2549644488
 11
48.9445971557
 21
44.2549644488
  0
LINE
  5
27E
100
AcDbEntity
  8
0
100
AcDbLine
 62
7
  6
CONTINUOUS
 10
39.9445971557
 20
45.7549644488
 11
30.3445971557
 21
45.7549644488
  0
LINE
  5
27F
100
AcDbEntity
  8
0
100
AcDbLine
 62
7
  6
CONTINUOUS
 10
29.5445971557
 20
45.7549644488
 11
21.3445971557
 21
45.7549644488
  0
LINE
  5
280
100
AcDbEntity
  8
0
100
AcDbLine
 62
7
  6
CONTINUOUS
 10
20.5445971557
 20
45.7549644488
 11
20.1945971557
 21
45.7549644488
  0
LINE
  5
281
100
AcDbEntity
  8
0
100
AcDbLine
 62
7
  6
CONTINUOUS
 10
40.7445971557
 20
45.7549644488
 11
48.9445971557
 21
45.7549644488
  0
LINE
  5
282
100
AcDbEntity
  8
0
100
AcDbLine
 62
7
  6
CONTINUOUS
 10
49.7445971557
 20
45.7549644488
 11
50.0945971557
 21
45.7549644488
  0
LINE
  5
283
100
AcDbEntity
  8
0
100
AcDbLine
 62
7
  6
CONTINUOUS
 10
25.8945971557
 20
45.8549644488
 11
27.3945971557
 21
45.8549644488
  0
LINE
  5
284
100
AcDbEntity
  8
0
100
AcDbLine
 62
7
  6
CONTINUOUS
 10
32.6445971557
 20
47.7549644488
 11
32.6445971557
 21
45.7549644488
  0
LINE
  5
285
100
AcDbEntity
  8
0
100
AcDbLine
 62
7
  6
CONTINUOUS
 10
39.9445971557
 20
46.7549644488
 11
38.9445971557
 21
46.7549644488
  0
LINE
  5
286
100
AcDbEntity
  8
0
100
AcDbLine
 62
7
  6
CONTINUOUS
 10
37.6445971557
 20
46.7549644488
 11
32.6445971557
 21
46.7549644488
  0
LINE
  5
287
100
AcDbEntity
  8
0
100
AcDbLine
 62
7
  6
CONTINUOUS
 10
31.3445971557
 20
46.7549644488
 11
30.3445971557
 21
46.7549644488
  0
LINE
  5
288
100
AcDbEntity
  8
0
100
AcDbLine
 62
7
  6
CONTINUOUS
 10
25.8945971557
 20
46.7549644488
 11
21.2945971557
 21
46.7549644488
  0
LINE
  5
289
100
AcDbEntity
  8
0
100
AcDbLine
 62
7
  6
CONTINUOUS
 10
20.5445971557
 20
46.7549644488
 11
20.1945971557
 21
46.7549644488
  0
LINE
  5
28A
100
AcDbEntity
  8
0
100
AcDbLine
 62
7
  6
CONTINUOUS
 10
27.3945971557
 20
46.7549644488
 11
29.5445971557
 21
46.7549644488
  0
LINE
  5
28B
100
AcDbEntity
  8
0
100
AcDbLine
 62
7
  6
CONTINUOUS
 10
40.7445971557
 20
46.7549644488
 11
48.9945971557
 21
46.7549644488
  0
LINE
  5
28C
100
AcDbEntity
  8
0
100
AcDbLine
 62
7
  6
CONTINUOUS
 10
49.7445971557
 20
46.7549644488
 11
50.0945971557
 21
46.7549644488
  0
LINE
  5
28D
100
AcDbEntity
  8
0
100
AcDbLine
 62
7
  6
CONTINUOUS
 10
37.6445971557
 20
46.9749625009
 11
35.8645952078
 21
46.9749625009
  0
LINE
  5
28E
100
AcDbEntity
  8
0
100
AcDbLine
 62
7
  6
CONTINUOUS
 10
34.4245991037
 20
46.9749625009
 11
32.6445971557
 21
46.9749625009
  0
LINE
  5
28F
100
AcDbEntity
  8
0
100
AcDbLine
 62
7
  6
CONTINUOUS
 10
20.5445971557
 20
47.4549644488
 11
21.2945971557
 21
47.4549644488
  0
LINE
  5
290
100
AcDbEntity
  8
0
100
AcDbLine
 62
7
  6
CONTINUOUS
 10
29.5445971557
 20
47.4549644488
 11
30.3445971557
 21
47.4549644488
  0
LINE
  5
291
100
AcDbEntity
  8
0
100
AcDbLine
 62
7
  6
CONTINUOUS
 10
39.9445971557
 20
47.4549644488
 11
40.7445971557
 21
47.4549644488
  0
LINE
  5
292
100
AcDbEntity
  8
0
100
AcDbLine
 62
7
  6
CONTINUOUS
 10
48.9945971557
 20
47.4549644488
 11
49.7445971557
 21
47.4549644488
  0
LINE
  5
293
100
AcDbEntity
  8
0
100
AcDbLine
 62
7
  6
CONTINUOUS
 10
37.6445971557
 20
47.7549644488
 11
36.6445971557
 21
47.7549644488
  0
LINE
  5
294
100
AcDbEntity
  8
0
100
AcDbLine
 62
7
  6
CONTINUOUS
 10
33.6445971557
 20
47.7549644488
 11
32.6445971557
 21
47.7549644488
  0
LINE
  5
295
100
AcDbEntity
  8
0
100
AcDbLine
 62
7
  6
CONTINUOUS
 10
20.5445971557
 20
47.7549644522
 11
20.1945971557
 21
47.7549644522
  0
LINE
  5
296
100
AcDbEntity
  8
0
100
AcDbLine
 62
7
  6
CONTINUOUS
 10
49.7445971557
 20
47.7549644522
 11
50.0945971557
 21
47.7549644522
  0
LINE
  5
297
100
AcDbEntity
  8
0
100
AcDbLine
 62
7
  6
CONTINUOUS
 10
33.6445971557
 20
47.7549644488
 11
34.6445971557
 21
46.7549644488
  0
LINE
  5
298
100
AcDbEntity
  8
0
100
AcDbLine
 62
7
  6
CONTINUOUS
 10
37.6445971557
 20
45.7549644488
 11
37.6445971557
 21
47.7549644488
  0
LINE
  5
299
100
AcDbEntity
  8
0
100
AcDbLine
 62
7
  6
CONTINUOUS
 10
38.1445971557
 20
41.0119834725
 11
38.1445971557
 21
42.7549644488
  0
LINE
  5
29A
100
AcDbEntity
  8
0
100
AcDbLine
 62
7
  6
CONTINUOUS
 10
38.3772311775
 20
49.2549644488
 11
38.3772311775
 21
49.5549644488
  0
LINE
  5
29B
100
AcDbEntity
  8
0
100
AcDbLine
 62
7
  6
CONTINUOUS
 10
35.6445971557
 20
46.7549644488
 11
36.6445971557
 21
47.7549644488
  0
LINE
  5
29C
100
AcDbEntity
  8
0
100
AcDbLine
 62
7
  6
CONTINUOUS
 10
31.9445971557
 20
49.2549644488
 11
33.1445971557
 21
49.2549644488
  0
LINE
  5
29D
100
AcDbEntity
  8
0
100
AcDbLine
 62
7
  6
CONTINUOUS
 10
37.1445971557
 20
49.2549644488
 11
38.3445971557
 21
49.2549644488
  0
LINE
  5
29E
100
AcDbEntity
  8
0
100
AcDbLine
 62
7
  6
CONTINUOUS
 10
20.5445971557
 20
49.4549644488
 11
21.2945971557
 21
49.4549644488
  0
LINE
  5
29F
100
AcDbEntity
  8
0
100
AcDbLine
 62
7
  6
CONTINUOUS
 10
29.5445971557
 20
49.4549644488
 11
30.3445971557
 21
49.4549644488
  0
LINE
  5
2A0
100
AcDbEntity
  8
0
100
AcDbLine
 62
7
  6
CONTINUOUS
 10
39.9445971557
 20
49.4549644488
 11
40.7445971557
 21
49.4549644488
  0
LINE
  5
2A1
100
AcDbEntity
  8
0
100
AcDbLine
 62
7
  6
CONTINUOUS
 10
48.9945971557
 20
49.4549644488
 11
49.7445971557
 21
49.4549644488
  0
LINE
  5
2A2
100
AcDbEntity
  8
0
100
AcDbLine
 62
7
  6
CONTINUOUS
 10
31.3445971557
 20
49.5549644488
 11
33.1850053615
 21
49.5549644488
  0
LINE
  5
2A3
100
AcDbEntity
  8
0
100
AcDbLine
 62
7
  6
CONTINUOUS
 10
37.10418895
 20
49.5549644488
 11
43.9445971557
 21
49.5549644488
  0
LINE
  5
2A4
100
AcDbEntity
  8
0
100
AcDbLine
 62
7
  6
CONTINUOUS
 10
21.2945971557
 20
50.2549643964
 11
20.1945971557
 21
50.2549643964
  0
LINE
  5
2A5
100
AcDbEntity
  8
0
100
AcDbLine
 62
7
  6
CONTINUOUS
 10
48.9945971557
 20
50.2549643964
 11
50.0945971557
 21
50.2549643964
  0
LINE
  5
2A6
100
AcDbEntity
  8
0
100
AcDbLine
 62
7
  6
CONTINUOUS
 10
28.9945971557
 20
50.3549644488
 11
31.3445971557
 21
50.3549644488
  0
LINE
  5
2A7
100
AcDbEntity
  8
0
100
AcDbLine
 62
7
  6
CONTINUOUS
 10
48.1445971557
 20
50.6549644488
 11
40.7219474249
 21
50.6549644488
  0
LINE
  5
2A8
100
AcDbEntity
  8
0
100
AcDbLine
 62
7
  6
CONTINUOUS
 10
38.9445971557
 20
48.6549644488
 11
38.9445971557
 21
45.7549644488
  0
LINE
  5
2A9
100
AcDbEntity
  8
0
100
AcDbLine
 62
7
  6
CONTINUOUS
 10
39.8945971557
 20
7.7549644488
 11
39.8945971557
 21
45.7549644488
  0
LINE
  5
2AA
100
AcDbEntity
  8
0
100
AcDbLine
 62
7
  6
CONTINUOUS
 10
39.9445971557
 20
44.5549644488
 11
39.9445971557
 21
49.4549644488
  0
LINE
  5
2AB
100
AcDbEntity
  8
0
100
AcDbLine
 62
7
  6
CONTINUOUS
 10
40.7219474249
 20
52.1549644488
 11
40.7219474249
 21
50.6549644488
  0
LINE
  5
2AC
100
AcDbEntity
  8
0
100
AcDbLine
 62
7
  6
CONTINUOUS
 10
40.7445971557
 20
44.2549644488
 11
40.7445971557
 21
49.4549644488
  0
LINE
  5
2AD
100
AcDbEntity
  8
0
100
AcDbLine
 62
7
  6
CONTINUOUS
 10
40.9445971557
 20
31.7549644488
 11
40.9445971557
 21
43.3049644488
  0
LINE
  5
2AE
100
AcDbEntity
  8
0
100
AcDbLine
 62
7
  6
CONTINUOUS
 10
40.9945971557
 20
22.6701641542
 11
40.9945971557
 21
15.6205151539
  0
LINE
  5
2AF
100
AcDbEntity
  8
0
100
AcDbLine
 62
7
  6
CONTINUOUS
 10
40.9945971557
 20
7.7549644488
 11
40.9945971557
 21
15.2241156362
  0
LINE
  5
2B0
100
AcDbEntity
  8
0
100
AcDbLine
 62
7
  6
CONTINUOUS
 10
41.2945971557
 20
46.7549644488
 11
41.2945971557
 21
45.7549644488
  0
LINE
  5
2B1
100
AcDbEntity
  8
0
100
AcDbLine
 62
7
  6
CONTINUOUS
 10
40.7219474249
 20
52.1549644488
 11
48.1445971557
 21
52.1549644488
  0
LINE
  5
2B2
100
AcDbEntity
  8
0
100
AcDbLine
 62
7
  6
CONTINUOUS
 10
25.5945971557
 20
52.5549644488
 11
20.1945971557
 21
52.5549644488
  0
LINE
  5
2B3
100
AcDbEntity
  8
0
100
AcDbLine
 62
7
  6
CONTINUOUS
 10
44.6945971557
 20
52.5549644488
 11
50.0945971557
 21
52.5549644488
  0
LINE
  5
2B4
100
AcDbEntity
  8
0
100
AcDbLine
 62
7
  6
CONTINUOUS
 10
23.0195971557
 20
54.5549644488
 11
28.5617852404
 21
54.5549644488
  0
LINE
  5
2B5
100
AcDbEntity
  8
0
100
AcDbLine
 62
7
  6
CONTINUOUS
 10
42.6445971557
 20
54.5549644488
 11
47.2695971557
 21
54.5549644488
  0
LINE
  5
2B6
100
AcDbEntity
  8
0
100
AcDbLine
 62
7
  6
CONTINUOUS
 10
42.03900499
 20
52.1549644488
 11
42.03900499
 21
50.6549644488
  0
LINE
  5
2B7
100
AcDbEntity
  8
0
100
AcDbLine
 62
7
  6
CONTINUOUS
 10
42.1445971557
 20
52.1549644488
 11
42.1445971557
 21
50.6549644488
  0
LINE
  5
2B8
100
AcDbEntity
  8
0
100
AcDbLine
 62
7
  6
CONTINUOUS
 10
42.1945971557
 20
12.8638969929
 11
42.1945971557
 21
7.7549644488
  0
LINE
  5
2B9
100
AcDbEntity
  8
0
100
AcDbLine
 62
7
  6
CONTINUOUS
 10
42.4099282343
 20
46.7549644488
 11
42.4099282343
 21
45.7549644488
  0
LINE
  5
2BA
100
AcDbEntity
  8
0
100
AcDbLine
 62
7
  6
CONTINUOUS
 10
42.5445971557
 20
43.3049644488
 11
42.5445971557
 21
31.7549644488
  0
LINE
  5
2BB
100
AcDbEntity
  8
0
100
AcDbLine
 62
7
  6
CONTINUOUS
 10
42.6445971557
 20
58.7549657633
 11
42.6445971557
 21
54.5549653251
  0
LINE
  5
2BC
100
AcDbEntity
  8
0
100
AcDbLine
 62
7
  6
CONTINUOUS
 10
42.6445971557
 20
50.6549644488
 11
42.6445971557
 21
52.1549644488
  0
LINE
  5
2BD
100
AcDbEntity
  8
0
100
AcDbLine
 62
7
  6
CONTINUOUS
 10
43.6445971557
 20
54.5549653251
 11
43.6445971557
 21
58.7549657633
  0
LINE
  5
2BE
100
AcDbEntity
  8
0
100
AcDbLine
 62
7
  6
CONTINUOUS
 10
43.9445971557
 20
49.5549644488
 11
43.9445971557
 21
46.7549644488
  0
LINE
  5
2BF
100
AcDbEntity
  8
0
100
AcDbLine
 62
7
  6
CONTINUOUS
 10
49.8095971557
 20
56.0558430041
 11
47.3095971557
 21
56.0558430041
  0
LINE
  5
2C0
100
AcDbEntity
  8
0
100
AcDbLine
 62
7
  6
CONTINUOUS
 10
22.9795971557
 20
56.0558430041
 11
20.4795971557
 21
56.0558430041
  0
LINE
  5
2C1
100
AcDbEntity
  8
0
100
AcDbLine
 62
7
  6
CONTINUOUS
 10
43.7545562786
 20
73.4749644488
 11
43.4693627531
 21
87.4891932838
  0
LINE
  5
2C2
100
AcDbEntity
  8
0
100
AcDbLine
 62
7
  6
CONTINUOUS
 10
44.6945971557
 20
54.5549653251
 11
44.6945971557
 21
52.5549644488
  0
LINE
  5
2C3
100
AcDbEntity
  8
0
100
AcDbLine
 62
7
  6
CONTINUOUS
 10
45.6445799141
 20
45.7549644488
 11
45.6445799141
 21
46.7549644488
  0
LINE
  5
2C4
100
AcDbEntity
  8
0
100
AcDbLine
 62
7
  6
CONTINUOUS
 10
46.0196092953
 20
61.9763004504
 11
46.0196092953
 21
64.6249629865
  0
LINE
  5
2C5
100
AcDbEntity
  8
0
100
AcDbLine
 62
7
  6
CONTINUOUS
 10
46.2445452163
 20
58.7549657633
 11
46.2445452163
 21
61.6749629865
  0
LINE
  5
2C6
100
AcDbEntity
  8
0
100
AcDbLine
 62
7
  6
CONTINUOUS
 10
46.7695971557
 20
58.7549657633
 11
46.7695971557
 21
54.5549653251
  0
LINE
  5
2C7
100
AcDbEntity
  8
0
100
AcDbLine
 62
7
  6
CONTINUOUS
 10
49.8095971557
 20
58.5549644488
 11
47.3095971557
 21
58.5549644488
  0
LINE
  5
2C8
100
AcDbEntity
  8
0
100
AcDbLine
 62
7
  6
CONTINUOUS
 10
22.9795971557
 20
58.5549644488
 11
20.4795971557
 21
58.5549644488
  0
LINE
  5
2C9
100
AcDbEntity
  8
0
100
AcDbLine
 62
7
  6
CONTINUOUS
 10
23.0195971987
 20
58.7549657633
 11
47.2695971557
 21
58.7549657633
  0
LINE
  5
2CA
100
AcDbEntity
  8
0
100
AcDbLine
 62
7
  6
CONTINUOUS
 10
48.5039258815
 20
87.4891932838
 11
48.789119407
 21
73.4749644488
  0
LINE
  5
2CB
100
AcDbEntity
  8
0
100
AcDbLine
 62
7
  6
CONTINUOUS
 10
47.2695971557
 20
52.5549644488
 11
47.2695971557
 21
58.7549657633
  0
LINE
  5
2CC
100
AcDbEntity
  8
0
100
AcDbLine
 62
7
  6
CONTINUOUS
 10
47.3095971557
 20
52.5549644488
 11
47.3095971557
 21
58.5549644488
  0
LINE
  5
2CD
100
AcDbEntity
  8
0
100
AcDbLine
 62
7
  6
CONTINUOUS
 10
47.5445971557
 20
31.6469693843
 11
47.5445971557
 21
43.3049644488
  0
LINE
  5
2CE
100
AcDbEntity
  8
0
100
AcDbLine
 62
7
  6
CONTINUOUS
 10
47.6445971557
 20
52.1549644488
 11
47.6445971557
 21
50.6549644488
  0
LINE
  5
2CF
100
AcDbEntity
  8
0
100
AcDbLine
 62
7
  6
CONTINUOUS
 10
47.6446122767
 20
73.1749644488
 11
47.6446122767
 21
73.4749602994
  0
LINE
  5
2D0
100
AcDbEntity
  8
0
100
AcDbLine
 62
7
  6
CONTINUOUS
 10
48.0445971557
 20
22.6701641542
 11
48.0445971557
 21
15.6205151539
  0
LINE
  5
2D1
100
AcDbEntity
  8
0
100
AcDbLine
 62
7
  6
CONTINUOUS
 10
48.0445971557
 20
7.7549644488
 11
48.0445971557
 21
15.2241156362
  0
LINE
  5
2D2
100
AcDbEntity
  8
0
100
AcDbLine
 62
7
  6
CONTINUOUS
 10
48.1445971557
 20
50.6549644488
 11
48.1445971557
 21
52.1549644488
  0
LINE
  5
2D3
100
AcDbEntity
  8
0
100
AcDbLine
 62
7
  6
CONTINUOUS
 10
48.3945971557
 20
46.7549644488
 11
48.3945971557
 21
45.7549644488
  0
LINE
  5
2D4
100
AcDbEntity
  8
0
100
AcDbLine
 62
7
  6
CONTINUOUS
 10
48.7196095779
 20
64.6249629865
 11
48.7196095779
 21
65.8749629865
  0
LINE
  5
2D5
100
AcDbEntity
  8
0
100
AcDbLine
 62
7
  6
CONTINUOUS
 10
48.7445971557
 20
31.6469693843
 11
48.7445971557
 21
43.3049644488
  0
LINE
  5
2D6
100
AcDbEntity
  8
0
100
AcDbLine
 62
7
  6
CONTINUOUS
 10
48.8945971557
 20
46.7549644488
 11
48.8945971557
 21
45.7549644488
  0
LINE
  5
2D7
100
AcDbEntity
  8
0
100
AcDbLine
 62
7
  6
CONTINUOUS
 10
48.9445971557
 20
44.2549644488
 11
48.9445971557
 21
46.7549644488
  0
LINE
  5
2D8
100
AcDbEntity
  8
0
100
AcDbLine
 62
7
  6
CONTINUOUS
 10
48.9945971557
 20
50.2549643964
 11
48.9945971557
 21
46.7549644488
  0
LINE
  5
2D9
100
AcDbEntity
  8
0
100
AcDbLine
 62
7
  6
CONTINUOUS
 10
49.3946130949
 20
65.8749629865
 11
49.3946130949
 21
72.6749641314
  0
LINE
  5
2DA
100
AcDbEntity
  8
0
100
AcDbLine
 62
7
  6
CONTINUOUS
 10
49.7445971557
 20
44.5549644488
 11
49.7445971557
 21
49.4549644488
  0
LINE
  5
2DB
100
AcDbEntity
  8
0
100
AcDbLine
 62
7
  6
CONTINUOUS
 10
49.7945971557
 20
7.7549644488
 11
49.7945971557
 21
45.7549644488
  0
LINE
  5
2DC
100
AcDbEntity
  8
0
100
AcDbLine
 62
7
  6
CONTINUOUS
 10
49.8095971557
 20
58.5549644488
 11
49.8095971557
 21
52.5549644488
  0
LINE
  5
2DD
100
AcDbEntity
  8
0
100
AcDbLine
 62
7
  6
CONTINUOUS
 10
24.0447898364
 20
61.6749629865
 11
46.2444005961
 21
61.6749629865
  0
LINE
  5
2DE
100
AcDbEntity
  8
0
100
AcDbLine
 62
7
  6
CONTINUOUS
 10
24.2695811372
 20
61.9763004504
 11
46.0196092953
 21
61.9763004504
  0
LINE
  5
2DF
100
AcDbEntity
  8
0
100
AcDbLine
 62
7
  6
CONTINUOUS
 10
50.0945971557
 20
42.7549644488
 11
50.0945971557
 21
52.5549644488
  0
LINE
  5
2E0
100
AcDbEntity
  8
0
100
AcDbLine
 62
7
  6
CONTINUOUS
 10
48.7196020845
 20
64.6249629865
 11
21.569588348
 21
64.6249629865
  0
LINE
  5
2E1
100
AcDbEntity
  8
0
100
AcDbLine
 62
7
  6
CONTINUOUS
 10
49.394605208
 20
65.8749629865
 11
20.8945852245
 21
65.8749629865
  0
LINE
  5
2E2
100
AcDbEntity
  8
0
100
AcDbLine
 62
7
  6
CONTINUOUS
 10
20.8945773376
 20
72.6749641315
 11
49.3946130949
 21
72.6749641315
  0
LINE
  5
2E3
100
AcDbEntity
  8
0
100
AcDbLine
 62
7
  6
CONTINUOUS
 10
22.2445852714
 20
73.1749644488
 11
48.0446051611
 21
73.1749644488
  0
LINE
  5
2E4
100
AcDbEntity
  8
0
100
AcDbLine
 62
7
  6
CONTINUOUS
 10
21.5529892849
 20
73.4749644488
 11
48.789119407
 21
73.4749644488
  0
LINE
  5
2E5
100
AcDbEntity
  8
0
100
AcDbLine
 62
7
  6
CONTINUOUS
 10
23.7998630102
 20
73.7422346262
 11
35.1445952163
 21
73.7422346262
  0
LINE
  5
2E6
100
AcDbEntity
  8
0
100
AcDbLine
 62
7
  6
CONTINUOUS
 10
48.0446122764
 20
73.1749644488
 11
49.3946130949
 21
72.6749641314
  0
LINE
  5
2E7
100
AcDbEntity
  8
0
100
AcDbLine
 62
7
  6
CONTINUOUS
 10
43.4693627531
 20
87.4891932838
 11
48.5039258815
 21
87.4891932838
  0
LINE
  5
2E8
100
AcDbEntity
  8
0
100
AcDbLine
 62
7
  6
CONTINUOUS
 10
37.6618787038
 20
89.4749616237
 11
32.6273155754
 21
89.4749616237
  0
LINE
  5
2E9
100
AcDbEntity
  8
0
100
AcDbLine
 62
7
  6
CONTINUOUS
 10
33.8917376321
 20
89.4484830696
 11
32.6273155745
 21
89.4749088375
  0
LINE
  5
2EA
100
AcDbEntity
  8
0
100
AcDbLine
 62
7
  6
CONTINUOUS
 10
37.6618787029
 20
89.4749088375
 11
38.9263007605
 21
89.4484830696
  0
ARC
  5
2EB
100
AcDbEntity
  8
0
100
AcDbCircle
 62
7
  6
CONTINUOUS
 10
35.1445952163
 20
22.0800209022
 40
52.8931963693
100
AcDbArc
 50
102.3853870327
 51
103.6697759976
  0
ARC
  5
2EC
100
AcDbEntity
  8
0
100
AcDbCircle
 62
7
  6
CONTINUOUS
 10
35.1445971557
 20
51.3655602389
 40
2.9076819959
100
AcDbArc
 50
226.5411740767
 51
313.4588259233
  0
ARC
  5
2ED
100
AcDbEntity
  8
0
100
AcDbCircle
 62
7
  6
CONTINUOUS
 10
35.1445971557
 20
51.5683427387
 40
2.8095715222
100
AcDbArc
 50
225.7756290328
 51
314.2243709672
  0
ARC
  5
2EE
100
AcDbEntity
  8
0
100
AcDbCircle
 62
7
  6
CONTINUOUS
 10
21.6445971557
 20
44.5549644488
 40
1.1
100
AcDbArc
 50
180.0
 51
270.0
  0
ARC
  5
2EF
100
AcDbEntity
  8
0
100
AcDbCircle
 62
7
  6
CONTINUOUS
 10
29.2445971557
 20
44.5549644488
 40
1.1
100
AcDbArc
 50
270.0
 51
360.0
  0
ARC
  5
2F0
100
AcDbEntity
  8
0
100
AcDbCircle
 62
7
  6
CONTINUOUS
 10
41.0445971557
 20
44.5549644488
 40
1.1
100
AcDbArc
 50
180.0
 51
270.0
  0
ARC
  5
2F1
100
AcDbEntity
  8
0
100
AcDbCircle
 62
7
  6
CONTINUOUS
 10
48.6445971557
 20
44.5549644488
 40
1.1
100
AcDbArc
 50
270.0
 51
360.0
  0
ARC
  5
2F2
100
AcDbEntity
  8
0
100
AcDbCircle
 62
7
  6
CONTINUOUS
 10
31.9445971557
 20
48.6549644488
 40
0.6
100
AcDbArc
 50
90.0
 51
180.0
  0
ARC
  5
2F3
100
AcDbEntity
  8
0
100
AcDbCircle
 62
7
  6
CONTINUOUS
 10
38.3445971557
 20
48.6549644488
 40
0.6
100
AcDbArc
 50
0.0
 51
90.0
  0
ARC
  5
2F4
100
AcDbEntity
  8
0
100
AcDbCircle
 62
7
  6
CONTINUOUS
 10
45.7196122767
 20
61.9749629865
 40
0.3
100
AcDbArc
 50
270.0
 51
360.0
  0
ARC
  5
2F5
100
AcDbEntity
  8
0
100
AcDbCircle
 62
7
  6
CONTINUOUS
 10
24.5695781559
 20
61.9749629865
 40
0.3
100
AcDbArc
 50
180.0
 51
270.0
  0
SPLINE
  5
2F6
100
AcDbEntity
  8
0
100
AcDbSpline
 62
7
  6
CONTINUOUS
 70
0
 71
3
 72
25
 73
21
 74
0
 42
0.0000001
 43
0.0000001
 44
0.0000000001
 40
0.0
 40
0.0
 40
0.0
 40
0.0
 40
0.1876261195
 40
0.3682528048
 40
0.4538462154
 40
0.5352224305
 40
0.6116420977
 40
0.6824205504
 40
0.7469469783
 40
0.8046792964
 40
0.8551884583
 40
0.8981676671
 40
0.9167962609
 40
0.9335201804
 40
0.9483806065
 40
0.9614537518
 40
0.9728688956
 40
0.9828448353
 40
0.9917252925
 40
1.0
 40
1.0
 40
1.0
 40
1.0
 10
35.1445971557
 20
40.4910389395
 30
0.0
 10
34.9494735126
 20
40.4910389395
 30
0.0
 10
34.5664761069
 20
40.4974729905
 30
0.0
 10
34.0950060477
 20
40.5217987375
 30
0.0
 10
33.7346950704
 20
40.5512122241
 30
0.0
 10
33.482901367
 20
40.5772591494
 30
0.0
 10
33.2470871425
 20
40.607411189
 30
0.0
 10
33.0295045818
 20
40.6413798488
 30
0.0
 10
32.8322302146
 20
40.6788002673
 30
0.0
 10
32.657117743
 20
40.7193014264
 30
0.0
 10
32.5058151608
 20
40.7624512016
 30
0.0
 10
32.3959296917
 20
40.8018891965
 30
0.0
 10
32.3215115915
 20
40.8351190759
 30
0.0
 10
32.2751657229
 20
40.8592643201
 30
0.0
 10
32.235653061
 20
40.8837721438
 30
0.0
 10
32.2030334118
 20
40.908612553
 30
0.0
 10
32.1773610088
 20
40.9337947338
 30
0.0
 10
32.1587070311
 20
40.9593877692
 30
0.0
 10
32.1472391525
 20
40.9854536008
 30
0.0
 10
32.144600938
 20
41.0033781085
 30
0.0
 10
32.1446008082
 20
41.0119834726
 30
0.0
  0
SPLINE
  5
2F7
100
AcDbEntity
  8
0
100
AcDbSpline
 62
7
  6
CONTINUOUS
 70
0
 71
3
 72
25
 73
21
 74
0
 42
0.0000001
 43
0.0000001
 44
0.0000000001
 40
0.0
 40
0.0
 40
0.0
 40
0.0
 40
0.0082747129
 40
0.0171552094
 40
0.0271311661
 40
0.0385461764
 40
0.0516192463
 40
0.0664796181
 40
0.0832033607
 40
0.1018316555
 40
0.1448102765
 40
0.1953185792
 40
0.2530499734
 40
0.3175754851
 40
0.3883531991
 40
0.4647723669
 40
0.5461486123
 40
0.6317421512
 40
0.8123707446
 40
1.0
 40
1.0
 40
1.0
 40
1.0
 10
38.1445935033
 20
41.0119834725
 30
0.0
 10
38.1445936331
 20
41.0033781025
 30
0.0
 10
38.1419554821
 20
40.9854534653
 30
0.0
 10
38.1304871858
 20
40.9593877415
 30
0.0
 10
38.1118331329
 20
40.9337949133
 30
0.0
 10
38.086161278
 20
40.9086124645
 30
0.0
 10
38.0535417465
 20
40.8837723048
 30
0.0
 10
38.0140292936
 20
40.8592647704
 30
0.0
 10
37.9676839663
 20
40.8351196853
 30
0.0
 10
37.8932670119
 20
40.801889943
 30
0.0
 10
37.7833832247
 20
40.7624526115
 30
0.0
 10
37.6320831494
 20
40.7193030601
 30
0.0
 10
37.4569734583
 20
40.6788022944
 30
0.0
 10
37.2597018096
 20
40.6413819175
 30
0.0
 10
37.042121497
 20
40.6074133399
 30
0.0
 10
36.8063085841
 20
40.5772608884
 30
0.0
 10
36.5545152361
 20
40.5512138928
 30
0.0
 10
36.1942021713
 20
40.5217994527
 30
0.0
 10
35.7227267246
 20
40.4974732533
 30
0.0
 10
35.3397240657
 20
40.4910389395
 30
0.0
 10
35.1445971557
 20
40.4910389395
 30
0.0
  0
SPLINE
  5
2F8
100
AcDbEntity
  8
0
100
AcDbSpline
 62
7
  6
CONTINUOUS
 70
0
 71
3
 72
11
 73
7
 74
0
 42
0.0000001
 43
0.0000001
 44
0.0000000001
 40
0.0
 40
0.0
 40
0.0
 40
0.0
 40
0.2480487876
 40
0.4968756764
 40
0.7472880937
 40
1.0
 40
1.0
 40
1.0
 40
1.0
 10
32.6273155743
 20
89.4749516982
 30
0.0
 10
31.7160554538
 20
89.4749464578
 30
0.0
 10
29.8896127629
 20
89.3921638973
 30
0.0
 10
27.1659810953
 20
89.0203729249
 30
0.0
 10
24.4697924902
 20
88.4029918779
 30
0.0
 10
22.7087531829
 20
87.8326820359
 30
0.0
 10
21.8385873195
 20
87.5090752213
 30
0.0
  0
SPLINE
  5
2F9
100
AcDbEntity
  8
0
100
AcDbSpline
 62
7
  6
CONTINUOUS
 70
0
 71
3
 72
11
 73
7
 74
0
 42
0.0000001
 43
0.0000001
 44
0.0000000001
 40
0.0
 40
0.0
 40
0.0
 40
0.0
 40
0.247969396
 40
0.496895355
 40
0.7473824672
 40
1.0
 40
1.0
 40
1.0
 40
1.0
 10
38.9263007605
 20
89.4484830696
 30
0.0
 10
39.7368086948
 20
89.4145280089
 30
0.0
 10
41.3589493067
 20
89.2809683385
 30
0.0
 10
43.7743130368
 20
88.8855428228
 30
0.0
 10
46.1655095776
 20
88.2964576219
 30
0.0
 10
47.7298362947
 20
87.7786127097
 30
0.0
 10
48.5039258815
 20
87.4891932838
 30
0.0
  0
SPLINE
  5
2FA
100
AcDbEntity
  8
0
100
AcDbSpline
 62
7
  6
CONTINUOUS
 70
0
 71
3
 72
11
 73
7
 74
0
 42
0.0000001
 43
0.0000001
 44
0.0000000001
 40
0.0
 40
0.0
 40
0.0
 40
0.0
 40
0.2526175328
 40
0.503104645
 40
0.752030604
 40
1.0
 40
1.0
 40
1.0
 40
1.0
 10
43.4693627531
 20
87.4891932838
 30
0.0
 10
42.6952731663
 20
87.7786127097
 30
0.0
 10
41.1309464492
 20
88.2964576219
 30
0.0
 10
38.7397499084
 20
88.8855428228
 30
0.0
 10
36.3243861783
 20
89.2809683385
 30
0.0
 10
34.7022455664
 20
89.4145280089
 30
0.0
 10
33.8917376321
 20
89.4484830696
 30
0.0
  0
ENDSEC
  0
SECTION
  2
OBJECTS
  0
DICTIONARY
  5
C
100
AcDbDictionary
280
0
281
1
  3
ACAD_GROUP
350
D
  3
ACAD_MLINESTYLE
350
17
  3
ACAD_LAYOUT
350
1A
  3
ACAD_PLOTSETTINGS
350
19
  3
ACAD_PLOTSTYLENAME
350
E
  0
DICTIONARY
  5
D
102
{ACAD_REACTORS
330
C
102
}
100
AcDbDictionary
280
0
281
1
  0
ACDBDICTIONARYWDFLT
  5
E
102
{ACAD_REACTORS
330
C
102
}
100
AcDbDictionary
281
1
  3
Normal
350
F
100
AcDbDictionaryWithDefault
340
F
  0
DICTIONARY
  5
17
102
{ACAD_REACTORS
330
C
102
}
100
AcDbDictionary
280
0
281
1
  3
Standard
350
18
  0
DICTIONARY
  5
19
102
{ACAD_REACTORS
330
C
102
}
100
AcDbDictionary
281
1
  0
DICTIONARY
  5
1A
102
{ACAD_REACTORS
330
C
102
}
100
AcDbDictionary
281
1
  3
Model
350
2FB
  3
Layout1
350
2FC
  0
ACDBPLACEHOLDER
  5
F
102
{ACAD_REACTORS
330
E
102
}
  0
MLINESTYLE
  5
18
102
{ACAD_REACTORS
330
17
102
}
100
AcDbMlineStyle
  2
STANDARD
 70
0
  3

 62
256
 51
90.0
 52
90.0
 71
2
 49
0.5
 62
256
  6
BYLAYER
 49
-0.5
 62
256
  6
BYLAYER
  0
LAYOUT
  5
2FB
102
{ACAD_REACTORS
330
1A
102
}
100
AcDbPlotSettings
  1

  2
none_device
  4

  6

 40
0.0
 41
0.0
 42
0.0
 43
0.0
 44
210.0
 45
297.0
 46
0.0
 47
0.0
 48
0.0
 49
0.0
140
0.0
141
0.0
142
1.0
143
1.0
 70
1024
 72
1
 73
0
 74
0
  7

 75
0
147
1.0
148
0.0
149
0.0
100
AcDbLayout
  1
Model
 70
0
 71
0
 10
0.0
 20
0.0
 11
210.0
 21
297.0
 12
0.0
 22
0.0
 32
0.0
 14
0.0
 24
0.0
 34
0.0
 15
0.0
 25
0.0
 35
0.0
146
0.0
 13
0.0
 23
0.0
 33
0.0
 16
1.0
 26
0.0
 36
0.0
 17
0.0
 27
1.0
 37
0.0
 76
0
330
210
345
0
346
0
  0
LAYOUT
  5
2FC
102
{ACAD_REACTORS
330
1A
102
}
100
AcDbPlotSettings
  1

  2
none_device
  4

  6

 40
0.0
 41
0.0
 42
0.0
 43
0.0
 44
210.0
 45
297.0
 46
0.0
 47
0.0
 48
0.0
 49
0.0
140
0.0
141
0.0
142
1.0
143
1.0
 70
0
 72
1
 73
0
 74
0
  7

 75
0
147
1.0
148
0.0
149
0.0
100
AcDbLayout
  1
Layout1
 70
0
 71
1
 10
0.0
 20
0.0
 11
210.0
 21
297.0
 12
0.0
 22
0.0
 32
0.0
 14
0.0
 24
0.0
 34
0.0
 15
0.0
 25
0.0
 35
0.0
146
0.0
 13
0.0
 23
0.0
 33
0.0
 16
1.0
 26
0.0
 36
0.0
 17
0.0
 27
1.0
 37
0.0
 76
0
330
211
345
0
346
0
  0
ENDSEC
  0
EOF
