999
DXF file: C:\Users\sesa63760\Dev\_Creo\CAD\MCADID0004083_3D-CAD\drw0001_5.dxf
999
Pro/ENGINEER 2019471 by Parametric Technology Corporation
  0
SECTION
  2
HEADER
  9
$ACADVER
  1
AC1024
  9
$DWGCODEPAGE
  3
ANSI_1252
  9
$EXTMAX
 10
53.4729952587
 20
75.6260932945
 30
0.0
  9
$EXTMIN
 10
0.0
 20
0.0
 30
0.0
  9
$LIMMIN
 10
0.0
 20
0.0
  9
$LIMMAX
 10
53.4729952587
 20
75.6260932945
  9
$VIEWCTR
 10
26.7364976294
 20
37.8130466472
  9
$VIEWSIZE
 40
75.6260932945
  9
$CLAYER
  8
0
  9
$LTSCALE
 40
4.9297008962
  9
$CELTYPE
  6
BYLAYER
  9
$DIMSCALE
 40
1.0
  9
$DIMASZ
 40
0.6365832769
  9
$DIMEXO
 40
1.0
  9
$DIMDLI
 40
3.4059751647
  9
$DIMEXE
 40
1.0
  9
$DIMCEN
 40
0.8066783285
  9
$DIMLFAC
 40
1.0
  9
$DIMBLK
  1
_FILLED
  9
$DIMALT
 70
0
  9
$DIMALTF
 40
0.0393700787
  9
$DIMTXT
 40
0.8912165876
  9
$DIMTOL
 70
1
  9
$DIMLIM
 70
0
  9
$DIMTFAC
 40
1.0
  9
$DIMTP
 40
0.01
  9
$DIMTM
 40
0.01
  9
$DIMGAP
 40
0.625
  9
$DIMDSEP
 70
46
  9
$AUNITS
 70
0
  9
$PDMODE
 70
3
  9
$PDSIZE
 40
0.3125
  9
$HANDSEED
  5
255
  9
$TILEMODE
 70
1
  9
$MEASUREMENT
 70
1
  9
$INSUNITS
 70
4
  0
ENDSEC
  0
SECTION
  2
CLASSES
  0
CLASS
  1
ACDBDICTIONARYWDFLT
  2
AcDbDictionaryWithDefault
  3
AutoCAD 2000
 90
0
 91
1
280
0
281
0
  0
CLASS
  1
ACDBPLACEHOLDER
  2
AcDbPlaceHolder
  3
AutoCAD 2000
 90
0
 91
1
280
0
281
0
  0
CLASS
  1
LAYOUT
  2
AcDbLayout
  3
AutoCAD 2000
 90
0
 91
0
280
0
281
0
  0
ENDSEC
  0
SECTION
  2
TABLES
  0
TABLE
  2
VPORT
  5
8
100
AcDbSymbolTable
 70
2
  0
VPORT
  5
1F4
100
AcDbSymbolTableRecord
100
AcDbViewportTableRecord
  2
*ACTIVE
 70
0
 10
0.0
 20
0.0
 11
1.0
 21
1.0
 12
26.7364976294
 22
37.8130466472
 13
0.0
 23
0.0
 14
1.0
 24
1.0
 15
0.0
 25
0.0
 16
0.0
 26
0.0
 36
1.0
 17
0.0
 27
0.0
 37
0.0
 40
75.6260932945
 41
0.7070707071
 42
50.0
 43
0.0
 44
0.0
 50
0.0
 51
0.0
 71
0
 72
100
 73
1
 74
1
 75
0
 76
0
 77
0
 78
0
  0
ENDTAB
  0
TABLE
  2
LTYPE
  5
5
100
AcDbSymbolTable
 70
6
  0
LTYPE
  5
14
100
AcDbSymbolTableRecord
100
AcDbLinetypeTableRecord
  2
BYBLOCK
 70
0
  3

 72
65
 73
0
 40
0.0
  0
LTYPE
  5
15
100
AcDbSymbolTableRecord
100
AcDbLinetypeTableRecord
  2
BYLAYER
 70
0
  3

 72
65
 73
0
 40
0.0
  0
LTYPE
  5
16
100
AcDbSymbolTableRecord
100
AcDbLinetypeTableRecord
  2
CONTINUOUS
 70
64
  3
Solid line
 72
65
 73
0
 40
0.0
  0
LTYPE
  5
1F5
100
AcDbSymbolTableRecord
100
AcDbLinetypeTableRecord
  2
CENTER
 70
64
  3
____ _ ____ _ ____ _ ____ _ ____ _ ____ _ ____
 72
65
 73
4
 40
0.6
 49
0.375
 74
0
 49
-0.075
 74
0
 49
0.075
 74
0
 49
-0.075
 74
0
  0
LTYPE
  5
1F6
100
AcDbSymbolTableRecord
100
AcDbLinetypeTableRecord
  2
HIDDEN
 70
64
  3
- - - - - - - - - - - - - - - - - - - -
 72
65
 73
2
 40
0.2
 49
0.1
 74
0
 49
-0.1
 74
0
  0
LTYPE
  5
1F7
100
AcDbSymbolTableRecord
100
AcDbLinetypeTableRecord
  2
PHANTOM
 70
64
  3
_____ _ _ _____ _ _ _____ _ _ _____
 72
65
 73
6
 40
0.8
 49
0.45
 74
0
 49
-0.05
 74
0
 49
0.1
 74
0
 49
-0.05
 74
0
 49
0.1
 74
0
 49
-0.05
 74
0
  0
LTYPE
  5
1F8
100
AcDbSymbolTableRecord
100
AcDbLinetypeTableRecord
  2
DOT
 70
64
  3
. . . . . . . . . . . . . . . . . . . .
 72
65
 73
2
 40
0.2
 49
0.1
 74
0
 49
-0.1
 74
0
  0
LTYPE
  5
1F9
100
AcDbSymbolTableRecord
100
AcDbLinetypeTableRecord
  2
DASHED
 70
64
  3
- - - - - - - - - - - - - - - - - - - -
 72
65
 73
2
 40
0.2
 49
0.1
 74
0
 49
-0.1
 74
0
  0
ENDTAB
  0
TABLE
  2
LAYER
  5
2
100
AcDbSymbolTable
 70
36
  0
LAYER
  5
10
100
AcDbSymbolTableRecord
100
AcDbLayerTableRecord
  2
0
 70
0
 62
7
  6
CONTINUOUS
370
-3
390
F
  0
LAYER
  5
1FA
100
AcDbSymbolTableRecord
100
AcDbLayerTableRecord
  2
DEFAULT_1
 70
0
 62
7
  6
CENTER
370
-3
390
F
  0
LAYER
  5
1FB
100
AcDbSymbolTableRecord
100
AcDbLayerTableRecord
  2
DEFAULT_2
 70
0
 62
7
  6
HIDDEN
370
-3
390
F
  0
LAYER
  5
1FC
100
AcDbSymbolTableRecord
100
AcDbLayerTableRecord
  2
DEFAULT_3
 70
0
 62
7
  6
PHANTOM
370
-3
390
F
  0
LAYER
  5
1FD
100
AcDbSymbolTableRecord
100
AcDbLayerTableRecord
  2
00_COMPONENTS
 70
0
 62
7
  6
CONTINUOUS
370
-3
390
F
  0
LAYER
  5
1FE
100
AcDbSymbolTableRecord
100
AcDbLayerTableRecord
  2
01_1_DEFAULT_DATUMS
 70
0
 62
7
  6
CONTINUOUS
370
-3
390
F
  0
LAYER
  5
1FF
100
AcDbSymbolTableRecord
100
AcDbLayerTableRecord
  2
01_PLANES
 70
0
 62
7
  6
CONTINUOUS
370
-3
390
F
  0
LAYER
  5
200
100
AcDbSymbolTableRecord
100
AcDbLayerTableRecord
  2
02_COORD_SYS
 70
0
 62
7
  6
CONTINUOUS
370
-3
390
F
  0
LAYER
  5
201
100
AcDbSymbolTableRecord
100
AcDbLayerTableRecord
  2
03_AXES
 70
0
 62
7
  6
CONTINUOUS
370
-3
390
F
  0
LAYER
  5
202
100
AcDbSymbolTableRecord
100
AcDbLayerTableRecord
  2
04_POINTS
 70
0
 62
7
  6
CONTINUOUS
370
-3
390
F
  0
LAYER
  5
203
100
AcDbSymbolTableRecord
100
AcDbLayerTableRecord
  2
05_CURVES
 70
0
 62
7
  6
CONTINUOUS
370
-3
390
F
  0
LAYER
  5
204
100
AcDbSymbolTableRecord
100
AcDbLayerTableRecord
  2
06_SURFS
 70
0
 62
7
  6
CONTINUOUS
370
-3
390
F
  0
LAYER
  5
205
100
AcDbSymbolTableRecord
100
AcDbLayerTableRecord
  2
07_COSMETICS
 70
0
 62
7
  6
CONTINUOUS
370
-3
390
F
  0
LAYER
  5
206
100
AcDbSymbolTableRecord
100
AcDbLayerTableRecord
  2
10_NOTES
 70
0
 62
7
  6
CONTINUOUS
370
-3
390
F
  0
LAYER
  5
207
100
AcDbSymbolTableRecord
100
AcDbLayerTableRecord
  2
11_NOTES_PUB
 70
0
 62
7
  6
CONTINUOUS
370
-3
390
F
  0
LAYER
  5
208
100
AcDbSymbolTableRecord
100
AcDbLayerTableRecord
  2
13_REF_GTOL
 70
0
 62
7
  6
CONTINUOUS
370
-3
390
F
  0
LAYER
  5
209
100
AcDbSymbolTableRecord
100
AcDbLayerTableRecord
  2
16_MISC
 70
0
 62
7
  6
CONTINUOUS
370
-3
390
F
  0
LAYER
  5
20A
100
AcDbSymbolTableRecord
100
AcDbLayerTableRecord
  2
17_NO_PRINT
 70
0
 62
7
  6
CONTINUOUS
370
-3
390
F
  0
LAYER
  5
20B
100
AcDbSymbolTableRecord
100
AcDbLayerTableRecord
  2
18_DATUM_CAMS_JOINTS
 70
0
 62
7
  6
CONTINUOUS
370
-3
390
F
  0
LAYER
  5
20C
100
AcDbSymbolTableRecord
100
AcDbLayerTableRecord
  2
19_DATUM_FUNCTIONAL
 70
0
 62
7
  6
CONTINUOUS
370
-3
390
F
  0
LAYER
  5
20D
100
AcDbSymbolTableRecord
100
AcDbLayerTableRecord
  2
20_DATUM_KINEMATIC_SCHEME
 70
0
 62
7
  6
CONTINUOUS
370
-3
390
F
  0
ENDTAB
  0
TABLE
  2
STYLE
  5
3
100
AcDbSymbolTable
 70
1
  0
STYLE
  5
11
100
AcDbSymbolTableRecord
100
AcDbTextStyleTableRecord
  2
STANDARD
 70
0
 40
0.0
 41
1.0
 50
0.0
 71
0
 42
0.2
  3
ARIAL.TTF
  4

  0
STYLE
  5
20E
100
AcDbSymbolTableRecord
100
AcDbTextStyleTableRecord
  2
TEXTSTYLE_1
 70
0
 40
0.0
 41
0.8
 50
0.0
 71
0
 42
0.2
  3
gdt
  4

  0
ENDTAB
  0
TABLE
  2
VIEW
  5
6
100
AcDbSymbolTable
 70
0
  0
ENDTAB
  0
TABLE
  2
UCS
  5
7
100
AcDbSymbolTable
 70
0
  0
ENDTAB
  0
TABLE
  2
APPID
  5
9
100
AcDbSymbolTable
 70
1
  0
APPID
  5
20F
100
AcDbSymbolTableRecord
100
AcDbRegAppTableRecord
  2
ACAD
 70
0
  0
ENDTAB
  0
TABLE
  2
BLOCK_RECORD
  5
1
100
AcDbSymbolTable
 70
0
  0
BLOCK_RECORD
  5
210
100
AcDbSymbolTableRecord
100
AcDbBlockTableRecord
  2
*Model_Space
  0
BLOCK_RECORD
  5
211
100
AcDbSymbolTableRecord
100
AcDbBlockTableRecord
  2
*Paper_Space
  0
BLOCK_RECORD
  5
212
100
AcDbSymbolTableRecord
100
AcDbBlockTableRecord
  2
_FILLED
  0
ENDTAB
  0
TABLE
  2
DIMSTYLE
  5
A
100
AcDbSymbolTable
 70
1
100
AcDbDimStyleTable
 71
0
  0
DIMSTYLE
105
213
100
AcDbSymbolTableRecord
100
AcDbDimStyleTableRecord
  2
STANDARD
 70
0
  3

  4

 40
1.0
 41
0.6365832769
 42
1.0
 43
0.38
 44
1.0
 45
0.0
 46
0.0
 47
0.01
 48
0.01
140
0.8912165876
141
0.09
142
0.0
143
25.4
144
1.0
145
0.0
146
1.0
147
0.625
 71
1
 72
0
 73
0
 74
0
 75
0
 76
0
 77
1
 78
8
 79
2
170
0
171
1
172
0
173
0
174
0
175
0
176
0
177
0
178
0
270
2
179
2
271
2
272
2
273
2
274
2
275
0
280
0
281
0
282
0
283
1
284
8
285
0
286
0
287
3
288
0
340
11
278
46
341
212
342
212
343
212
344
212
  0
ENDTAB
  0
ENDSEC
  0
SECTION
  2
BLOCKS
  0
BLOCK
  5
20
100
AcDbEntity
  8
0
100
AcDbBlockBegin
  2
*Model_Space
 70
0
 10
0.0
 20
0.0
 30
0.0
  3
*Model_Space
  1

  0
ENDBLK
  5
21
100
AcDbEntity
  8
0
100
AcDbBlockEnd
  0
BLOCK
  5
1C
100
AcDbEntity
  8
0
100
AcDbBlockBegin
  2
*Paper_Space
 70
0
 10
0.0
 20
0.0
 30
0.0
  3
*Paper_Space
  1

  0
ENDBLK
  5
1D
100
AcDbEntity
  8
0
100
AcDbBlockEnd
  0
BLOCK
  5
214
100
AcDbEntity
  8
0
100
AcDbBlockBegin
  2
_FILLED
 70
64
 10
0.0
 20
0.0
  3
_FILLED
  1

  0
SOLID
  5
215
100
AcDbEntity
  8
0
  6
BYBLOCK
 62
0
100
AcDbTrace
 10
0.0
 20
0.0
 11
-1.0
 21
0.25
 12
-1.0
 22
-0.25
 13
-1.0
 23
-0.25
  0
ENDBLK
  5
216
100
AcDbEntity
  8
0
  6
BYBLOCK
 62
0
100
AcDbBlockEnd
  0
ENDSEC
  0
SECTION
  2
ENTITIES
  0
LINE
  5
217
100
AcDbEntity
  8
0
100
AcDbLine
 62
7
  6
BYLAYER
 10
32.9770118536
 20
6.1556122449
 11
21.9770329678
 21
6.1556122449
  0
LINE
  5
218
100
AcDbEntity
  8
0
100
AcDbLine
 62
7
  6
BYLAYER
 10
33.4770224107
 20
7.1556122449
 11
21.4770224107
 21
7.1556122449
  0
LINE
  5
219
100
AcDbEntity
  8
0
100
AcDbLine
 62
7
  6
BYLAYER
 10
21.4770224107
 20
13.1556122449
 11
33.4770224107
 21
13.1556122449
  0
LINE
  5
21A
100
AcDbEntity
  8
0
100
AcDbLine
 62
7
  6
BYLAYER
 10
32.9770224107
 20
14.1556122449
 11
21.9770224107
 21
14.1556122449
  0
LINE
  5
21B
100
AcDbEntity
  8
0
100
AcDbLine
 62
7
  6
BYLAYER
 10
34.676832286
 20
19.1556122449
 11
20.2772125353
 21
19.1556122449
  0
LINE
  5
21C
100
AcDbEntity
  8
0
100
AcDbLine
 62
7
  6
BYLAYER
 10
35.6770224107
 20
19.6556122449
 11
19.2770224107
 21
19.6556122449
  0
LINE
  5
21D
100
AcDbEntity
  8
0
100
AcDbLine
 62
7
  6
BYLAYER
 10
20.2770224107
 20
19.1556122449
 11
19.2770224107
 21
19.6556122449
  0
LINE
  5
21E
100
AcDbEntity
  8
0
100
AcDbLine
 62
7
  6
BYLAYER
 10
21.9770224107
 20
6.1556122449
 11
21.4770224107
 21
7.1556122449
  0
LINE
  5
21F
100
AcDbEntity
  8
0
100
AcDbLine
 62
7
  6
BYLAYER
 10
15.4770224107
 20
62.6556122449
 11
15.4770224107
 21
54.6556122449
  0
LINE
  5
220
100
AcDbEntity
  8
0
100
AcDbLine
 62
7
  6
BYLAYER
 10
19.2770224107
 20
27.6556122449
 11
18.4770224107
 21
28.6556122449
  0
LINE
  5
221
100
AcDbEntity
  8
0
100
AcDbLine
 62
7
  6
BYLAYER
 10
18.4770224107
 20
28.6556122449
 11
18.4770224107
 21
54.6556122449
  0
LINE
  5
222
100
AcDbEntity
  8
0
100
AcDbLine
 62
7
  6
BYLAYER
 10
19.2770224107
 20
27.6556122449
 11
35.6770224107
 21
27.6556122449
  0
LINE
  5
223
100
AcDbEntity
  8
0
100
AcDbLine
 62
7
  6
BYLAYER
 10
36.4770224107
 20
28.6556122449
 11
18.4770224107
 21
28.6556122449
  0
LINE
  5
224
100
AcDbEntity
  8
0
100
AcDbLine
 62
7
  6
BYLAYER
 10
19.2770224107
 20
19.6556122449
 11
19.2770224107
 21
27.6556122449
  0
LINE
  5
225
100
AcDbEntity
  8
0
100
AcDbLine
 62
7
  6
BYLAYER
 10
19.2770224107
 20
62.6556122449
 11
19.2770224107
 21
69.6556122449
  0
LINE
  5
226
100
AcDbEntity
  8
0
100
AcDbLine
 62
7
  6
BYLAYER
 10
21.4770224107
 20
7.1556122449
 11
21.4770224107
 21
13.1556122449
  0
LINE
  5
227
100
AcDbEntity
  8
0
100
AcDbLine
 62
7
  6
BYLAYER
 10
21.9770224107
 20
14.1556122449
 11
21.9770224107
 21
19.1556122449
  0
LINE
  5
228
100
AcDbEntity
  8
0
100
AcDbLine
 62
7
  6
BYLAYER
 10
32.9770224107
 20
14.1556122449
 11
33.4770224107
 21
13.1556122449
  0
LINE
  5
229
100
AcDbEntity
  8
0
100
AcDbLine
 62
7
  6
BYLAYER
 10
27.4770224107
 20
61.5838154752
 11
27.4770224107
 21
59.7274090146
  0
LINE
  5
22A
100
AcDbEntity
  8
0
100
AcDbLine
 62
7
  6
BYLAYER
 10
27.4770224107
 20
57.5838154752
 11
27.4770224107
 21
55.7274090146
  0
LINE
  5
22B
100
AcDbEntity
  8
0
100
AcDbLine
 62
7
  6
BYLAYER
 10
32.9770224107
 20
14.1556122449
 11
32.9770224107
 21
19.1556122449
  0
LINE
  5
22C
100
AcDbEntity
  8
0
100
AcDbLine
 62
7
  6
BYLAYER
 10
33.4770224107
 20
7.1556122449
 11
33.4770224107
 21
13.1556122449
  0
LINE
  5
22D
100
AcDbEntity
  8
0
100
AcDbLine
 62
7
  6
BYLAYER
 10
21.9770224107
 20
14.1556122449
 11
21.4770224107
 21
13.1556122449
  0
LINE
  5
22E
100
AcDbEntity
  8
0
100
AcDbLine
 62
7
  6
BYLAYER
 10
35.6770224107
 20
19.6556122449
 11
35.6770224107
 21
27.6556122449
  0
LINE
  5
22F
100
AcDbEntity
  8
0
100
AcDbLine
 62
7
  6
BYLAYER
 10
35.6770224107
 20
62.6556122449
 11
35.6770224107
 21
69.6556122449
  0
LINE
  5
230
100
AcDbEntity
  8
0
100
AcDbLine
 62
7
  6
BYLAYER
 10
36.4770224107
 20
28.6556122449
 11
36.4770224107
 21
54.6556122449
  0
LINE
  5
231
100
AcDbEntity
  8
0
100
AcDbLine
 62
7
  6
BYLAYER
 10
39.4770224107
 20
54.6556122449
 11
39.4770224107
 21
62.6556122449
  0
LINE
  5
232
100
AcDbEntity
  8
0
100
AcDbLine
 62
7
  6
BYLAYER
 10
35.6770224107
 20
27.6556122449
 11
36.4770224107
 21
28.6556122449
  0
LINE
  5
233
100
AcDbEntity
  8
0
100
AcDbLine
 62
7
  6
BYLAYER
 10
39.4770224107
 20
54.6556122449
 11
15.4770224107
 21
54.6556122449
  0
LINE
  5
234
100
AcDbEntity
  8
0
100
AcDbLine
 62
7
  6
BYLAYER
 10
32.9770224107
 20
6.1556122449
 11
33.4770224107
 21
7.1556122449
  0
LINE
  5
235
100
AcDbEntity
  8
0
100
AcDbLine
 62
7
  6
BYLAYER
 10
34.6770224107
 20
19.1556122449
 11
35.6770224107
 21
19.6556122449
  0
LINE
  5
236
100
AcDbEntity
  8
0
100
AcDbLine
 62
7
  6
BYLAYER
 10
39.4770224107
 20
58.6556122449
 11
15.4770224107
 21
58.6556122449
  0
LINE
  5
237
100
AcDbEntity
  8
0
100
AcDbLine
 62
7
  6
BYLAYER
 10
15.4770224107
 20
62.6556122449
 11
39.4770224107
 21
62.6556122449
  0
LINE
  5
238
100
AcDbEntity
  8
0
100
AcDbLine
 62
7
  6
BYLAYER
 10
19.2770334977
 20
69.6556122449
 11
35.6770113237
 21
69.6556122449
  0
ARC
  5
239
100
AcDbEntity
  8
0
100
AcDbCircle
 62
7
  6
BYLAYER
 10
31.0125563166
 20
17.1556122449
 40
0.5
100
AcDbArc
 50
291.3703802996
 51
68.0729064008
  0
ARC
  5
23A
100
AcDbEntity
  8
0
100
AcDbCircle
 62
7
  6
BYLAYER
 10
23.9414885048
 20
17.1556122449
 40
0.5
100
AcDbArc
 50
111.3703802996
 51
248.0729064008
  0
SPLINE
  5
23B
100
AcDbEntity
  8
0
100
AcDbSpline
 62
7
  6
BYLAYER
 70
0
 71
3
 72
13
 73
9
 74
0
 42
0.0000001
 43
0.0000001
 44
0.0000000001
 40
0.0
 40
0.0
 40
0.0
 40
0.0
 40
0.2513855782
 40
0.5016831749
 40
0.6264930183
 40
0.7511112818
 40
0.8755962448
 40
1.0
 40
1.0
 40
1.0
 40
1.0
 10
15.4770224107
 20
61.5838154752
 30
0.0
 10
15.9636262746
 20
61.7460167632
 30
0.0
 10
16.9438109066
 20
62.0434841774
 30
0.0
 10
18.1909576612
 20
62.3299848711
 30
0.0
 10
19.1971733794
 20
62.496603404
 30
0.0
 10
19.9549153552
 20
62.5877678515
 30
0.0
 10
20.7152720842
 20
62.6432183773
 30
0.0
 10
21.2231897925
 20
62.6556122449
 30
0.0
 10
21.4770224107
 20
62.6556122449
 30
0.0
  0
SPLINE
  5
23C
100
AcDbEntity
  8
0
100
AcDbSpline
 62
7
  6
BYLAYER
 70
0
 71
3
 72
13
 73
9
 74
0
 42
0.0000001
 43
0.0000001
 44
0.0000000001
 40
0.0
 40
0.0
 40
0.0
 40
0.0
 40
0.1244037923
 40
0.2488888388
 40
0.3735071292
 40
0.4983169576
 40
0.7486145012
 40
1.0
 40
1.0
 40
1.0
 40
1.0
 10
33.4770224107
 20
62.6556122449
 30
0.0
 10
33.7308551052
 20
62.6556122449
 30
0.0
 10
34.2387730479
 20
62.6432181136
 30
0.0
 10
34.9991301164
 20
62.5877679777
 30
0.0
 10
35.7568721857
 20
62.496602691
 30
0.0
 10
36.7630879794
 20
62.3299852192
 30
0.0
 10
38.0102344663
 20
62.0434844627
 30
0.0
 10
38.9904186995
 20
61.7460167122
 30
0.0
 10
39.4770224107
 20
61.5838154752
 30
0.0
  0
SPLINE
  5
23D
100
AcDbEntity
  8
0
100
AcDbSpline
 62
7
  6
BYLAYER
 70
0
 71
3
 72
13
 73
9
 74
0
 42
0.0000001
 43
0.0000001
 44
0.0000000001
 40
0.0
 40
0.0
 40
0.0
 40
0.0
 40
0.1244037923
 40
0.2488888388
 40
0.3735071292
 40
0.4983169576
 40
0.7486145012
 40
1.0
 40
1.0
 40
1.0
 40
1.0
 10
21.4770224107
 20
58.6556122449
 30
0.0
 10
21.2231897162
 20
58.6556122449
 30
0.0
 10
20.7152717735
 20
58.6680063762
 30
0.0
 10
19.954914705
 20
58.7234565121
 30
0.0
 10
19.1971726356
 20
58.8146217988
 30
0.0
 10
18.190956842
 20
58.9812392706
 30
0.0
 10
16.9438103551
 20
59.2677400271
 30
0.0
 10
15.9636261219
 20
59.5652077776
 30
0.0
 10
15.4770224107
 20
59.7274090146
 30
0.0
  0
SPLINE
  5
23E
100
AcDbEntity
  8
0
100
AcDbSpline
 62
7
  6
BYLAYER
 70
0
 71
3
 72
13
 73
9
 74
0
 42
0.0000001
 43
0.0000001
 44
0.0000000001
 40
0.0
 40
0.0
 40
0.0
 40
0.0
 40
0.2513855782
 40
0.5016831749
 40
0.6264930183
 40
0.7511112818
 40
0.8755962448
 40
1.0
 40
1.0
 40
1.0
 40
1.0
 10
27.4770224107
 20
59.7274090146
 30
0.0
 10
26.9904185467
 20
59.5652077266
 30
0.0
 10
26.0102339148
 20
59.2677403124
 30
0.0
 10
24.7630871602
 20
58.9812396187
 30
0.0
 10
23.756871442
 20
58.8146210858
 30
0.0
 10
22.9991294662
 20
58.7234566383
 30
0.0
 10
22.2387727372
 20
58.6680061125
 30
0.0
 10
21.7308550289
 20
58.6556122449
 30
0.0
 10
21.4770224107
 20
58.6556122449
 30
0.0
  0
SPLINE
  5
23F
100
AcDbEntity
  8
0
100
AcDbSpline
 62
7
  6
BYLAYER
 70
0
 71
3
 72
13
 73
9
 74
0
 42
0.0000001
 43
0.0000001
 44
0.0000000001
 40
0.0
 40
0.0
 40
0.0
 40
0.0
 40
0.1244037923
 40
0.2488888388
 40
0.3735071292
 40
0.4983169576
 40
0.7486145012
 40
1.0
 40
1.0
 40
1.0
 40
1.0
 10
33.4770224107
 20
58.6556122449
 30
0.0
 10
33.2231897162
 20
58.6556122449
 30
0.0
 10
32.7152717735
 20
58.6680063762
 30
0.0
 10
31.954914705
 20
58.7234565121
 30
0.0
 10
31.1971726356
 20
58.8146217988
 30
0.0
 10
30.190956842
 20
58.9812392706
 30
0.0
 10
28.9438103551
 20
59.2677400271
 30
0.0
 10
27.9636261219
 20
59.5652077776
 30
0.0
 10
27.4770224107
 20
59.7274090146
 30
0.0
  0
SPLINE
  5
240
100
AcDbEntity
  8
0
100
AcDbSpline
 62
7
  6
BYLAYER
 70
0
 71
3
 72
13
 73
9
 74
0
 42
0.0000001
 43
0.0000001
 44
0.0000000001
 40
0.0
 40
0.0
 40
0.0
 40
0.0
 40
0.2513855782
 40
0.5016831749
 40
0.6264930183
 40
0.7511112818
 40
0.8755962448
 40
1.0
 40
1.0
 40
1.0
 40
1.0
 10
27.4770224107
 20
61.5838154752
 30
0.0
 10
27.9636262746
 20
61.7460167632
 30
0.0
 10
28.9438109066
 20
62.0434841774
 30
0.0
 10
30.1909576612
 20
62.3299848711
 30
0.0
 10
31.1971733794
 20
62.496603404
 30
0.0
 10
31.9549153552
 20
62.5877678515
 30
0.0
 10
32.7152720842
 20
62.6432183773
 30
0.0
 10
33.2231897925
 20
62.6556122449
 30
0.0
 10
33.4770224107
 20
62.6556122449
 30
0.0
  0
SPLINE
  5
241
100
AcDbEntity
  8
0
100
AcDbSpline
 62
7
  6
BYLAYER
 70
0
 71
3
 72
13
 73
9
 74
0
 42
0.0000001
 43
0.0000001
 44
0.0000000001
 40
0.0
 40
0.0
 40
0.0
 40
0.0
 40
0.1244037923
 40
0.2488888388
 40
0.3735071292
 40
0.4983169576
 40
0.7486145012
 40
1.0
 40
1.0
 40
1.0
 40
1.0
 10
21.4770224107
 20
62.6556122449
 30
0.0
 10
21.7308551052
 20
62.6556122449
 30
0.0
 10
22.2387730479
 20
62.6432181136
 30
0.0
 10
22.9991301164
 20
62.5877679777
 30
0.0
 10
23.7568721857
 20
62.496602691
 30
0.0
 10
24.7630879794
 20
62.3299852192
 30
0.0
 10
26.0102344663
 20
62.0434844627
 30
0.0
 10
26.9904186995
 20
61.7460167122
 30
0.0
 10
27.4770224107
 20
61.5838154752
 30
0.0
  0
SPLINE
  5
242
100
AcDbEntity
  8
0
100
AcDbSpline
 62
7
  6
BYLAYER
 70
0
 71
3
 72
13
 73
9
 74
0
 42
0.0000001
 43
0.0000001
 44
0.0000000001
 40
0.0
 40
0.0
 40
0.0
 40
0.0
 40
0.2513855782
 40
0.5016831749
 40
0.6264930183
 40
0.7511112818
 40
0.8755962448
 40
1.0
 40
1.0
 40
1.0
 40
1.0
 10
39.4770224107
 20
59.7274090146
 30
0.0
 10
38.9904185467
 20
59.5652077266
 30
0.0
 10
38.0102339148
 20
59.2677403124
 30
0.0
 10
36.7630871602
 20
58.9812396187
 30
0.0
 10
35.756871442
 20
58.8146210858
 30
0.0
 10
34.9991294662
 20
58.7234566383
 30
0.0
 10
34.2387727372
 20
58.6680061125
 30
0.0
 10
33.7308550289
 20
58.6556122449
 30
0.0
 10
33.4770224107
 20
58.6556122449
 30
0.0
  0
SPLINE
  5
243
100
AcDbEntity
  8
0
100
AcDbSpline
 62
7
  6
BYLAYER
 70
0
 71
3
 72
13
 73
9
 74
0
 42
0.0000001
 43
0.0000001
 44
0.0000000001
 40
0.0
 40
0.0
 40
0.0
 40
0.0
 40
0.2513855782
 40
0.5016831749
 40
0.6264930183
 40
0.7511112818
 40
0.8755962448
 40
1.0
 40
1.0
 40
1.0
 40
1.0
 10
15.4770224107
 20
57.5838154752
 30
0.0
 10
15.9636262746
 20
57.7460167632
 30
0.0
 10
16.9438109066
 20
58.0434841774
 30
0.0
 10
18.1909576612
 20
58.3299848711
 30
0.0
 10
19.1971733794
 20
58.496603404
 30
0.0
 10
19.9549153552
 20
58.5877678515
 30
0.0
 10
20.7152720842
 20
58.6432183773
 30
0.0
 10
21.2231897925
 20
58.6556122449
 30
0.0
 10
21.4770224107
 20
58.6556122449
 30
0.0
  0
SPLINE
  5
244
100
AcDbEntity
  8
0
100
AcDbSpline
 62
7
  6
BYLAYER
 70
0
 71
3
 72
13
 73
9
 74
0
 42
0.0000001
 43
0.0000001
 44
0.0000000001
 40
0.0
 40
0.0
 40
0.0
 40
0.0
 40
0.1244037923
 40
0.2488888388
 40
0.3735071292
 40
0.4983169576
 40
0.7486145012
 40
1.0
 40
1.0
 40
1.0
 40
1.0
 10
33.4770224107
 20
58.6556122449
 30
0.0
 10
33.7308551052
 20
58.6556122449
 30
0.0
 10
34.2387730479
 20
58.6432181136
 30
0.0
 10
34.9991301164
 20
58.5877679777
 30
0.0
 10
35.7568721857
 20
58.496602691
 30
0.0
 10
36.7630879794
 20
58.3299852192
 30
0.0
 10
38.0102344663
 20
58.0434844627
 30
0.0
 10
38.9904186995
 20
57.7460167122
 30
0.0
 10
39.4770224107
 20
57.5838154752
 30
0.0
  0
SPLINE
  5
245
100
AcDbEntity
  8
0
100
AcDbSpline
 62
7
  6
BYLAYER
 70
0
 71
3
 72
13
 73
9
 74
0
 42
0.0000001
 43
0.0000001
 44
0.0000000001
 40
0.0
 40
0.0
 40
0.0
 40
0.0
 40
0.1244037923
 40
0.2488888388
 40
0.3735071292
 40
0.4983169576
 40
0.7486145012
 40
1.0
 40
1.0
 40
1.0
 40
1.0
 10
21.4770224107
 20
54.6556122449
 30
0.0
 10
21.2231897162
 20
54.6556122449
 30
0.0
 10
20.7152717735
 20
54.6680063762
 30
0.0
 10
19.954914705
 20
54.7234565121
 30
0.0
 10
19.1971726356
 20
54.8146217988
 30
0.0
 10
18.190956842
 20
54.9812392706
 30
0.0
 10
16.9438103551
 20
55.2677400271
 30
0.0
 10
15.9636261219
 20
55.5652077776
 30
0.0
 10
15.4770224107
 20
55.7274090146
 30
0.0
  0
SPLINE
  5
246
100
AcDbEntity
  8
0
100
AcDbSpline
 62
7
  6
BYLAYER
 70
0
 71
3
 72
13
 73
9
 74
0
 42
0.0000001
 43
0.0000001
 44
0.0000000001
 40
0.0
 40
0.0
 40
0.0
 40
0.0
 40
0.2513855782
 40
0.5016831749
 40
0.6264930183
 40
0.7511112818
 40
0.8755962448
 40
1.0
 40
1.0
 40
1.0
 40
1.0
 10
27.4770224107
 20
55.7274090146
 30
0.0
 10
26.9904185467
 20
55.5652077266
 30
0.0
 10
26.0102339148
 20
55.2677403124
 30
0.0
 10
24.7630871602
 20
54.9812396187
 30
0.0
 10
23.756871442
 20
54.8146210858
 30
0.0
 10
22.9991294662
 20
54.7234566383
 30
0.0
 10
22.2387727372
 20
54.6680061125
 30
0.0
 10
21.7308550289
 20
54.6556122449
 30
0.0
 10
21.4770224107
 20
54.6556122449
 30
0.0
  0
SPLINE
  5
247
100
AcDbEntity
  8
0
100
AcDbSpline
 62
7
  6
BYLAYER
 70
0
 71
3
 72
13
 73
9
 74
0
 42
0.0000001
 43
0.0000001
 44
0.0000000001
 40
0.0
 40
0.0
 40
0.0
 40
0.0
 40
0.1244037923
 40
0.2488888388
 40
0.3735071292
 40
0.4983169576
 40
0.7486145012
 40
1.0
 40
1.0
 40
1.0
 40
1.0
 10
33.4770224107
 20
54.6556122449
 30
0.0
 10
33.2231897162
 20
54.6556122449
 30
0.0
 10
32.7152717735
 20
54.6680063762
 30
0.0
 10
31.954914705
 20
54.7234565121
 30
0.0
 10
31.1971726356
 20
54.8146217988
 30
0.0
 10
30.190956842
 20
54.9812392706
 30
0.0
 10
28.9438103551
 20
55.2677400271
 30
0.0
 10
27.9636261219
 20
55.5652077776
 30
0.0
 10
27.4770224107
 20
55.7274090146
 30
0.0
  0
SPLINE
  5
248
100
AcDbEntity
  8
0
100
AcDbSpline
 62
7
  6
BYLAYER
 70
0
 71
3
 72
13
 73
9
 74
0
 42
0.0000001
 43
0.0000001
 44
0.0000000001
 40
0.0
 40
0.0
 40
0.0
 40
0.0
 40
0.2513855782
 40
0.5016831749
 40
0.6264930183
 40
0.7511112818
 40
0.8755962448
 40
1.0
 40
1.0
 40
1.0
 40
1.0
 10
27.4770224107
 20
57.5838154752
 30
0.0
 10
27.9636262746
 20
57.7460167632
 30
0.0
 10
28.9438109066
 20
58.0434841774
 30
0.0
 10
30.1909576612
 20
58.3299848711
 30
0.0
 10
31.1971733794
 20
58.496603404
 30
0.0
 10
31.9549153552
 20
58.5877678515
 30
0.0
 10
32.7152720842
 20
58.6432183773
 30
0.0
 10
33.2231897925
 20
58.6556122449
 30
0.0
 10
33.4770224107
 20
58.6556122449
 30
0.0
  0
SPLINE
  5
249
100
AcDbEntity
  8
0
100
AcDbSpline
 62
7
  6
BYLAYER
 70
0
 71
3
 72
13
 73
9
 74
0
 42
0.0000001
 43
0.0000001
 44
0.0000000001
 40
0.0
 40
0.0
 40
0.0
 40
0.0
 40
0.1244037923
 40
0.2488888388
 40
0.3735071292
 40
0.4983169576
 40
0.7486145012
 40
1.0
 40
1.0
 40
1.0
 40
1.0
 10
21.4770224107
 20
58.6556122449
 30
0.0
 10
21.7308551052
 20
58.6556122449
 30
0.0
 10
22.2387730479
 20
58.6432181136
 30
0.0
 10
22.9991301164
 20
58.5877679777
 30
0.0
 10
23.7568721857
 20
58.496602691
 30
0.0
 10
24.7630879794
 20
58.3299852192
 30
0.0
 10
26.0102344663
 20
58.0434844627
 30
0.0
 10
26.9904186995
 20
57.7460167122
 30
0.0
 10
27.4770224107
 20
57.5838154752
 30
0.0
  0
SPLINE
  5
24A
100
AcDbEntity
  8
0
100
AcDbSpline
 62
7
  6
BYLAYER
 70
0
 71
3
 72
13
 73
9
 74
0
 42
0.0000001
 43
0.0000001
 44
0.0000000001
 40
0.0
 40
0.0
 40
0.0
 40
0.0
 40
0.2513855782
 40
0.5016831749
 40
0.6264930183
 40
0.7511112818
 40
0.8755962448
 40
1.0
 40
1.0
 40
1.0
 40
1.0
 10
39.4770224107
 20
55.7274090146
 30
0.0
 10
38.9904185467
 20
55.5652077266
 30
0.0
 10
38.0102339148
 20
55.2677403124
 30
0.0
 10
36.7630871602
 20
54.9812396187
 30
0.0
 10
35.756871442
 20
54.8146210858
 30
0.0
 10
34.9991294662
 20
54.7234566383
 30
0.0
 10
34.2387727372
 20
54.6680061125
 30
0.0
 10
33.7308550289
 20
54.6556122449
 30
0.0
 10
33.4770224107
 20
54.6556122449
 30
0.0
  0
SPLINE
  5
24B
100
AcDbEntity
  8
0
100
AcDbSpline
 62
7
  6
BYLAYER
 70
0
 71
3
 72
13
 73
9
 74
0
 42
0.0000001
 43
0.0000001
 44
0.0000000001
 40
0.0
 40
0.0
 40
0.0
 40
0.0
 40
0.1029768226
 40
0.2111068914
 40
0.326428223
 40
0.4496484971
 40
0.7161432417
 40
1.0
 40
1.0
 40
1.0
 40
1.0
 10
31.3660882632
 20
17.6555897653
 30
0.0
 10
31.3426674449
 20
17.655590181
 30
0.0
 10
31.2944345531
 20
17.6487342106
 30
0.0
 10
31.2255188719
 20
17.6192567073
 30
0.0
 10
31.1614991327
 20
17.5721622228
 30
0.0
 10
31.0841955795
 20
17.4863221974
 30
0.0
 10
31.015132536
 20
17.3461169589
 30
0.0
 10
30.9964523663
 20
17.2201719914
 30
0.0
 10
30.9964523663
 20
17.1556122449
 30
0.0
  0
SPLINE
  5
24C
100
AcDbEntity
  8
0
100
AcDbSpline
 62
7
  6
BYLAYER
 70
0
 71
3
 72
13
 73
9
 74
0
 42
0.0000001
 43
0.0000001
 44
0.0000000001
 40
0.0
 40
0.0
 40
0.0
 40
0.0
 40
0.2838903964
 40
0.5503474105
 40
0.6735549262
 40
0.7888764528
 40
0.8970167443
 40
1.0
 40
1.0
 40
1.0
 40
1.0
 10
23.9575924551
 20
17.1556122449
 30
0.0
 10
23.9575924551
 20
17.2201797093
 30
0.0
 10
23.9389133987
 20
17.346125722
 30
0.0
 10
23.8698441428
 20
17.48632128
 30
0.0
 10
23.7925547389
 20
17.5721592026
 30
0.0
 10
23.7285327447
 20
17.6192495464
 30
0.0
 10
23.6596160964
 20
17.6487348458
 30
0.0
 10
23.611378861
 20
17.6555893496
 30
0.0
 10
23.5879565551
 20
17.6555897653
 30
0.0
  0
SPLINE
  5
24D
100
AcDbEntity
  8
0
100
AcDbSpline
 62
7
  6
BYLAYER
 70
0
 71
3
 72
13
 73
9
 74
0
 42
0.0000001
 43
0.0000001
 44
0.0000000001
 40
0.0
 40
0.0
 40
0.0
 40
0.0
 40
0.2838903964
 40
0.5503474105
 40
0.6735549262
 40
0.7888764528
 40
0.8970167443
 40
1.0
 40
1.0
 40
1.0
 40
1.0
 10
30.9964523663
 20
17.1556122449
 30
0.0
 10
30.9964523663
 20
17.0910447805
 30
0.0
 10
31.0151314226
 20
16.9650987678
 30
0.0
 10
31.0842006785
 20
16.8249032098
 30
0.0
 10
31.1614900825
 20
16.7390652872
 30
0.0
 10
31.2255120767
 20
16.6919749434
 30
0.0
 10
31.294428725
 20
16.662489644
 30
0.0
 10
31.3426659604
 20
16.6556351402
 30
0.0
 10
31.3660882663
 20
16.6556347245
 30
0.0
  0
SPLINE
  5
24E
100
AcDbEntity
  8
0
100
AcDbSpline
 62
7
  6
BYLAYER
 70
0
 71
3
 72
13
 73
9
 74
0
 42
0.0000001
 43
0.0000001
 44
0.0000000001
 40
0.0
 40
0.0
 40
0.0
 40
0.0
 40
0.1029768226
 40
0.2111068914
 40
0.326428223
 40
0.4496484971
 40
0.7161432417
 40
1.0
 40
1.0
 40
1.0
 40
1.0
 10
23.5879565582
 20
16.6556347245
 30
0.0
 10
23.6113773764
 20
16.6556343087
 30
0.0
 10
23.6596102683
 20
16.6624902792
 30
0.0
 10
23.7285259495
 20
16.6919677825
 30
0.0
 10
23.7925456887
 20
16.739062267
 30
0.0
 10
23.8698492419
 20
16.8249022924
 30
0.0
 10
23.9389122854
 20
16.9651075309
 30
0.0
 10
23.9575924551
 20
17.0910524984
 30
0.0
 10
23.9575924551
 20
17.1556122449
 30
0.0
  0
SPLINE
  5
24F
100
AcDbEntity
  8
0
100
AcDbSpline
 62
7
  6
BYLAYER
 70
0
 71
3
 72
14
 73
10
 74
0
 42
0.0000001
 43
0.0000001
 44
0.0000000001
 40
0.0
 40
0.0
 40
0.0
 40
0.0
 40
0.2903742092
 40
0.4280179183
 40
0.5573938826
 40
0.6778063649
 40
0.7899274367
 40
0.8961045046
 40
1.0
 40
1.0
 40
1.0
 40
1.0
 10
31.7035591475
 20
17.1556122449
 30
0.0
 10
31.7035591475
 20
17.2199594299
 30
0.0
 10
31.691986008
 20
17.3155584987
 30
0.0
 10
31.6518112922
 20
17.4327309847
 30
0.0
 10
31.6112935687
 20
17.5089138776
 30
0.0
 10
31.5609311227
 20
17.5720192191
 30
0.0
 10
31.5018458162
 20
17.6194640709
 30
0.0
 10
31.4359414253
 20
17.6490393999
 30
0.0
 10
31.3891115981
 20
17.6555893567
 30
0.0
 10
31.3660882632
 20
17.6555897653
 30
0.0
  0
SPLINE
  5
250
100
AcDbEntity
  8
0
100
AcDbSpline
 62
7
  6
BYLAYER
 70
0
 71
3
 72
14
 73
10
 74
0
 42
0.0000001
 43
0.0000001
 44
0.0000000001
 40
0.0
 40
0.0
 40
0.0
 40
0.0
 40
0.2903742092
 40
0.4280179183
 40
0.5573938826
 40
0.6778063649
 40
0.7899274367
 40
0.8961045046
 40
1.0
 40
1.0
 40
1.0
 40
1.0
 10
23.2504856739
 20
17.1556122449
 30
0.0
 10
23.2504856739
 20
17.0912650599
 30
0.0
 10
23.2620588134
 20
16.9956659911
 30
0.0
 10
23.3022335292
 20
16.8784935051
 30
0.0
 10
23.3427512527
 20
16.8023106122
 30
0.0
 10
23.3931136987
 20
16.7392052707
 30
0.0
 10
23.4521990052
 20
16.6917604189
 30
0.0
 10
23.5181033961
 20
16.6621850898
 30
0.0
 10
23.5649332233
 20
16.6556351331
 30
0.0
 10
23.5879565582
 20
16.6556347245
 30
0.0
  0
SPLINE
  5
251
100
AcDbEntity
  8
0
100
AcDbSpline
 62
7
  6
BYLAYER
 70
0
 71
3
 72
14
 73
10
 74
0
 42
0.0000001
 43
0.0000001
 44
0.0000000001
 40
0.0
 40
0.0
 40
0.0
 40
0.0
 40
0.1038899562
 40
0.210058906
 40
0.322178616
 40
0.4426021821
 40
0.5720014094
 40
0.709660758
 40
1.0
 40
1.0
 40
1.0
 40
1.0
 10
23.5879565551
 20
17.6555897653
 30
0.0
 10
23.5649344384
 20
17.655590174
 30
0.0
 10
23.5181082812
 20
17.6490385021
 30
0.0
 10
23.4522035408
 20
17.6194718844
 30
0.0
 10
23.3931212896
 20
17.572022144
 30
0.0
 10
23.3427493293
 20
17.5089154056
 30
0.0
 10
23.3022304899
 20
17.432719872
 30
0.0
 10
23.2620551746
 20
17.3155469248
 30
0.0
 10
23.2504856739
 20
17.2199517073
 30
0.0
 10
23.2504856739
 20
17.1556122449
 30
0.0
  0
SPLINE
  5
252
100
AcDbEntity
  8
0
100
AcDbSpline
 62
7
  6
BYLAYER
 70
0
 71
3
 72
14
 73
10
 74
0
 42
0.0000001
 43
0.0000001
 44
0.0000000001
 40
0.0
 40
0.0
 40
0.0
 40
0.0
 40
0.1038899562
 40
0.210058906
 40
0.322178616
 40
0.4426021821
 40
0.5720014094
 40
0.709660758
 40
1.0
 40
1.0
 40
1.0
 40
1.0
 10
31.3660882663
 20
16.6556347245
 30
0.0
 10
31.389110383
 20
16.6556343158
 30
0.0
 10
31.4359365402
 20
16.6621859877
 30
0.0
 10
31.5018412806
 20
16.6917526054
 30
0.0
 10
31.5609235318
 20
16.7392023458
 30
0.0
 10
31.6112954921
 20
16.8023090842
 30
0.0
 10
31.6518143315
 20
16.8785046178
 30
0.0
 10
31.6919896468
 20
16.995677565
 30
0.0
 10
31.7035591475
 20
17.0912727825
 30
0.0
 10
31.7035591475
 20
17.1556122449
 30
0.0
  0
ENDSEC
  0
SECTION
  2
OBJECTS
  0
DICTIONARY
  5
C
100
AcDbDictionary
280
0
281
1
  3
ACAD_GROUP
350
D
  3
ACAD_MLINESTYLE
350
17
  3
ACAD_LAYOUT
350
1A
  3
ACAD_PLOTSETTINGS
350
19
  3
ACAD_PLOTSTYLENAME
350
E
  0
DICTIONARY
  5
D
102
{ACAD_REACTORS
330
C
102
}
100
AcDbDictionary
280
0
281
1
  0
ACDBDICTIONARYWDFLT
  5
E
102
{ACAD_REACTORS
330
C
102
}
100
AcDbDictionary
281
1
  3
Normal
350
F
100
AcDbDictionaryWithDefault
340
F
  0
DICTIONARY
  5
17
102
{ACAD_REACTORS
330
C
102
}
100
AcDbDictionary
280
0
281
1
  3
Standard
350
18
  0
DICTIONARY
  5
19
102
{ACAD_REACTORS
330
C
102
}
100
AcDbDictionary
281
1
  0
DICTIONARY
  5
1A
102
{ACAD_REACTORS
330
C
102
}
100
AcDbDictionary
281
1
  3
Model
350
253
  3
Layout1
350
254
  0
ACDBPLACEHOLDER
  5
F
102
{ACAD_REACTORS
330
E
102
}
  0
MLINESTYLE
  5
18
102
{ACAD_REACTORS
330
17
102
}
100
AcDbMlineStyle
  2
STANDARD
 70
0
  3

 62
256
 51
90.0
 52
90.0
 71
2
 49
0.5
 62
256
  6
BYLAYER
 49
-0.5
 62
256
  6
BYLAYER
  0
LAYOUT
  5
253
102
{ACAD_REACTORS
330
1A
102
}
100
AcDbPlotSettings
  1

  2
none_device
  4

  6

 40
0.0
 41
0.0
 42
0.0
 43
0.0
 44
210.0
 45
297.0
 46
0.0
 47
0.0
 48
0.0
 49
0.0
140
0.0
141
0.0
142
1.0
143
1.0
 70
1024
 72
1
 73
0
 74
0
  7

 75
0
147
1.0
148
0.0
149
0.0
100
AcDbLayout
  1
Model
 70
0
 71
0
 10
0.0
 20
0.0
 11
210.0
 21
297.0
 12
0.0
 22
0.0
 32
0.0
 14
0.0
 24
0.0
 34
0.0
 15
0.0
 25
0.0
 35
0.0
146
0.0
 13
0.0
 23
0.0
 33
0.0
 16
1.0
 26
0.0
 36
0.0
 17
0.0
 27
1.0
 37
0.0
 76
0
330
210
345
0
346
0
  0
LAYOUT
  5
254
102
{ACAD_REACTORS
330
1A
102
}
100
AcDbPlotSettings
  1

  2
none_device
  4

  6

 40
0.0
 41
0.0
 42
0.0
 43
0.0
 44
210.0
 45
297.0
 46
0.0
 47
0.0
 48
0.0
 49
0.0
140
0.0
141
0.0
142
1.0
143
1.0
 70
0
 72
1
 73
0
 74
0
  7

 75
0
147
1.0
148
0.0
149
0.0
100
AcDbLayout
  1
Layout1
 70
0
 71
1
 10
0.0
 20
0.0
 11
210.0
 21
297.0
 12
0.0
 22
0.0
 32
0.0
 14
0.0
 24
0.0
 34
0.0
 15
0.0
 25
0.0
 35
0.0
146
0.0
 13
0.0
 23
0.0
 33
0.0
 16
1.0
 26
0.0
 36
0.0
 17
0.0
 27
1.0
 37
0.0
 76
0
330
211
345
0
346
0
  0
ENDSEC
  0
EOF
