999
DXF file: C:\Users\sesa63760\Dev\_Creo\CAD\MCADID0004739_3D-CAD\drw0001_1.dxf
999
Pro/ENGINEER 2019471 by Parametric Technology Corporation
  0
SECTION
  2
HEADER
  9
$ACADVER
  1
AC1024
  9
$DWGCODEPAGE
  3
ANSI_1252
  9
$EXTMAX
 10
23.391422678
 20
33.0821549303
 30
0.0
  9
$EXTMIN
 10
-0.0
 20
0.0
 30
0.0
  9
$LIMMIN
 10
-0.0
 20
0.0
  9
$LIMMAX
 10
23.391422678
 20
33.0821549303
  9
$VIEWCTR
 10
11.695711339
 20
16.5410774652
  9
$VIEWSIZE
 40
33.0821549303
  9
$CLAYER
  8
0
  9
$LTSCALE
 40
2.1564663955
  9
$CELTYPE
  6
BYLAYER
  9
$DIMSCALE
 40
1.0
  9
$DIMASZ
 40
0.2784693176
  9
$DIMEXO
 40
1.0
  9
$DIMDLI
 40
1.4899222369
  9
$DIMEXE
 40
1.0
  9
$DIMCEN
 40
0.3528763193
  9
$DIMLFAC
 40
1.0
  9
$DIMBLK
  1
_FILLED
  9
$DIMALT
 70
0
  9
$DIMALTF
 40
0.0393700787
  9
$DIMTXT
 40
0.3898570446
  9
$DIMTOL
 70
1
  9
$DIMLIM
 70
0
  9
$DIMTFAC
 40
1.0
  9
$DIMTP
 40
0.01
  9
$DIMTM
 40
0.01
  9
$DIMGAP
 40
0.625
  9
$DIMDSEP
 70
46
  9
$AUNITS
 70
0
  9
$PDMODE
 70
3
  9
$PDSIZE
 40
0.3125
  9
$HANDSEED
  5
350
  9
$TILEMODE
 70
1
  9
$MEASUREMENT
 70
1
  9
$INSUNITS
 70
4
  0
ENDSEC
  0
SECTION
  2
CLASSES
  0
CLASS
  1
ACDBDICTIONARYWDFLT
  2
AcDbDictionaryWithDefault
  3
AutoCAD 2000
 90
0
 91
1
280
0
281
0
  0
CLASS
  1
ACDBPLACEHOLDER
  2
AcDbPlaceHolder
  3
AutoCAD 2000
 90
0
 91
1
280
0
281
0
  0
CLASS
  1
LAYOUT
  2
AcDbLayout
  3
AutoCAD 2000
 90
0
 91
0
280
0
281
0
  0
ENDSEC
  0
SECTION
  2
TABLES
  0
TABLE
  2
VPORT
  5
8
100
AcDbSymbolTable
 70
2
  0
VPORT
  5
1F4
100
AcDbSymbolTableRecord
100
AcDbViewportTableRecord
  2
*ACTIVE
 70
0
 10
0.0
 20
0.0
 11
1.0
 21
1.0
 12
11.695711339
 22
16.5410774652
 13
0.0
 23
0.0
 14
1.0
 24
1.0
 15
0.0
 25
0.0
 16
0.0
 26
0.0
 36
1.0
 17
0.0
 27
0.0
 37
0.0
 40
33.0821549303
 41
0.7070707071
 42
50.0
 43
0.0
 44
0.0
 50
0.0
 51
0.0
 71
0
 72
100
 73
1
 74
1
 75
0
 76
0
 77
0
 78
0
  0
ENDTAB
  0
TABLE
  2
LTYPE
  5
5
100
AcDbSymbolTable
 70
6
  0
LTYPE
  5
14
100
AcDbSymbolTableRecord
100
AcDbLinetypeTableRecord
  2
BYBLOCK
 70
0
  3

 72
65
 73
0
 40
0.0
  0
LTYPE
  5
15
100
AcDbSymbolTableRecord
100
AcDbLinetypeTableRecord
  2
BYLAYER
 70
0
  3

 72
65
 73
0
 40
0.0
  0
LTYPE
  5
16
100
AcDbSymbolTableRecord
100
AcDbLinetypeTableRecord
  2
CONTINUOUS
 70
64
  3
Solid line
 72
65
 73
0
 40
0.0
  0
LTYPE
  5
1F5
100
AcDbSymbolTableRecord
100
AcDbLinetypeTableRecord
  2
CENTER
 70
64
  3
____ _ ____ _ ____ _ ____ _ ____ _ ____ _ ____
 72
65
 73
4
 40
0.6
 49
0.375
 74
0
 49
-0.075
 74
0
 49
0.075
 74
0
 49
-0.075
 74
0
  0
LTYPE
  5
1F6
100
AcDbSymbolTableRecord
100
AcDbLinetypeTableRecord
  2
HIDDEN
 70
64
  3
- - - - - - - - - - - - - - - - - - - -
 72
65
 73
2
 40
0.2
 49
0.1
 74
0
 49
-0.1
 74
0
  0
LTYPE
  5
1F7
100
AcDbSymbolTableRecord
100
AcDbLinetypeTableRecord
  2
PHANTOM
 70
64
  3
_____ _ _ _____ _ _ _____ _ _ _____
 72
65
 73
6
 40
0.8
 49
0.45
 74
0
 49
-0.05
 74
0
 49
0.1
 74
0
 49
-0.05
 74
0
 49
0.1
 74
0
 49
-0.05
 74
0
  0
LTYPE
  5
1F8
100
AcDbSymbolTableRecord
100
AcDbLinetypeTableRecord
  2
DOT
 70
64
  3
. . . . . . . . . . . . . . . . . . . .
 72
65
 73
2
 40
0.2
 49
0.1
 74
0
 49
-0.1
 74
0
  0
LTYPE
  5
1F9
100
AcDbSymbolTableRecord
100
AcDbLinetypeTableRecord
  2
DASHED
 70
64
  3
- - - - - - - - - - - - - - - - - - - -
 72
65
 73
2
 40
0.2
 49
0.1
 74
0
 49
-0.1
 74
0
  0
ENDTAB
  0
TABLE
  2
LAYER
  5
2
100
AcDbSymbolTable
 70
36
  0
LAYER
  5
10
100
AcDbSymbolTableRecord
100
AcDbLayerTableRecord
  2
0
 70
0
 62
7
  6
CONTINUOUS
370
-3
390
F
  0
LAYER
  5
1FA
100
AcDbSymbolTableRecord
100
AcDbLayerTableRecord
  2
DEFAULT_1
 70
0
 62
7
  6
CENTER
370
-3
390
F
  0
LAYER
  5
1FB
100
AcDbSymbolTableRecord
100
AcDbLayerTableRecord
  2
DEFAULT_2
 70
0
 62
7
  6
HIDDEN
370
-3
390
F
  0
LAYER
  5
1FC
100
AcDbSymbolTableRecord
100
AcDbLayerTableRecord
  2
DEFAULT_3
 70
0
 62
7
  6
PHANTOM
370
-3
390
F
  0
LAYER
  5
1FD
100
AcDbSymbolTableRecord
100
AcDbLayerTableRecord
  2
00_COMPONENTS
 70
0
 62
7
  6
CONTINUOUS
370
-3
390
F
  0
LAYER
  5
1FE
100
AcDbSymbolTableRecord
100
AcDbLayerTableRecord
  2
01_1_DEFAULT_DATUMS
 70
0
 62
7
  6
CONTINUOUS
370
-3
390
F
  0
LAYER
  5
1FF
100
AcDbSymbolTableRecord
100
AcDbLayerTableRecord
  2
01_PLANES
 70
0
 62
7
  6
CONTINUOUS
370
-3
390
F
  0
LAYER
  5
200
100
AcDbSymbolTableRecord
100
AcDbLayerTableRecord
  2
02_COORD_SYS
 70
0
 62
7
  6
CONTINUOUS
370
-3
390
F
  0
LAYER
  5
201
100
AcDbSymbolTableRecord
100
AcDbLayerTableRecord
  2
03_AXES
 70
0
 62
7
  6
CONTINUOUS
370
-3
390
F
  0
LAYER
  5
202
100
AcDbSymbolTableRecord
100
AcDbLayerTableRecord
  2
04_POINTS
 70
0
 62
7
  6
CONTINUOUS
370
-3
390
F
  0
LAYER
  5
203
100
AcDbSymbolTableRecord
100
AcDbLayerTableRecord
  2
05_CURVES
 70
0
 62
7
  6
CONTINUOUS
370
-3
390
F
  0
LAYER
  5
204
100
AcDbSymbolTableRecord
100
AcDbLayerTableRecord
  2
06_SURFS
 70
0
 62
7
  6
CONTINUOUS
370
-3
390
F
  0
LAYER
  5
205
100
AcDbSymbolTableRecord
100
AcDbLayerTableRecord
  2
07_COSMETICS
 70
0
 62
7
  6
CONTINUOUS
370
-3
390
F
  0
LAYER
  5
206
100
AcDbSymbolTableRecord
100
AcDbLayerTableRecord
  2
10_NOTES
 70
0
 62
7
  6
CONTINUOUS
370
-3
390
F
  0
LAYER
  5
207
100
AcDbSymbolTableRecord
100
AcDbLayerTableRecord
  2
11_NOTES_PUB
 70
0
 62
7
  6
CONTINUOUS
370
-3
390
F
  0
LAYER
  5
208
100
AcDbSymbolTableRecord
100
AcDbLayerTableRecord
  2
13_REF_GTOL
 70
0
 62
7
  6
CONTINUOUS
370
-3
390
F
  0
LAYER
  5
209
100
AcDbSymbolTableRecord
100
AcDbLayerTableRecord
  2
16_MISC
 70
0
 62
7
  6
CONTINUOUS
370
-3
390
F
  0
LAYER
  5
20A
100
AcDbSymbolTableRecord
100
AcDbLayerTableRecord
  2
17_NO_PRINT
 70
0
 62
7
  6
CONTINUOUS
370
-3
390
F
  0
LAYER
  5
20B
100
AcDbSymbolTableRecord
100
AcDbLayerTableRecord
  2
18_DATUM_CAMS_JOINTS
 70
0
 62
7
  6
CONTINUOUS
370
-3
390
F
  0
LAYER
  5
20C
100
AcDbSymbolTableRecord
100
AcDbLayerTableRecord
  2
19_DATUM_FUNCTIONAL
 70
0
 62
7
  6
CONTINUOUS
370
-3
390
F
  0
LAYER
  5
20D
100
AcDbSymbolTableRecord
100
AcDbLayerTableRecord
  2
20_DATUM_KINEMATIC_SCHEME
 70
0
 62
7
  6
CONTINUOUS
370
-3
390
F
  0
ENDTAB
  0
TABLE
  2
STYLE
  5
3
100
AcDbSymbolTable
 70
1
  0
STYLE
  5
11
100
AcDbSymbolTableRecord
100
AcDbTextStyleTableRecord
  2
STANDARD
 70
0
 40
0.0
 41
1.0
 50
0.0
 71
0
 42
0.2
  3
ARIAL.TTF
  4

  0
STYLE
  5
20E
100
AcDbSymbolTableRecord
100
AcDbTextStyleTableRecord
  2
TEXTSTYLE_1
 70
0
 40
0.0
 41
0.8
 50
0.0
 71
0
 42
0.2
  3
gdt
  4

  0
ENDTAB
  0
TABLE
  2
VIEW
  5
6
100
AcDbSymbolTable
 70
0
  0
ENDTAB
  0
TABLE
  2
UCS
  5
7
100
AcDbSymbolTable
 70
0
  0
ENDTAB
  0
TABLE
  2
APPID
  5
9
100
AcDbSymbolTable
 70
1
  0
APPID
  5
20F
100
AcDbSymbolTableRecord
100
AcDbRegAppTableRecord
  2
ACAD
 70
0
  0
ENDTAB
  0
TABLE
  2
BLOCK_RECORD
  5
1
100
AcDbSymbolTable
 70
0
  0
BLOCK_RECORD
  5
210
100
AcDbSymbolTableRecord
100
AcDbBlockTableRecord
  2
*Model_Space
  0
BLOCK_RECORD
  5
211
100
AcDbSymbolTableRecord
100
AcDbBlockTableRecord
  2
*Paper_Space
  0
BLOCK_RECORD
  5
212
100
AcDbSymbolTableRecord
100
AcDbBlockTableRecord
  2
_FILLED
  0
ENDTAB
  0
TABLE
  2
DIMSTYLE
  5
A
100
AcDbSymbolTable
 70
1
100
AcDbDimStyleTable
 71
0
  0
DIMSTYLE
105
213
100
AcDbSymbolTableRecord
100
AcDbDimStyleTableRecord
  2
STANDARD
 70
0
  3

  4

 40
1.0
 41
0.2784693176
 42
1.0
 43
0.38
 44
1.0
 45
0.0
 46
0.0
 47
0.01
 48
0.01
140
0.3898570446
141
0.09
142
0.0
143
25.4
144
1.0
145
0.0
146
1.0
147
0.625
 71
1
 72
0
 73
0
 74
0
 75
0
 76
0
 77
1
 78
8
 79
2
170
0
171
1
172
0
173
0
174
0
175
0
176
0
177
0
178
0
270
2
179
2
271
2
272
2
273
2
274
2
275
0
280
0
281
0
282
0
283
1
284
8
285
0
286
0
287
3
288
0
340
11
278
46
341
212
342
212
343
212
344
212
  0
ENDTAB
  0
ENDSEC
  0
SECTION
  2
BLOCKS
  0
BLOCK
  5
20
100
AcDbEntity
  8
0
100
AcDbBlockBegin
  2
*Model_Space
 70
0
 10
0.0
 20
0.0
 30
0.0
  3
*Model_Space
  1

  0
ENDBLK
  5
21
100
AcDbEntity
  8
0
100
AcDbBlockEnd
  0
BLOCK
  5
1C
100
AcDbEntity
  8
0
100
AcDbBlockBegin
  2
*Paper_Space
 70
0
 10
0.0
 20
0.0
 30
0.0
  3
*Paper_Space
  1

  0
ENDBLK
  5
1D
100
AcDbEntity
  8
0
100
AcDbBlockEnd
  0
BLOCK
  5
214
100
AcDbEntity
  8
0
100
AcDbBlockBegin
  2
_FILLED
 70
64
 10
0.0
 20
0.0
  3
_FILLED
  1

  0
SOLID
  5
215
100
AcDbEntity
  8
0
  6
BYBLOCK
 62
0
100
AcDbTrace
 10
0.0
 20
0.0
 11
-1.0
 21
0.25
 12
-1.0
 22
-0.25
 13
-1.0
 23
-0.25
  0
ENDBLK
  5
216
100
AcDbEntity
  8
0
  6
BYBLOCK
 62
0
100
AcDbBlockEnd
  0
ENDSEC
  0
SECTION
  2
ENTITIES
  0
LINE
  5
217
100
AcDbEntity
  8
0
100
AcDbLine
 62
7
  6
BYLAYER
 10
13.6529203402
 20
4.8153680042
 11
11.7931508271
 21
4.6578069461
  0
LWPOLYLINE
  5
218
100
AcDbEntity
  8
0
100
AcDbPolyline
 62
7
  6
BYLAYER
 90
3
 70
0
 10
11.7931508271
 20
4.6578069461
 10
9.9453358272
 20
4.8452703747
 10
9.585949349
 20
4.9571085545
  0
LINE
  5
219
100
AcDbEntity
  8
0
100
AcDbLine
 62
7
  6
BYLAYER
 10
8.4635111621
 20
4.9725389803
 11
6.5231422924
 21
6.0927861262
  0
LINE
  5
21A
100
AcDbEntity
  8
0
100
AcDbLine
 62
7
  6
BYLAYER
 10
8.4635111621
 20
5.9523418809
 11
6.5231422924
 21
7.0725890268
  0
LWPOLYLINE
  5
21B
100
AcDbEntity
  8
0
100
AcDbPolyline
 62
7
  6
BYLAYER
 90
3
 70
0
 10
7.160639665
 20
25.3394966751
 10
7.0439971635
 20
25.2964146901
 10
6.8767956078
 20
25.2987941286
  0
LWPOLYLINE
  5
21C
100
AcDbEntity
  8
0
100
AcDbPolyline
 62
7
  6
BYLAYER
 90
7
 70
0
 10
8.4635111621
 20
6.8913196606
 10
10.2021497288
 20
6.4463134869
 10
12.0880055566
 20
6.3184537921
 10
13.9631874793
 20
6.5198607405
 10
15.6481947814
 20
7.0328346913
 10
16.9906284361
 20
7.8087250696
 10
17.5147304081
 20
8.3833608567
  0
LINE
  5
21D
100
AcDbEntity
  8
0
100
AcDbLine
 62
7
  6
BYLAYER
 10
8.4635111621
 20
6.8913196606
 11
6.5231422924
 21
8.0115668065
  0
LINE
  5
21E
100
AcDbEntity
  8
0
100
AcDbLine
 62
7
  6
BYLAYER
 10
7.5004411884
 20
8.0596969222
 11
8.5468680219
 21
7.4555557757
  0
LINE
  5
21F
100
AcDbEntity
  8
0
100
AcDbLine
 62
7
  6
BYLAYER
 10
8.2427146365
 20
7.827138421
 11
6.248966132
 21
8.9782036162
  0
LINE
  5
220
100
AcDbEntity
  8
0
100
AcDbLine
 62
7
  6
BYLAYER
 10
6.8873641882
 20
9.1893786523
 11
5.6244258361
 21
9.9185199544
  0
LINE
  5
221
100
AcDbEntity
  8
0
100
AcDbLine
 62
7
  6
BYLAYER
 10
4.4532686969
 20
11.8952895756
 11
5.6244258361
 21
10.7350223716
  0
LINE
  5
222
100
AcDbEntity
  8
0
100
AcDbLine
 62
7
  6
BYLAYER
 10
7.5004411884
 20
8.0596969222
 11
7.1105807189
 21
8.4807614562
  0
LWPOLYLINE
  5
223
100
AcDbEntity
  8
0
100
AcDbPolyline
 62
7
  6
BYLAYER
 90
3
 70
0
 10
3.877370518
 20
13.6159927438
 10
3.9097247642
 20
13.2010203062
 10
4.4532686969
 20
11.8952895756
  0
LINE
  5
224
100
AcDbEntity
  8
0
100
AcDbLine
 62
7
  6
BYLAYER
 10
3.877370518
 20
13.6159927438
 11
3.877370518
 21
12.7994903266
  0
LINE
  5
225
100
AcDbEntity
  8
0
100
AcDbLine
 62
7
  6
BYLAYER
 10
15.0931242948
 20
27.3527328306
 11
11.1365007792
 21
25.0683888145
  0
LINE
  5
226
100
AcDbEntity
  8
0
100
AcDbLine
 62
7
  6
BYLAYER
 10
18.6227714952
 20
9.3198453527
 11
17.8853819641
 21
9.3012559801
  0
LINE
  5
227
100
AcDbEntity
  8
0
100
AcDbLine
 62
7
  6
BYLAYER
 10
17.6053532262
 20
8.3717619406
 11
16.8293559999
 21
8.4710826959
  0
LWPOLYLINE
  5
228
100
AcDbEntity
  8
0
100
AcDbPolyline
 62
7
  6
BYLAYER
 90
3
 70
0
 10
4.5254604903
 20
13.1680262457
 10
5.2665837678
 20
11.9791580123
 10
6.3961324665
 20
11.1007976055
  0
LWPOLYLINE
  5
229
100
AcDbEntity
  8
0
100
AcDbPolyline
 62
7
  6
BYLAYER
 90
3
 70
0
 10
5.6137363714
 20
7.6908852053
 10
5.7505871878
 20
7.1002868079
 10
6.5231422924
 20
6.0927861262
  0
LINE
  5
22A
100
AcDbEntity
  8
0
100
AcDbLine
 62
7
  6
BYLAYER
 10
5.527370518
 20
6.430771473
 11
5.527370518
 21
7.8750571057
  0
LINE
  5
22B
100
AcDbEntity
  8
0
100
AcDbLine
 62
7
  6
BYLAYER
 10
5.527370518
 20
9.0435792078
 11
5.527370518
 21
9.8950974387
  0
LWPOLYLINE
  5
22C
100
AcDbEntity
  8
0
100
AcDbPolyline
 62
7
  6
BYLAYER
 90
4
 70
0
 10
5.8874055283
 20
24.2859422802
 10
5.7360218957
 20
23.4186897975
 10
5.6783360808
 20
22.4602600292
 10
5.6773770916
 20
22.3142548694
  0
LWPOLYLINE
  5
22D
100
AcDbEntity
  8
0
100
AcDbPolyline
 62
7
  6
BYLAYER
 90
3
 70
0
 10
13.2651721749
 20
9.7689571693
 10
15.3895662488
 20
10.1983169282
 10
17.1920970125
 20
10.969040392
  0
LINE
  5
22E
100
AcDbEntity
  8
0
100
AcDbLine
 62
7
  6
BYLAYER
 10
16.1975824015
 20
7.6080135581
 11
15.4925518217
 21
7.8199049821
  0
LWPOLYLINE
  5
22F
100
AcDbEntity
  8
0
100
AcDbPolyline
 62
7
  6
BYLAYER
 90
4
 70
0
 10
6.9565439699
 20
10.7564949748
 10
8.8491082619
 20
10.0628354379
 10
11.0090298532
 20
9.7232995099
 10
13.2651721749
 20
9.7689571693
  0
LINE
  5
230
100
AcDbEntity
  8
0
100
AcDbLine
 62
7
  6
BYLAYER
 10
14.4953962764
 20
7.0806483954
 11
13.9093812331
 21
7.3906691438
  0
LINE
  5
231
100
AcDbEntity
  8
0
100
AcDbLine
 62
7
  6
BYLAYER
 10
6.6408738366
 20
12.1077551966
 11
8.5579107692
 21
11.0009784462
  0
LINE
  5
232
100
AcDbEntity
  8
0
100
AcDbLine
 62
7
  6
BYLAYER
 10
5.7061091061
 20
21.4228738456
 11
5.6773705368
 21
22.3080804386
  0
LINE
  5
233
100
AcDbEntity
  8
0
100
AcDbLine
 62
7
  6
BYLAYER
 10
5.6244258361
 20
9.9185199544
 11
5.6244258361
 21
10.7350223716
  0
LINE
  5
234
100
AcDbEntity
  8
0
100
AcDbLine
 62
7
  6
BYLAYER
 10
6.2199945928
 20
15.5808446704
 11
6.2199945928
 21
18.6678408293
  0
LINE
  5
235
100
AcDbEntity
  8
0
100
AcDbLine
 62
7
  6
BYLAYER
 10
6.248966132
 20
8.9782036162
 11
6.248966132
 21
9.5579496037
  0
LINE
  5
236
100
AcDbEntity
  8
0
100
AcDbLine
 62
7
  6
BYLAYER
 10
6.5231422924
 20
4.4597812919
 11
6.5231422924
 21
6.0927861262
  0
LINE
  5
237
100
AcDbEntity
  8
0
100
AcDbLine
 62
7
  6
BYLAYER
 10
6.5231422924
 20
7.0725890268
 11
6.5231422924
 21
8.0115668065
  0
LINE
  5
238
100
AcDbEntity
  8
0
100
AcDbLine
 62
7
  6
BYLAYER
 10
5.677370518
 20
14.0242439523
 11
5.6773724133
 21
22.3140980576
  0
LINE
  5
239
100
AcDbEntity
  8
0
100
AcDbLine
 62
7
  6
BYLAYER
 10
5.3773705613
 20
8.6357610267
 11
5.4241176068
 21
9.1177315424
  0
LINE
  5
23A
100
AcDbEntity
  8
0
100
AcDbLine
 62
7
  6
BYLAYER
 10
6.9811439278
 20
20.7608133961
 11
6.3024509537
 21
18.7341482278
  0
LINE
  5
23B
100
AcDbEntity
  8
0
100
AcDbLine
 62
7
  6
BYLAYER
 10
7.3845644809
 20
20.6428946531
 11
6.7058715068
 21
18.6162294848
  0
LINE
  5
23C
100
AcDbEntity
  8
0
100
AcDbLine
 62
7
  6
BYLAYER
 10
6.6408738366
 20
12.1077551966
 11
6.6408738366
 21
15.12881414
  0
LINE
  5
23D
100
AcDbEntity
  8
0
100
AcDbLine
 62
7
  6
BYLAYER
 10
6.7058715068
 20
15.5292333259
 11
6.7058715068
 21
18.6162294848
  0
LINE
  5
23E
100
AcDbEntity
  8
0
100
AcDbLine
 62
7
  6
BYLAYER
 10
6.8873641882
 20
10.0058810694
 11
6.8873641882
 21
9.1893786523
  0
LINE
  5
23F
100
AcDbEntity
  8
0
100
AcDbLine
 62
7
  6
BYLAYER
 10
7.5004411884
 20
8.0596969222
 11
7.5004411884
 21
8.2556805012
  0
LWPOLYLINE
  5
240
100
AcDbEntity
  8
0
100
AcDbPolyline
 62
7
  6
BYLAYER
 90
4
 70
0
 10
5.677370518
 20
16.3881895306
 10
4.9278550884
 20
15.6525299254
 10
4.4100115035
 20
14.4277646429
 10
4.5254604903
 20
13.1680262457
  0
LINE
  5
241
100
AcDbEntity
  8
0
100
AcDbLine
 62
7
  6
BYLAYER
 10
11.4648203705
 20
21.3930642651
 11
11.4648265909
 21
21.3930663396
  0
LWPOLYLINE
  5
242
100
AcDbEntity
  8
0
100
AcDbPolyline
 62
7
  6
BYLAYER
 90
4
 70
0
 10
11.4648995506
 20
21.3930749436
 10
11.3166498457
 20
21.3452137082
 10
11.1307625336
 20
21.2899701376
 10
10.9934501057
 20
21.2529516198
  0
LINE
  5
243
100
AcDbEntity
  8
0
100
AcDbLine
 62
7
  6
BYLAYER
 10
8.2427146365
 20
8.73382869
 11
8.2427146365
 21
7.827138421
  0
LINE
  5
244
100
AcDbEntity
  8
0
100
AcDbLine
 62
7
  6
BYLAYER
 10
8.3102171844
 20
20.0826507174
 11
8.3102171844
 21
14.7145436368
  0
LINE
  5
245
100
AcDbEntity
  8
0
100
AcDbLine
 62
7
  6
BYLAYER
 10
8.3980842669
 20
20.0319217813
 11
8.3980842669
 21
14.7414859302
  0
LINE
  5
246
100
AcDbEntity
  8
0
100
AcDbLine
 62
7
  6
BYLAYER
 10
8.4635111621
 20
6.8913196606
 11
8.4635111621
 21
5.9523418809
  0
LINE
  5
247
100
AcDbEntity
  8
0
100
AcDbLine
 62
7
  6
BYLAYER
 10
8.4635111621
 20
4.9725389803
 11
8.4635111621
 21
3.3395341461
  0
LINE
  5
248
100
AcDbEntity
  8
0
100
AcDbLine
 62
7
  6
BYLAYER
 10
8.4966338975
 20
19.3654127983
 11
8.4966338975
 21
19.9750254127
  0
LINE
  5
249
100
AcDbEntity
  8
0
100
AcDbLine
 62
7
  6
BYLAYER
 10
8.5468680219
 20
7.7473526641
 11
8.5468680219
 21
7.4555557757
  0
LINE
  5
24A
100
AcDbEntity
  8
0
100
AcDbLine
 62
7
  6
BYLAYER
 10
8.5579107692
 20
14.0220373896
 11
8.5579107692
 21
11.0009784462
  0
LWPOLYLINE
  5
24B
100
AcDbEntity
  8
0
100
AcDbPolyline
 62
7
  6
BYLAYER
 90
4
 70
0
 10
5.677370518
 20
16.4603376456
 10
4.8323342103
 20
15.8043751476
 10
4.0397437516
 20
14.5418316687
 10
3.877370518
 20
13.6159927438
  0
LINE
  5
24C
100
AcDbEntity
  8
0
100
AcDbLine
 62
7
  6
BYLAYER
 10
8.4966338975
 20
19.3654127983
 11
9.0895366879
 21
19.6327205711
  0
LINE
  5
24D
100
AcDbEntity
  8
0
100
AcDbLine
 62
7
  6
BYLAYER
 10
6.6408738366
 20
15.12881414
 11
8.5579107692
 21
14.0220373896
  0
LINE
  5
24E
100
AcDbEntity
  8
0
100
AcDbLine
 62
7
  6
BYLAYER
 10
6.7316057913
 20
15.5440909334
 11
9.1635994348
 21
14.1400105132
  0
LWPOLYLINE
  5
24F
100
AcDbEntity
  8
0
100
AcDbPolyline
 62
7
  6
BYLAYER
 90
3
 70
0
 10
9.0836762083
 20
14.1861531656
 10
8.7572737226
 20
14.3970281007
 10
8.4044308416
 20
14.747868725
  0
LINE
  5
250
100
AcDbEntity
  8
0
100
AcDbLine
 62
7
  6
BYLAYER
 10
9.1635994348
 20
17.0240905421
 11
9.1635994348
 21
13.9370943833
  0
LINE
  5
251
100
AcDbEntity
  8
0
100
AcDbLine
 62
7
  6
BYLAYER
 10
9.3408653119
 20
16.8660460415
 11
9.3408653119
 21
13.7790498827
  0
LINE
  5
252
100
AcDbEntity
  8
0
100
AcDbLine
 62
7
  6
BYLAYER
 10
9.1791268575
 20
17.119355188
 11
9.1635994359
 21
17.0241051359
  0
LINE
  5
253
100
AcDbEntity
  8
0
100
AcDbLine
 62
7
  6
BYLAYER
 10
9.8578198317
 20
19.1460203564
 11
9.1791268575
 21
17.119355188
  0
LINE
  5
254
100
AcDbEntity
  8
0
100
AcDbLine
 62
7
  6
BYLAYER
 10
9.2723117993
 20
17.0195370588
 11
9.9510047734
 21
19.0462022271
  0
LINE
  5
255
100
AcDbEntity
  8
0
100
AcDbLine
 62
7
  6
BYLAYER
 10
5.4241176068
 20
9.1177315424
 11
5.6743514177
 21
9.7083364935
  0
LINE
  5
256
100
AcDbEntity
  8
0
100
AcDbLine
 62
7
  6
BYLAYER
 10
8.0065273945
 20
14.8080312545
 11
8.3102171844
 21
14.7145436368
  0
LINE
  5
257
100
AcDbEntity
  8
0
100
AcDbLine
 62
7
  6
BYLAYER
 10
6.7316057913
 20
15.5440909334
 11
6.7058715068
 21
15.5292333259
  0
LINE
  5
258
100
AcDbEntity
  8
0
100
AcDbLine
 62
7
  6
BYLAYER
 10
10.9715179355
 20
24.8098368474
 11
10.9715179355
 21
21.2529624761
  0
LINE
  5
259
100
AcDbEntity
  8
0
100
AcDbLine
 62
7
  6
BYLAYER
 10
15.2282624873
 20
22.687516423
 11
15.2282477278
 21
22.687494642
  0
LINE
  5
25A
100
AcDbEntity
  8
0
100
AcDbLine
 62
7
  6
BYLAYER
 10
14.1256691082
 20
24.4004941404
 11
14.1092082569
 21
24.2831932409
  0
LWPOLYLINE
  5
25B
100
AcDbEntity
  8
0
100
AcDbPolyline
 62
7
  6
BYLAYER
 90
5
 70
0
 10
15.1891962698
 20
22.6051477905
 10
14.9128176423
 20
21.9772349539
 10
14.5033735657
 20
21.5506437452
 10
13.9825281681
 20
21.3894693301
 10
13.4212522045
 20
21.5220280681
  0
LINE
  5
25C
100
AcDbEntity
  8
0
100
AcDbLine
 62
7
  6
BYLAYER
 10
15.2282881351
 20
22.6875542986
 11
15.1892023297
 21
22.6051673112
  0
LINE
  5
25D
100
AcDbEntity
  8
0
100
AcDbLine
 62
7
  6
BYLAYER
 10
5.8134308937
 20
21.4349775789
 11
6.9811439278
 21
20.7608133961
  0
LINE
  5
25E
100
AcDbEntity
  8
0
100
AcDbLine
 62
7
  6
BYLAYER
 10
9.9510047734
 20
19.0462022271
 11
11.1187178074
 21
18.3720380441
  0
LINE
  5
25F
100
AcDbEntity
  8
0
100
AcDbLine
 62
7
  6
BYLAYER
 10
13.9093690171
 20
8.3642427158
 11
13.9093568455
 21
7.3906820456
  0
LINE
  5
260
100
AcDbEntity
  8
0
100
AcDbLine
 62
7
  6
BYLAYER
 10
15.1891954958
 20
22.6051444402
 11
15.1891896748
 21
22.6051249094
  0
LINE
  5
261
100
AcDbEntity
  8
0
100
AcDbLine
 62
7
  6
BYLAYER
 10
9.8713832368
 20
19.1813314674
 11
7.9344328778
 21
20.2996049798
  0
LINE
  5
262
100
AcDbEntity
  8
0
100
AcDbLine
 62
7
  6
BYLAYER
 10
14.4953962764
 20
8.4865455368
 11
14.4953962764
 21
7.0806483954
  0
LINE
  5
263
100
AcDbEntity
  8
0
100
AcDbLine
 62
7
  6
BYLAYER
 10
14.9203801285
 20
7.18228146
 11
14.9203801285
 21
8.5752388923
  0
LINE
  5
264
100
AcDbEntity
  8
0
100
AcDbLine
 62
7
  6
BYLAYER
 10
14.9550477792
 20
8.5824739678
 11
14.9550485426
 21
7.6407563164
  0
LINE
  5
265
100
AcDbEntity
  8
0
100
AcDbLine
 62
7
  6
BYLAYER
 10
13.88819113
 20
24.1555897048
 11
13.8717302787
 21
24.253883364
  0
LINE
  5
266
100
AcDbEntity
  8
0
100
AcDbLine
 62
7
  6
BYLAYER
 10
15.4303017018
 20
23.5015878851
 11
15.442370518
 21
23.3323715076
  0
LINE
  5
267
100
AcDbEntity
  8
0
100
AcDbLine
 62
7
  6
BYLAYER
 10
15.377370518
 20
26.7616816595
 11
15.377370518
 21
22.9915519389
  0
LINE
  5
268
100
AcDbEntity
  8
0
100
AcDbLine
 62
7
  6
BYLAYER
 10
15.4925441052
 20
8.6946484715
 11
15.4925365575
 21
7.8199095696
  0
LINE
  5
269
100
AcDbEntity
  8
0
100
AcDbLine
 62
7
  6
BYLAYER
 10
16.1975824015
 20
8.959862188
 11
16.1975824015
 21
7.6080135581
  0
LINE
  5
26A
100
AcDbEntity
  8
0
100
AcDbLine
 62
7
  6
BYLAYER
 10
14.9550471336
 20
7.6407376833
 11
14.9203801285
 21
7.18228146
  0
LINE
  5
26B
100
AcDbEntity
  8
0
100
AcDbLine
 62
7
  6
BYLAYER
 10
13.2824605849
 20
20.1697918402
 11
11.4358534195
 21
21.2359068655
  0
LINE
  5
26C
100
AcDbEntity
  8
0
100
AcDbLine
 62
7
  6
BYLAYER
 10
6.818393563
 20
23.9017382328
 11
6.0550709734
 21
24.3424327655
  0
LINE
  5
26D
100
AcDbEntity
  8
0
100
AcDbLine
 62
7
  6
BYLAYER
 10
13.4063162865
 20
20.2873687644
 11
11.5597525636
 21
21.3534587088
  0
LINE
  5
26E
100
AcDbEntity
  8
0
100
AcDbLine
 62
7
  6
BYLAYER
 10
6.8465917561
 20
24.0745418105
 11
6.1789098915
 21
24.4600193941
  0
LINE
  5
26F
100
AcDbEntity
  8
0
100
AcDbLine
 62
7
  6
BYLAYER
 10
16.5625237721
 20
7.7696876685
 11
16.5625237721
 21
9.1160657694
  0
LINE
  5
270
100
AcDbEntity
  8
0
100
AcDbLine
 62
7
  6
BYLAYER
 10
16.8293528808
 20
9.2302749704
 11
16.8293505359
 21
8.4710833953
  0
LINE
  5
271
100
AcDbEntity
  8
0
100
AcDbLine
 62
7
  6
BYLAYER
 10
10.9934542988
 20
21.2529591366
 11
10.9934673195
 21
21.2529624761
  0
LINE
  5
272
100
AcDbEntity
  8
0
100
AcDbLine
 62
7
  6
BYLAYER
 10
13.4216100256
 20
21.5218465684
 11
13.4215090403
 21
21.5218976365
  0
LINE
  5
273
100
AcDbEntity
  8
0
100
AcDbLine
 62
7
  6
BYLAYER
 10
13.4286480397
 20
21.5179099121
 11
13.4216100256
 21
21.5218465684
  0
LINE
  5
274
100
AcDbEntity
  8
0
100
AcDbLine
 62
7
  6
BYLAYER
 10
6.756369374
 20
25.2689790209
 11
7.0708190278
 21
25.0874355357
  0
LINE
  5
275
100
AcDbEntity
  8
0
100
AcDbLine
 62
7
  6
BYLAYER
 10
13.2857623764
 20
21.4993174945
 11
14.8074907339
 21
20.6207670931
  0
LINE
  5
276
100
AcDbEntity
  8
0
100
AcDbLine
 62
7
  6
BYLAYER
 10
14.9503737158
 20
20.6393605962
 11
13.4286435209
 21
21.5179120584
  0
LINE
  5
277
100
AcDbEntity
  8
0
100
AcDbLine
 62
7
  6
BYLAYER
 10
7.1006939804
 20
25.1712727789
 11
6.8992533128
 21
25.2875719715
  0
LINE
  5
278
100
AcDbEntity
  8
0
100
AcDbLine
 62
7
  6
BYLAYER
 10
14.6817522304
 20
24.1913394003
 11
14.5514567832
 21
24.5099944631
  0
LINE
  5
279
100
AcDbEntity
  8
0
100
AcDbLine
 62
7
  6
BYLAYER
 10
17.6053532262
 20
9.5906456859
 11
17.6053532262
 21
8.3717619406
  0
LINE
  5
27A
100
AcDbEntity
  8
0
100
AcDbLine
 62
7
  6
BYLAYER
 10
17.8853819641
 20
8.5824592733
 11
17.8853819641
 21
9.8071586362
  0
LINE
  5
27B
100
AcDbEntity
  8
0
100
AcDbLine
 62
7
  6
BYLAYER
 10
18.077370518
 20
14.0242439523
 11
18.077370518
 21
22.3081849306
  0
LINE
  5
27C
100
AcDbEntity
  8
0
100
AcDbLine
 62
7
  6
BYLAYER
 10
18.227370518
 20
6.430771473
 11
18.227370518
 21
7.9092256516
  0
LINE
  5
27D
100
AcDbEntity
  8
0
100
AcDbLine
 62
7
  6
BYLAYER
 10
18.227370518
 20
9.0435792078
 11
18.227370518
 21
9.3098774107
  0
LINE
  5
27E
100
AcDbEntity
  8
0
100
AcDbLine
 62
7
  6
BYLAYER
 10
13.737805877
 20
22.5563393689
 11
13.3966956849
 21
22.5098443218
  0
LINE
  5
27F
100
AcDbEntity
  8
0
100
AcDbLine
 62
7
  6
BYLAYER
 10
6.8767890579
 20
25.2987991745
 11
6.8764520757
 21
25.2989466733
  0
LINE
  5
280
100
AcDbEntity
  8
0
100
AcDbLine
 62
7
  6
BYLAYER
 10
6.89927786
 20
25.2875577979
 11
6.8767890579
 21
25.2987991745
  0
LINE
  5
281
100
AcDbEntity
  8
0
100
AcDbLine
 62
7
  6
BYLAYER
 10
14.1256691082
 20
24.4004941404
 11
14.009585873
 21
24.5671542802
  0
LINE
  5
282
100
AcDbEntity
  8
0
100
AcDbLine
 62
7
  6
BYLAYER
 10
15.377370518
 20
26.7616816595
 11
15.2581071385
 21
27.2846846678
  0
LINE
  5
283
100
AcDbEntity
  8
0
100
AcDbLine
 62
7
  6
BYLAYER
 10
18.6227714952
 20
10.3772943445
 11
18.6227714952
 21
9.3198453527
  0
LINE
  5
284
100
AcDbEntity
  8
0
100
AcDbLine
 62
7
  6
BYLAYER
 10
18.7988041047
 20
9.5652072327
 11
18.7988041047
 21
10.5133994454
  0
LINE
  5
285
100
AcDbEntity
  8
0
100
AcDbLine
 62
7
  6
BYLAYER
 10
17.6997128312
 20
22.7200275047
 11
17.8725628627
 21
22.7010693938
  0
LINE
  5
286
100
AcDbEntity
  8
0
100
AcDbLine
 62
7
  6
BYLAYER
 10
15.3337575282
 20
22.6178235778
 11
16.8554877232
 21
21.7392721156
  0
LINE
  5
287
100
AcDbEntity
  8
0
100
AcDbLine
 62
7
  6
BYLAYER
 10
16.9983721973
 20
21.8856651355
 11
15.4766435201
 21
22.7642157215
  0
LINE
  5
288
100
AcDbEntity
  8
0
100
AcDbLine
 62
7
  6
BYLAYER
 10
13.7790274559
 20
24.3529677843
 11
13.8717302787
 21
24.253883364
  0
LWPOLYLINE
  5
289
100
AcDbEntity
  8
0
100
AcDbPolyline
 62
7
  6
BYLAYER
 90
3
 70
0
 10
18.0773683241
 20
22.3081327835
 10
18.0416185268
 20
22.506727144
 10
17.8722157878
 20
22.7012700717
  0
LINE
  5
28A
100
AcDbEntity
  8
0
100
AcDbLine
 62
7
  6
BYLAYER
 10
19.877370518
 20
13.6159927438
 11
19.877370518
 21
12.7994903266
  0
LINE
  5
28B
100
AcDbEntity
  8
0
100
AcDbLine
 62
7
  6
BYLAYER
 10
17.8853819641
 20
8.8102271898
 11
18.0453344573
 21
9.3052883353
  0
LWPOLYLINE
  5
28C
100
AcDbEntity
  8
0
100
AcDbPolyline
 62
7
  6
BYLAYER
 90
6
 70
0
 10
17.1920970125
 20
10.969040392
 10
18.5168030436
 20
12.0103322945
 10
19.2502238712
 20
13.2303238211
 10
19.3271687653
 20
14.5243956762
 10
18.7423185629
 20
15.768015275
 10
18.077370518
 20
16.3735070485
  0
LWPOLYLINE
  5
28D
100
AcDbEntity
  8
0
100
AcDbPolyline
 62
7
  6
BYLAYER
 90
3
 70
0
 10
12.243792378
 20
25.0315355157
 10
13.3081862888
 20
25.208154072
 10
13.5526263144
 20
25.3082523093
  0
LINE
  5
28E
100
AcDbEntity
  8
0
100
AcDbLine
 62
7
  6
BYLAYER
 10
11.1365007792
 20
25.0683888145
 11
12.243792378
 21
25.0315355157
  0
LINE
  5
28F
100
AcDbEntity
  8
0
100
AcDbLine
 62
7
  6
BYLAYER
 10
15.7658747988
 20
23.8910441992
 11
15.7655578077
 21
23.8911684187
  0
LINE
  5
290
100
AcDbEntity
  8
0
100
AcDbLine
 62
7
  6
BYLAYER
 10
16.037255554
 20
23.7606681269
 11
15.7658747988
 21
23.8910441992
  0
LINE
  5
291
100
AcDbEntity
  8
0
100
AcDbLine
 62
7
  6
BYLAYER
 10
17.8725628627
 20
22.7010693938
 11
17.8737833628
 21
22.700372285
  0
LINE
  5
292
100
AcDbEntity
  8
0
100
AcDbLine
 62
7
  6
BYLAYER
 10
14.1092082569
 20
24.2831932409
 11
13.8576420726
 21
24.4284317593
  0
LINE
  5
293
100
AcDbEntity
  8
0
100
AcDbLine
 62
7
  6
BYLAYER
 10
15.7292659594
 20
23.7607158598
 11
17.5758259198
 21
22.6946280877
  0
LINE
  5
294
100
AcDbEntity
  8
0
100
AcDbLine
 62
7
  6
BYLAYER
 10
17.6996792879
 20
22.7200472205
 11
15.8531446227
 21
23.7861203887
  0
LINE
  5
295
100
AcDbEntity
  8
0
100
AcDbLine
 62
7
  6
BYLAYER
 10
17.8734090802
 20
22.7005883765
 11
16.037255554
 21
23.7606681269
  0
LWPOLYLINE
  5
296
100
AcDbEntity
  8
0
100
AcDbPolyline
 62
7
  6
BYLAYER
 90
3
 70
0
 10
15.7021804746
 20
7.7569027308
 10
15.0971178297
 20
7.408156806
 10
14.9338731748
 20
7.3607211911
  0
LWPOLYLINE
  5
297
100
AcDbEntity
  8
0
100
AcDbPolyline
 62
7
  6
BYLAYER
 90
5
 70
0
 10
14.3091371302
 20
7.1791854561
 10
13.5404823045
 20
6.9558298167
 10
11.8129565528
 20
6.8073950342
 10
10.0944582405
 20
6.978646222
 10
8.5468680219
 20
7.4555557757
  0
LINE
  5
298
100
AcDbEntity
  8
0
100
AcDbLine
 62
7
  6
BYLAYER
 10
13.8572864916
 20
4.8745936349
 11
13.6529203402
 21
4.8153680042
  0
LINE
  5
299
100
AcDbEntity
  8
0
100
AcDbLine
 62
7
  6
BYLAYER
 10
15.8203081582
 20
29.1412462536
 11
13.734334469
 21
30.3455564794
  0
ARC
  5
29A
100
AcDbEntity
  8
0
100
AcDbCircle
 62
7
  6
BYLAYER
 10
54.1571021057
 20
-2.5647409797
 40
51.1308340566
100
AcDbArc
 50
147.2864303216
 51
147.6301127364
  0
ARC
  5
29B
100
AcDbEntity
  8
0
100
AcDbCircle
 62
7
  6
BYLAYER
 10
12.1638521308
 20
17.7694817323
 40
10.9401671015
100
AcDbArc
 50
282.3051250894
 51
284.5937606363
  0
ARC
  5
29C
100
AcDbEntity
  8
0
100
AcDbCircle
 62
7
  6
BYLAYER
 10
11.3135087081
 20
17.9553875759
 40
10.1289514085
100
AcDbArc
 50
67.0804662679
 51
68.0899769691
  0
ARC
  5
29D
100
AcDbEntity
  8
0
100
AcDbCircle
 62
7
  6
BYLAYER
 10
12.8607077114
 20
9.0358240909
 40
9.1344001367
100
AcDbArc
 50
54.7674154084
 51
55.1726576131
  0
ARC
  5
29E
100
AcDbEntity
  8
0
100
AcDbCircle
 62
7
  6
BYLAYER
 10
5.0312056938
 20
24.5728094466
 40
8.923069901
100
AcDbArc
 50
311.8000654188
 51
314.461196709
  0
ARC
  5
29F
100
AcDbEntity
  8
0
100
AcDbCircle
 62
7
  6
BYLAYER
 10
12.4569288056
 20
16.0309764575
 40
8.75423908
100
AcDbArc
 50
286.5804278786
 51
290.2892912305
  0
ARC
  5
2A0
100
AcDbEntity
  8
0
100
AcDbCircle
 62
7
  6
BYLAYER
 10
15.0857213329
 20
18.0429065323
 40
8.5481689639
100
AcDbArc
 50
158.2816392459
 51
161.4608882719
  0
ARC
  5
2A1
100
AcDbEntity
  8
0
100
AcDbCircle
 62
7
  6
BYLAYER
 10
13.0122264665
 20
15.2909290169
 40
8.317071743
100
AcDbArc
 50
292.5190182443
 51
295.2690012131
  0
ARC
  5
2A2
100
AcDbEntity
  8
0
100
AcDbCircle
 62
7
  6
BYLAYER
 10
14.8348189089
 20
18.1476598558
 40
7.857002465
100
AcDbArc
 50
160.6424930398
 51
161.4833023207
  0
ARC
  5
2A3
100
AcDbEntity
  8
0
100
AcDbCircle
 62
7
  6
BYLAYER
 10
10.262499959
 20
17.3547881683
 40
7.3801638241
100
AcDbArc
 50
240.0150026747
 51
243.3876652773
  0
ARC
  5
2A4
100
AcDbEntity
  8
0
100
AcDbCircle
 62
7
  6
BYLAYER
 10
9.9828045914
 20
16.8699620846
 40
6.8204444049
100
AcDbArc
 50
237.9985068923
 51
240.0146398708
  0
ARC
  5
2A5
100
AcDbEntity
  8
0
100
AcDbCircle
 62
7
  6
BYLAYER
 10
13.5633811333
 20
13.6287624335
 40
6.1047728954
100
AcDbArc
 50
299.4276268751
 51
302.3430378941
  0
ARC
  5
2A6
100
AcDbEntity
  8
0
100
AcDbCircle
 62
7
  6
BYLAYER
 10
13.2409979765
 20
8.8455539471
 40
6.0459943401
100
AcDbArc
 50
299.561170249
 51
299.9996295279
  0
ARC
  5
2A7
100
AcDbEntity
  8
0
100
AcDbCircle
 62
7
  6
BYLAYER
 10
13.357546047
 20
9.0519478477
 40
6.0200135294
100
AcDbArc
 50
299.5611104883
 51
299.9996094296
  0
ARC
  5
2A8
100
AcDbEntity
  8
0
100
AcDbCircle
 62
7
  6
BYLAYER
 10
13.646602229
 20
25.1894682883
 40
5.6226367755
100
AcDbArc
 50
120.0105925047
 51
121.630756896
  0
ARC
  5
2A9
100
AcDbEntity
  8
0
100
AcDbCircle
 62
7
  6
BYLAYER
 10
14.3692240761
 20
12.9641973524
 40
5.6180953078
100
AcDbArc
 50
305.1710185363
 51
308.7455561784
  0
ARC
  5
2AA
100
AcDbEntity
  8
0
100
AcDbCircle
 62
7
  6
BYLAYER
 10
12.3211325389
 20
22.9544301669
 40
5.5879473942
100
AcDbArc
 50
178.3367512222
 51
179.996952747
  0
ARC
  5
2AB
100
AcDbEntity
  8
0
100
AcDbCircle
 62
7
  6
BYLAYER
 10
11.8580572541
 20
26.3231663425
 40
5.1634980803
100
AcDbArc
 50
359.9962071197
 51
1.8228942456
  0
ARC
  5
2AC
100
AcDbEntity
  8
0
100
AcDbCircle
 62
7
  6
BYLAYER
 10
11.7622310771
 20
22.6415160421
 40
4.721994593
100
AcDbArc
 50
240.0178385964
 51
242.8451336112
  0
ARC
  5
2AD
100
AcDbEntity
  8
0
100
AcDbCircle
 62
7
  6
BYLAYER
 10
15.7915186709
 20
11.5369289063
 40
3.5960328194
100
AcDbArc
 50
321.9363890117
 51
326.7492145609
  0
ARC
  5
2AE
100
AcDbEntity
  8
0
100
AcDbCircle
 62
7
  6
BYLAYER
 10
15.0402611999
 20
22.0330455846
 40
1.9946622248
100
AcDbArc
 50
60.0111690562
 51
68.6676233322
  0
ARC
  5
2AF
100
AcDbEntity
  8
0
100
AcDbCircle
 62
7
  6
BYLAYER
 10
15.6632989681
 20
23.601003746
 40
0.3011512529
100
AcDbArc
 50
164.5509838557
 51
167.5989691013
  0
ARC
  5
2B0
100
AcDbEntity
  8
0
100
AcDbCircle
 62
7
  6
BYLAYER
 10
6.7563697623
 20
25.0240280716
 40
0.3
100
AcDbArc
 50
66.4124657373
 51
135.258140087
  0
ARC
  5
2B1
100
AcDbEntity
  8
0
100
AcDbCircle
 62
7
  6
BYLAYER
 10
6.178908728
 20
24.2150693408
 40
0.3
100
AcDbArc
 50
155.0749444593
 51
166.3348079206
  0
ARC
  5
2B2
100
AcDbEntity
  8
0
100
AcDbCircle
 62
7
  6
BYLAYER
 10
11.0679451125
 20
20.9623543924
 40
0.3
100
AcDbArc
 50
104.3745309984
 51
147.0986437786
  0
ARC
  5
2B3
100
AcDbEntity
  8
0
100
AcDbCircle
 62
7
  6
BYLAYER
 10
11.5597826544
 20
21.1084906111
 40
0.3
100
AcDbArc
 50
87.274707903
 51
108.4367913649
  0
ARC
  5
2B4
100
AcDbEntity
  8
0
100
AcDbCircle
 62
7
  6
BYLAYER
 10
13.2857599703
 20
21.2543681585
 40
0.3
100
AcDbArc
 50
63.1733537405
 51
102.7302175413
  0
ARC
  5
2B5
100
AcDbEntity
  8
0
100
AcDbCircle
 62
7
  6
BYLAYER
 10
15.6566567691
 20
23.6116324885
 40
0.3
100
AcDbArc
 50
68.5853397051
 51
158.4174853865
  0
ARC
  5
2B6
100
AcDbEntity
  8
0
100
AcDbCircle
 62
7
  6
BYLAYER
 10
15.6672694622
 20
23.6193186306
 40
0.2876435661
100
AcDbArc
 50
69.9940938101
 51
81.847860267
  0
ARC
  5
2B7
100
AcDbEntity
  8
0
100
AcDbCircle
 62
7
  6
BYLAYER
 10
15.6694721239
 20
23.6252015651
 40
0.2813620612
100
AcDbArc
 50
63.9578435211
 51
70.0057205449
  0
ARC
  5
2B8
100
AcDbEntity
  8
0
100
AcDbCircle
 62
7
  6
BYLAYER
 10
13.3854032769
 20
21.4268306114
 40
0.1008243457
100
AcDbArc
 50
64.604315546
 51
68.9001043075
  0
ARC
  5
2B9
100
AcDbEntity
  8
0
100
AcDbCircle
 62
7
  6
BYLAYER
 10
13.2255167705
 20
21.52117166
 40
0.0264778187
100
AcDbArc
 50
98.3930858313
 51
102.796497787
  0
SPLINE
  5
2BA
100
AcDbEntity
  8
0
100
AcDbSpline
 62
7
  6
BYLAYER
 70
0
 71
3
 72
9
 73
5
 74
0
 42
0.0000001
 43
0.0000001
 44
0.0000000001
 40
0.0
 40
0.0
 40
0.0
 40
0.0
 40
0.4868460057
 40
1.0
 40
1.0
 40
1.0
 40
1.0
 10
13.2260406736
 20
22.5119551229
 30
0.0
 10
13.2533903974
 20
22.5070788184
 30
0.0
 10
13.3105253018
 20
22.5019915965
 30
0.0
 10
13.3676819779
 20
22.5058919189
 30
0.0
 10
13.3966960735
 20
22.5098457207
 30
0.0
  0
SPLINE
  5
2BB
100
AcDbEntity
  8
0
100
AcDbSpline
 62
7
  6
BYLAYER
 70
0
 71
3
 72
14
 73
10
 74
0
 42
0.0000001
 43
0.0000001
 44
0.0000000001
 40
0.0
 40
0.0
 40
0.0
 40
0.0
 40
0.2230192036
 40
0.3412773183
 40
0.4641059847
 40
0.5915125341
 40
0.7234413683
 40
0.8597144087
 40
1.0
 40
1.0
 40
1.0
 40
1.0
 10
13.7378063515
 20
22.5563410726
 30
0.0
 10
13.7696851491
 20
22.5606855824
 30
0.0
 10
13.8179419729
 20
22.5717832624
 30
0.0
 10
13.8811760052
 20
22.5938698177
 30
0.0
 10
13.930069827
 20
22.6148531666
 30
0.0
 10
13.9792594312
 20
22.6398258205
 30
0.0
 10
14.028536785
 20
22.6686819341
 30
0.0
 10
14.0776624225
 20
22.7012799284
 30
0.0
 10
14.1097187369
 20
22.7250668363
 30
0.0
 10
14.1256691082
 20
22.7375233424
 30
0.0
  0
SPLINE
  5
2BC
100
AcDbEntity
  8
0
100
AcDbSpline
 62
7
  6
BYLAYER
 70
0
 71
3
 72
15
 73
11
 74
0
 42
0.0000001
 43
0.0000001
 44
0.0000000001
 40
0.0
 40
0.0
 40
0.0
 40
0.0
 40
0.1423694783
 40
0.2787340258
 40
0.4092770707
 40
0.5345059529
 40
0.6551818843
 40
0.7722419106
 40
0.8867739021
 40
1.0
 40
1.0
 40
1.0
 40
1.0
 10
14.1092082569
 20
24.2831932409
 30
0.0
 10
14.1248042362
 20
24.2890220769
 30
0.0
 10
14.1558028098
 20
24.2992452534
 30
0.0
 10
14.2024459946
 20
24.310262389
 30
0.0
 10
14.2479512703
 20
24.3165304464
 30
0.0
 10
14.292036228
 20
24.3180000794
 30
0.0
 10
14.3344470459
 20
24.3146510324
 30
0.0
 10
14.3749344826
 20
24.3064846965
 30
0.0
 10
14.4132421968
 20
24.2935501072
 30
0.0
 10
14.4372232037
 20
24.2817487927
 30
0.0
 10
14.4486906191
 20
24.275128132
 30
0.0
  0
SPLINE
  5
2BD
100
AcDbEntity
  8
0
100
AcDbSpline
 62
7
  6
BYLAYER
 70
0
 71
3
 72
10
 73
6
 74
0
 42
0.0000001
 43
0.0000001
 44
0.0000000001
 40
0.0
 40
0.0
 40
0.0
 40
0.0
 40
0.2694126264
 40
0.5260159596
 40
1.0
 40
1.0
 40
1.0
 40
1.0
 10
14.7298874112
 20
23.9178522589
 30
0.0
 10
14.7298874112
 20
23.9429183562
 30
0.0
 10
14.7279958542
 20
23.9919016746
 30
0.0
 10
14.7164031305
 20
24.0842587602
 30
0.0
 10
14.698442519
 20
24.1505194343
 30
0.0
 10
14.6817506263
 20
24.1913377649
 30
0.0
  0
SPLINE
  5
2BE
100
AcDbEntity
  8
0
100
AcDbSpline
 62
7
  6
BYLAYER
 70
0
 71
3
 72
21
 73
17
 74
0
 42
0.0000001
 43
0.0000001
 44
0.0000000001
 40
0.0
 40
0.0
 40
0.0
 40
0.0
 40
0.0593215081
 40
0.1204958756
 40
0.1832197684
 40
0.2472238384
 40
0.3122147284
 40
0.3778687787
 40
0.5098016147
 40
0.6404018965
 40
0.7044111054
 40
0.767135489
 40
0.8282889235
 40
0.8876261113
 40
0.9449378349
 40
1.0
 40
1.0
 40
1.0
 40
1.0
 10
14.1256691082
 20
22.7375233424
 30
0.0
 10
14.146960757
 20
22.7541511404
 30
0.0
 10
14.1891104546
 20
22.7893536575
 30
0.0
 10
14.249852959
 20
22.8466234195
 30
0.0
 10
14.3086917752
 20
22.9088180025
 30
0.0
 10
14.3651759104
 20
22.9754482022
 30
0.0
 10
14.418888146
 20
23.0460175613
 30
0.0
 10
14.4863573225
 20
23.144796798
 30
0.0
 10
14.5612168122
 20
23.2744620795
 30
0.0
 10
14.622402714
 20
23.4103065316
 30
0.0
 10
14.66194542
 20
23.5206754724
 30
0.0
 10
14.6863830198
 20
23.6027234462
 30
0.0
 10
14.7056158878
 20
23.6839612574
 30
0.0
 10
14.7194981717
 20
23.7637882521
 30
0.0
 10
14.7279121525
 20
23.8415862917
 30
0.0
 10
14.7298874112
 20
23.8927768295
 30
0.0
 10
14.7298874112
 20
23.9178522589
 30
0.0
  0
SPLINE
  5
2BF
100
AcDbEntity
  8
0
100
AcDbSpline
 62
7
  6
BYLAYER
 70
0
 71
3
 72
23
 73
19
 74
0
 42
0.0000001
 43
0.0000001
 44
0.0000000001
 40
0.0
 40
0.0
 40
0.0
 40
0.0
 40
0.0550500437
 40
0.1123618276
 40
0.171699885
 40
0.2328457918
 40
0.2955630578
 40
0.3595671927
 40
0.4245526639
 40
0.4901998039
 40
0.5561812091
 40
0.6221636154
 40
0.6878127801
 40
0.752795941
 40
0.8167922237
 40
0.8795170562
 40
0.9406916603
 40
1.0
 40
1.0
 40
1.0
 40
1.0
 10
13.3623062399
 20
23.1282836147
 30
0.0
 10
13.3623062399
 20
23.150105207
 30
0.0
 10
13.3640274163
 20
23.194658062
 30
0.0
 10
13.3713477774
 20
23.2623716859
 30
0.0
 10
13.3834319322
 20
23.3318526264
 30
0.0
 10
13.4001690763
 20
23.4025600984
 30
0.0
 10
13.4214430691
 20
23.4739667137
 30
0.0
 10
13.4470797581
 20
23.5455419321
 30
0.0
 10
13.4769013879
 20
23.6167362367
 30
0.0
 10
13.5106670442
 20
23.6870162607
 30
0.0
 10
13.5481342754
 20
23.7558443905
 30
0.0
 10
13.5890073778
 20
23.8227071192
 30
0.0
 10
13.6329896701
 20
23.8870888176
 30
0.0
 10
13.6797323138
 20
23.9485101735
 30
0.0
 10
13.7288962453
 20
24.0065013598
 30
0.0
 10
13.7801086829
 20
24.0606360972
 30
0.0
 10
13.832979204
 20
24.1104801276
 30
0.0
 10
13.8696623615
 20
24.1411195892
 30
0.0
 10
13.88819113
 20
24.1555897048
 30
0.0
  0
SPLINE
  5
2C0
100
AcDbEntity
  8
0
100
AcDbSpline
 62
7
  6
BYLAYER
 70
0
 71
3
 72
9
 73
5
 74
0
 42
0.0000001
 43
0.0000001
 44
0.0000000001
 40
0.0
 40
0.0
 40
0.0
 40
0.0
 40
0.5130783855
 40
1.0
 40
1.0
 40
1.0
 40
1.0
 10
14.5514551611
 20
24.509992811
 30
0.0
 10
14.5404534245
 20
24.5368966077
 30
0.0
 10
14.5154616159
 20
24.5879830965
 30
0.0
 10
14.4828141779
 20
24.6346356111
 30
0.0
 10
14.4650975053
 20
24.6557786115
 30
0.0
  0
SPLINE
  5
2C1
100
AcDbEntity
  8
0
100
AcDbSpline
 62
7
  6
BYLAYER
 70
0
 71
3
 72
16
 73
12
 74
0
 42
0.0000001
 43
0.0000001
 44
0.0000000001
 40
0.0
 40
0.0
 40
0.0
 40
0.0
 40
0.0539198308
 40
0.1080974918
 40
0.2181356524
 40
0.33206354
 40
0.4514125993
 40
0.5773076151
 40
0.7105180591
 40
0.8514592792
 40
1.0
 40
1.0
 40
1.0
 40
1.0
 10
13.5487087678
 20
22.7162785743
 30
0.0
 10
13.5413418727
 20
22.7205318181
 30
0.0
 10
13.5269276357
 20
22.7296926073
 30
0.0
 10
13.4995229856
 20
22.7505626417
 30
0.0
 10
13.4680898996
 20
22.7814902161
 30
0.0
 10
13.4358568741
 20
22.8252703942
 30
0.0
 10
13.4091625875
 20
22.8754600753
 30
0.0
 10
13.3882202017
 20
22.9315355895
 30
0.0
 10
13.373189314
 20
22.9929664964
 30
0.0
 10
13.3642004934
 20
23.0591487999
 30
0.0
 10
13.3623062399
 20
23.1048494237
 30
0.0
 10
13.3623062399
 20
23.1282836147
 30
0.0
  0
SPLINE
  5
2C2
100
AcDbEntity
  8
0
100
AcDbSpline
 62
7
  6
BYLAYER
 70
0
 71
3
 72
15
 73
11
 74
0
 42
0.0000001
 43
0.0000001
 44
0.0000000001
 40
0.0
 40
0.0
 40
0.0
 40
0.0
 40
0.1423694783
 40
0.2787340258
 40
0.4092770707
 40
0.5345059529
 40
0.6551818843
 40
0.7722419106
 40
0.8867739021
 40
1.0
 40
1.0
 40
1.0
 40
1.0
 10
13.88819113
 20
22.7082134655
 30
0.0
 10
13.8725951507
 20
22.7023846295
 30
0.0
 10
13.8415965771
 20
22.6921614529
 30
0.0
 10
13.7949533923
 20
22.6811443173
 30
0.0
 10
13.7494481166
 20
22.6748762599
 30
0.0
 10
13.7053631589
 20
22.6734066269
 30
0.0
 10
13.6629523409
 20
22.6767556739
 30
0.0
 10
13.6224649043
 20
22.6849220098
 30
0.0
 10
13.5841571901
 20
22.6978565991
 30
0.0
 10
13.5601761832
 20
22.7096579136
 30
0.0
 10
13.5487087678
 20
22.7162785743
 30
0.0
  0
SPLINE
  5
2C3
100
AcDbEntity
  8
0
100
AcDbSpline
 62
7
  6
BYLAYER
 70
0
 71
3
 72
23
 73
19
 74
0
 42
0.0000001
 43
0.0000001
 44
0.0000000001
 40
0.0
 40
0.0
 40
0.0
 40
0.0
 40
0.0569147347
 40
0.1166620688
 40
0.1788740158
 40
0.243184803
 40
0.3091495789
 40
0.3762741324
 40
0.4440398894
 40
0.5119137477
 40
0.5793580179
 40
0.6458458883
 40
0.7108751819
 40
0.7739798759
 40
0.8347426985
 40
0.892819378
 40
0.9479719534
 40
1.0
 40
1.0
 40
1.0
 40
1.0
 10
14.6350931469
 20
23.8631230916
 30
0.0
 10
14.6350931469
 20
23.835705583
 30
0.0
 10
14.6323712207
 20
23.7794821052
 30
0.0
 10
14.6209299238
 20
23.6939878843
 30
0.0
 10
14.6021381887
 20
23.6061583773
 30
0.0
 10
14.5762309799
 20
23.5170461429
 30
0.0
 10
14.5435201374
 20
23.4276810232
 30
0.0
 10
14.5043788997
 20
23.3391206482
 30
0.0
 10
14.4592747741
 20
23.2524077017
 30
0.0
 10
14.4087421637
 20
23.16856218
 30
0.0
 10
14.3533692091
 20
23.088577555
 30
0.0
 10
14.2938161006
 20
23.0133916865
 30
0.0
 10
14.2307808014
 20
22.9438913309
 30
0.0
 10
14.1649999685
 20
22.8808996392
 30
0.0
 10
14.0972548455
 20
22.825147697
 30
0.0
 10
14.0283157518
 20
22.7772899753
 30
0.0
 10
13.9590001351
 20
22.737912037
 30
0.0
 10
13.9116684801
 20
22.7169878823
 30
0.0
 10
13.88819113
 20
22.7082134655
 30
0.0
  0
SPLINE
  5
2C4
100
AcDbEntity
  8
0
100
AcDbSpline
 62
7
  6
BYLAYER
 70
0
 71
3
 72
22
 73
18
 74
0
 42
0.0000001
 43
0.0000001
 44
0.0000000001
 40
0.0
 40
0.0
 40
0.0
 40
0.0
 40
0.0653728304
 40
0.1285707246
 40
0.189874291
 40
0.2496270745
 40
0.3082237142
 40
0.3661039667
 40
0.4237336823
 40
0.4815909909
 40
0.5401441086
 40
0.599834444
 40
0.6610546766
 40
0.724148773
 40
0.8569573579
 40
0.9271768397
 40
1.0
 40
1.0
 40
1.0
 40
1.0
 10
14.6817506263
 20
24.1913377649
 30
0.0
 10
14.676243654
 20
24.2048045072
 30
0.0
 10
14.6643185612
 20
24.2308617451
 30
0.0
 10
14.643326808
 20
24.2676045194
 30
0.0
 10
14.6196272246
 20
24.3011519874
 30
0.0
 10
14.5933225225
 20
24.3313593577
 30
0.0
 10
14.5645102495
 20
24.3580835908
 30
0.0
 10
14.5333225344
 20
24.3812128454
 30
0.0
 10
14.4998885868
 20
24.4006335495
 30
0.0
 10
14.4643606386
 20
24.4162622234
 30
0.0
 10
14.4268971288
 20
24.4280348683
 30
0.0
 10
14.387664223
 20
24.4358966888
 30
0.0
 10
14.3468331545
 20
24.4398351678
 30
0.0
 10
14.2895369076
 20
24.4398303209
 30
0.0
 10
14.2305343667
 20
24.4316681564
 30
0.0
 10
14.1710571503
 20
24.4163299826
 30
0.0
 10
14.140850805
 20
24.4061681426
 30
0.0
 10
14.1256691082
 20
24.4004941404
 30
0.0
  0
SPLINE
  5
2C5
100
AcDbEntity
  8
0
100
AcDbSpline
 62
7
  6
BYLAYER
 70
0
 71
3
 72
16
 73
12
 74
0
 42
0.0000001
 43
0.0000001
 44
0.0000000001
 40
0.0
 40
0.0
 40
0.0
 40
0.0
 40
0.0539198308
 40
0.1080974918
 40
0.2181356524
 40
0.33206354
 40
0.4514125993
 40
0.5773076151
 40
0.7105180591
 40
0.8514592792
 40
1.0
 40
1.0
 40
1.0
 40
1.0
 10
14.4486906191
 20
24.275128132
 30
0.0
 10
14.4560575142
 20
24.2708748882
 30
0.0
 10
14.4704717511
 20
24.2617140991
 30
0.0
 10
14.4978764013
 20
24.2408440646
 30
0.0
 10
14.5293094873
 20
24.2099164902
 30
0.0
 10
14.5615425128
 20
24.1661363121
 30
0.0
 10
14.5882367994
 20
24.115946631
 30
0.0
 10
14.6091791851
 20
24.0598711169
 30
0.0
 10
14.6242100729
 20
23.9984402099
 30
0.0
 10
14.6331988935
 20
23.9322579064
 30
0.0
 10
14.6350931469
 20
23.8865572826
 30
0.0
 10
14.6350931469
 20
23.8631230916
 30
0.0
  0
SPLINE
  5
2C6
100
AcDbEntity
  8
0
100
AcDbSpline
 62
7
  6
BYLAYER
 70
0
 71
3
 72
23
 73
19
 74
0
 42
0.0000001
 43
0.0000001
 44
0.0000000001
 40
0.0
 40
0.0
 40
0.0
 40
0.0
 40
0.0771722734
 40
0.1513540012
 40
0.222452562
 40
0.2905220775
 40
0.3557106164
 40
0.4182427452
 40
0.4784244237
 40
0.5366638354
 40
0.5934561759
 40
0.6493698867
 40
0.7050185667
 40
0.7610318305
 40
0.8180181175
 40
0.876535705
 40
0.9370647425
 40
1.0
 40
1.0
 40
1.0
 40
1.0
 10
13.2675119757
 20
23.0735544474
 30
0.0
 10
13.2675119757
 20
23.0527579135
 30
0.0
 10
13.2688202041
 20
23.0119553261
 30
0.0
 10
13.2749439201
 20
22.9522701392
 30
0.0
 10
13.2851835718
 20
22.895632824
 30
0.0
 10
13.2994754712
 20
22.8423773128
 30
0.0
 10
13.3177574981
 20
22.792799525
 30
0.0
 10
13.3399270129
 20
22.7471741529
 30
0.0
 10
13.3658841555
 20
22.7057733617
 30
0.0
 10
13.3954856219
 20
22.668843721
 30
0.0
 10
13.4285744117
 20
22.6366181525
 30
0.0
 10
13.4649560349
 20
22.6093002019
 30
0.0
 10
13.5044110033
 20
22.5870667105
 30
0.0
 10
13.5466926294
 20
22.5700578359
 30
0.0
 10
13.5915342799
 20
22.5583661142
 30
0.0
 10
13.6386627539
 20
22.5520545949
 30
0.0
 10
13.6877907586
 20
22.5511323049
 30
0.0
 10
13.7210017725
 20
22.5540509091
 30
0.0
 10
13.7378063515
 20
22.5563410726
 30
0.0
  0
SPLINE
  5
2C7
100
AcDbEntity
  8
0
100
AcDbSpline
 62
7
  6
BYLAYER
 70
0
 71
3
 72
21
 73
17
 74
0
 42
0.0000001
 43
0.0000001
 44
0.0000000001
 40
0.0
 40
0.0
 40
0.0
 40
0.0
 40
0.0593215081
 40
0.1204958756
 40
0.1832197684
 40
0.2472238384
 40
0.3122147284
 40
0.3778687787
 40
0.5098016147
 40
0.6404018965
 40
0.7044111054
 40
0.767135489
 40
0.8282889235
 40
0.8876261113
 40
0.9449378349
 40
1.0
 40
1.0
 40
1.0
 40
1.0
 10
13.8717302787
 20
24.253883364
 30
0.0
 10
13.8504386298
 20
24.2372555659
 30
0.0
 10
13.8082889323
 20
24.2020530488
 30
0.0
 10
13.7475464279
 20
24.1447832868
 30
0.0
 10
13.6887076117
 20
24.0825887038
 30
0.0
 10
13.6322234765
 20
24.0159585041
 30
0.0
 10
13.5785112409
 20
23.945389145
 30
0.0
 10
13.5110420644
 20
23.8466099083
 30
0.0
 10
13.4361825747
 20
23.7169446268
 30
0.0
 10
13.3749966729
 20
23.5811001747
 30
0.0
 10
13.3354539669
 20
23.4707312339
 30
0.0
 10
13.3110163671
 20
23.3886832601
 30
0.0
 10
13.2917834991
 20
23.3074454489
 30
0.0
 10
13.2779012152
 20
23.2276184543
 30
0.0
 10
13.2694872343
 20
23.1498204146
 30
0.0
 10
13.2675119757
 20
23.0986298768
 30
0.0
 10
13.2675119757
 20
23.0735544474
 30
0.0
  0
SPLINE
  5
2C8
100
AcDbEntity
  8
0
100
AcDbSpline
 62
7
  6
BYLAYER
 70
0
 71
3
 72
39
 73
35
 74
0
 42
0.0000001
 43
0.0000001
 44
0.0000000001
 40
0.0
 40
0.0
 40
0.0
 40
0.0
 40
0.0305909224
 40
0.0620872904
 40
0.0944160817
 40
0.1275221295
 40
0.1613400021
 40
0.1957805627
 40
0.2307455666
 40
0.2661296022
 40
0.3018212577
 40
0.3377031532
 40
0.3736556628
 40
0.4095577943
 40
0.4452897783
 40
0.4807338169
 40
0.5157771815
 40
0.5503124374
 40
0.584241708
 40
0.617475901
 40
0.6499396264
 40
0.681570019
 40
0.7123228405
 40
0.7421705263
 40
0.7711074755
 40
0.7991486783
 40
0.8263337025
 40
0.8527235797
 40
0.8784015459
 40
0.9034675291
 40
0.9280375902
 40
0.9522319565
 40
0.976178579
 40
1.0
 40
1.0
 40
1.0
 40
1.0
 10
16.3700277497
 20
5.7528701241
 30
0.0
 10
16.2550293391
 20
5.6864761571
 30
0.0
 10
16.0172107862
 20
5.5592521322
 30
0.0
 10
15.6448146827
 20
5.3876029676
 30
0.0
 10
15.2532607964
 20
5.2330092586
 30
0.0
 10
14.8445683831
 20
5.0960746906
 30
0.0
 10
14.4207115403
 20
4.9773246485
 30
0.0
 10
13.9837918866
 20
4.8772406414
 30
0.0
 10
13.5360236934
 20
4.7962914641
 30
0.0
 10
13.0796947542
 20
4.7348184312
 30
0.0
 10
12.6171444649
 20
4.6931111123
 30
0.0
 10
12.1507597204
 20
4.6713577138
 30
0.0
 10
11.6829581831
 20
4.6696610212
 30
0.0
 10
11.2161652093
 20
4.6880336919
 30
0.0
 10
10.7527994194
 20
4.7263783708
 30
0.0
 10
10.2952548434
 20
4.7845347186
 30
0.0
 10
9.8458824202
 20
4.8622140872
 30
0.0
 10
9.406978033
 20
4.9590934903
 30
0.0
 10
8.9807572367
 20
5.0747205079
 30
0.0
 10
8.5693573077
 20
5.2086362826
 30
0.0
 10
8.174807447
 20
5.360267494
 30
0.0
 10
7.79904572
 20
5.5290611754
 30
0.0
 10
7.4438900357
 20
5.7143855107
 30
0.0
 10
7.1110731973
 20
5.9156454787
 30
0.0
 10
6.8022334168
 20
6.1322081375
 30
0.0
 10
6.5189620835
 20
6.3634737198
 30
0.0
 10
6.2628323949
 20
6.6088197448
 30
0.0
 10
6.0354366828
 20
6.8675796829
 30
0.0
 10
5.8384735019
 20
7.1389843506
 30
0.0
 10
5.6736691823
 20
7.4220140736
 30
0.0
 10
5.5429230822
 20
7.7153323366
 30
0.0
 10
5.4478936201
 20
8.0170805124
 30
0.0
 10
5.3902733969
 20
8.3248395696
 30
0.0
 10
5.3773442957
 20
8.5324162935
 30
0.0
 10
5.377373165
 20
8.6358198874
 30
0.0
  0
SPLINE
  5
2C9
100
AcDbEntity
  8
0
100
AcDbSpline
 62
7
  6
BYLAYER
 70
0
 71
3
 72
11
 73
7
 74
0
 42
0.0000001
 43
0.0000001
 44
0.0000000001
 40
0.0
 40
0.0
 40
0.0
 40
0.0
 40
0.2513751566
 40
0.5015833861
 40
0.7509939192
 40
1.0
 40
1.0
 40
1.0
 40
1.0
 10
18.2844128035
 20
9.3141208125
 30
0.0
 10
18.2997582237
 20
9.2585890428
 30
0.0
 10
18.326759378
 20
9.1467445841
 30
0.0
 10
18.3559057237
 20
8.9769818239
 30
0.0
 10
18.3734793591
 20
8.8061781646
 30
0.0
 10
18.3773838044
 20
8.6919061512
 30
0.0
 10
18.377367871
 20
8.6348361111
 30
0.0
  0
SPLINE
  5
2CA
100
AcDbEntity
  8
0
100
AcDbSpline
 62
7
  6
BYLAYER
 70
0
 71
3
 72
22
 73
18
 74
0
 42
0.0000001
 43
0.0000001
 44
0.0000000001
 40
0.0
 40
0.0
 40
0.0
 40
0.0
 40
0.0570501293
 40
0.1142384601
 40
0.1716947791
 40
0.2295637682
 40
0.2879828707
 40
0.3470801481
 40
0.4069995158
 40
0.4678642165
 40
0.5297878793
 40
0.5928801716
 40
0.6572281104
 40
0.7229144252
 40
0.7900138014
 40
0.8585765699
 40
1.0
 40
1.0
 40
1.0
 40
1.0
 10
18.377367871
 20
8.6348361111
 30
0.0
 10
18.3773483359
 20
8.5648659999
 30
0.0
 10
18.37140366
 20
8.424688396
 30
0.0
 10
18.3449584815
 20
8.2155449169
 30
0.0
 10
18.3011016529
 20
8.0083119656
 30
0.0
 10
18.240224383
 20
7.8038674261
 30
0.0
 10
18.1628208068
 20
7.6029430688
 30
0.0
 10
18.0693304634
 20
7.4062076439
 30
0.0
 10
17.9603509676
 20
7.2141722835
 30
0.0
 10
17.836425375
 20
7.0272678647
 30
0.0
 10
17.6980899979
 20
6.8458617401
 30
0.0
 10
17.5459002046
 20
6.6702366016
 30
0.0
 10
17.3803638934
 20
6.5006360067
 30
0.0
 10
17.2019596396
 20
6.3372781851
 30
0.0
 10
17.0111376257
 20
6.1803466442
 30
0.0
 10
16.7380454035
 20
5.9779139236
 30
0.0
 10
16.5202411214
 20
5.839595337
 30
0.0
 10
16.3700277497
 20
5.7528701241
 30
0.0
  0
SPLINE
  5
2CB
100
AcDbEntity
  8
0
100
AcDbSpline
 62
7
  6
BYLAYER
 70
0
 71
3
 72
20
 73
16
 74
0
 42
0.0000001
 43
0.0000001
 44
0.0000000001
 40
0.0
 40
0.0
 40
0.0
 40
0.0
 40
0.1485289713
 40
0.2893886691
 40
0.422549646
 40
0.486387916
 40
0.548480705
 40
0.6089288645
 40
0.6678628744
 40
0.7254391814
 40
0.7818370142
 40
0.8372607818
 40
0.8919337826
 40
0.9460959509
 40
1.0
 40
1.0
 40
1.0
 40
1.0
 10
10.8343836734
 20
30.058294749
 30
0.0
 10
10.9651962113
 20
30.1338189521
 30
0.0
 10
11.2263381235
 20
30.2705256508
 30
0.0
 10
11.6246309067
 20
30.4335488076
 30
0.0
 10
11.9552573663
 20
30.5299314848
 30
0.0
 10
12.213928983
 20
30.5808216749
 30
0.0
 10
12.4019504933
 20
30.6058059518
 30
0.0
 10
12.586238538
 20
30.6180406299
 30
0.0
 10
12.7663500245
 20
30.6174942917
 30
0.0
 10
12.9418497009
 20
30.6041745275
 30
0.0
 10
13.1123082838
 20
30.5780711625
 30
0.0
 10
13.2773063878
 20
30.539261428
 30
0.0
 10
13.4364407855
 20
30.4878301618
 30
0.0
 10
13.5892883261
 20
30.4238788248
 30
0.0
 10
13.6868574628
 20
30.372961185
 30
0.0
 10
13.7343330087
 20
30.3455539499
 30
0.0
  0
SPLINE
  5
2CC
100
AcDbEntity
  8
0
100
AcDbSpline
 62
7
  6
BYLAYER
 70
0
 71
3
 72
14
 73
10
 74
0
 42
0.0000001
 43
0.0000001
 44
0.0000000001
 40
0.0
 40
0.0
 40
0.0
 40
0.0
 40
0.2660090524
 40
0.3958972705
 40
0.5231823135
 40
0.6475233313
 40
0.7686096075
 40
0.8861761889
 40
1.0
 40
1.0
 40
1.0
 40
1.0
 10
16.4185854493
 20
23.549302079
 30
0.0
 10
16.5151866513
 20
23.7833494133
 30
0.0
 10
16.6447543105
 20
24.1378596539
 30
0.0
 10
16.7843092421
 20
24.616019584
 30
0.0
 10
16.8700291233
 20
24.9690451684
 30
0.0
 10
16.9372303352
 20
25.3175276331
 30
0.0
 10
16.9855518195
 20
25.6598040347
 30
0.0
 10
17.0147933878
 20
25.9941880022
 30
0.0
 10
17.0215561178
 20
26.2144818877
 30
0.0
 10
17.0215553231
 20
26.322824528
 30
0.0
  0
SPLINE
  5
2CD
100
AcDbEntity
  8
0
100
AcDbSpline
 62
7
  6
BYLAYER
 70
0
 71
3
 72
20
 73
16
 74
0
 42
0.0000001
 43
0.0000001
 44
0.0000000001
 40
0.0
 40
0.0
 40
0.0
 40
0.0
 40
0.1485514209
 40
0.2199615963
 40
0.2894381237
 40
0.356993181
 40
0.4226633126
 40
0.5485370102
 40
0.6678519242
 40
0.7254297277
 40
0.7818302529
 40
0.8372557261
 40
0.8919301907
 40
0.946094376
 40
1.0
 40
1.0
 40
1.0
 40
1.0
 10
17.0215558833
 20
26.4861238738
 30
0.0
 10
17.0215547948
 20
26.6371942718
 30
0.0
 10
17.0123108602
 20
26.8610944681
 30
0.0
 10
16.9791930498
 20
27.1536597643
 30
0.0
 10
16.9449162638
 20
27.3629430194
 30
0.0
 10
16.9009267381
 20
27.564442482
 30
0.0
 10
16.8304923074
 20
27.8184597869
 30
0.0
 10
16.7196171418
 20
28.1153993582
 30
0.0
 10
16.5745055713
 20
28.3881897664
 30
0.0
 10
16.4405359549
 20
28.5842307722
 30
0.0
 10
16.3327060065
 20
28.7188155
 30
0.0
 10
16.2165929419
 20
28.8423051433
 30
0.0
 10
16.092469603
 20
28.9543919658
 30
0.0
 10
15.9606698776
 20
29.0548011636
 30
0.0
 10
15.8677831547
 20
29.113835963
 30
0.0
 10
15.8203066979
 20
29.1412437241
 30
0.0
  0
SPLINE
  5
2CE
100
AcDbEntity
  8
0
100
AcDbSpline
 62
7
  6
BYLAYER
 70
0
 71
3
 72
23
 73
19
 74
0
 42
0.0000001
 43
0.0000001
 44
0.0000000001
 40
0.0
 40
0.0
 40
0.0
 40
0.0
 40
0.0558383874
 40
0.1141793602
 40
0.1747833973
 40
0.2373537243
 40
0.3015489296
 40
0.3669927308
 40
0.4332827706
 40
0.5000000532
 40
0.5667174855
 40
0.6330076378
 40
0.6984510537
 40
0.7626466617
 40
0.8252174271
 40
0.8858180427
 40
0.9441672556
 40
1.0
 40
1.0
 40
1.0
 40
1.0
 10
6.7331857129
 20
23.1180267036
 30
0.0
 10
6.7331846289
 20
23.2712195258
 30
0.0
 10
6.7467814528
 20
23.5845858953
 30
0.0
 10
6.8044928588
 20
24.0610300073
 30
0.0
 10
6.8994237755
 20
24.5502916106
 30
0.0
 10
7.0306484174
 20
25.0476735163
 30
0.0
 10
7.1969107828
 20
25.5484508246
 30
0.0
 10
7.3966295558
 20
26.0478371675
 30
0.0
 10
7.6278914347
 20
26.5410618084
 30
0.0
 10
7.8884786928
 20
27.0234099543
 30
0.0
 10
8.1759015514
 20
27.4902655122
 30
0.0
 10
8.4874165108
 20
27.9371556311
 30
0.0
 10
8.8200346209
 20
28.3598134152
 30
0.0
 10
9.1705812641
 20
28.7541985128
 30
0.0
 10
9.5357084226
 20
29.1165291393
 30
0.0
 10
9.9119615038
 20
29.4433885234
 30
0.0
 10
10.2957229709
 20
29.7315800605
 30
0.0
 10
10.5603060621
 20
29.900054089
 30
0.0
 10
10.6929617284
 20
29.9766424165
 30
0.0
  0
SPLINE
  5
2CF
100
AcDbEntity
  8
0
100
AcDbSpline
 62
7
  6
BYLAYER
 70
0
 71
3
 72
20
 73
16
 74
0
 42
0.0000001
 43
0.0000001
 44
0.0000000001
 40
0.0
 40
0.0
 40
0.0
 40
0.0
 40
0.053905624
 40
0.1080698093
 40
0.1627442739
 40
0.2181697471
 40
0.2745702723
 40
0.3321480758
 40
0.4514629898
 40
0.5773366874
 40
0.643006819
 40
0.7105618763
 40
0.7800384037
 40
0.8514485791
 40
1.0
 40
1.0
 40
1.0
 40
1.0
 10
7.9344343381
 20
20.2996075094
 30
0.0
 10
7.8869578813
 20
20.3270152704
 30
0.0
 10
7.7940711584
 20
20.3860500698
 30
0.0
 10
7.662271433
 20
20.4864592676
 30
0.0
 10
7.5381480941
 20
20.5985460901
 30
0.0
 10
7.4220350295
 20
20.7220357334
 30
0.0
 10
7.3142050811
 20
20.8566204612
 30
0.0
 10
7.1802354647
 20
21.052661467
 30
0.0
 10
7.0351238942
 20
21.3254518753
 30
0.0
 10
6.9242487286
 20
21.6223914465
 30
0.0
 10
6.8538142979
 20
21.8764087514
 30
0.0
 10
6.8098247722
 20
22.0779082141
 30
0.0
 10
6.7755479862
 20
22.2871914691
 30
0.0
 10
6.7424301758
 20
22.5797567653
 30
0.0
 10
6.7331862412
 20
22.8036569616
 30
0.0
 10
6.7331851527
 20
22.9547273597
 30
0.0
  0
SPLINE
  5
2D0
100
AcDbEntity
  8
0
100
AcDbSpline
 62
7
  6
BYLAYER
 70
0
 71
3
 72
34
 73
30
 74
0
 42
0.0000001
 43
0.0000001
 44
0.0000000001
 40
0.0
 40
0.0
 40
0.0
 40
0.0
 40
0.0732574728
 40
0.142721673
 40
0.1760588738
 40
0.2084872823
 40
0.2707321722
 40
0.3006825865
 40
0.3299287174
 40
0.3585519042
 40
0.3866441811
 40
0.4143074139
 40
0.4416532026
 40
0.4687993576
 40
0.4958683295
 40
0.5229844115
 40
0.5502706572
 40
0.5778466714
 40
0.6058249894
 40
0.6343103194
 40
0.6633976386
 40
0.6931701122
 40
0.7237004902
 40
0.755048303
 40
0.7872598891
 40
0.8203720811
 40
0.8544127151
 40
0.9253257861
 40
1.0
 40
1.0
 40
1.0
 40
1.0
 10
17.0189422401
 20
26.487417936
 30
0.0
 10
17.0144620056
 20
26.6271961996
 30
0.0
 10
16.9943067303
 20
26.8993251212
 30
0.0
 10
16.937643282
 20
27.2312304598
 30
0.0
 10
16.8737516553
 20
27.4814899115
 30
0.0
 10
16.800078261
 20
27.7145869187
 30
0.0
 10
16.7084232962
 20
27.9349454735
 30
0.0
 10
16.5983175808
 20
28.1391341705
 30
0.0
 10
16.5085997229
 20
28.2809316218
 30
0.0
 10
16.4109169148
 20
28.4129798286
 30
0.0
 10
16.3054912692
 20
28.5349804416
 30
0.0
 10
16.1925425021
 20
28.6466190199
 30
0.0
 10
16.0723509064
 20
28.7476431474
 30
0.0
 10
15.9451952962
 20
28.8378087844
 30
0.0
 10
15.8113646757
 20
28.9168763025
 30
0.0
 10
15.6711951939
 20
28.9846817061
 30
0.0
 10
15.5250153881
 20
29.0410561915
 30
0.0
 10
15.3731724747
 20
29.0858551646
 30
0.0
 10
15.2160367749
 20
29.1190088638
 30
0.0
 10
15.0539740985
 20
29.1404301739
 30
0.0
 10
14.8873655469
 20
29.1500736669
 30
0.0
 10
14.7165970895
 20
29.1479501484
 30
0.0
 10
14.5420622603
 20
29.1340489141
 30
0.0
 10
14.3641652071
 20
29.1084183117
 30
0.0
 10
14.1833133116
 20
29.0711443374
 30
0.0
 10
13.9999195706
 20
29.0222945227
 30
0.0
 10
13.7491534019
 20
28.940786249
 30
0.0
 10
13.4316914742
 20
28.8096240171
 30
0.0
 10
13.1852354268
 20
28.680312887
 30
0.0
 10
13.0617793076
 20
28.6090358888
 30
0.0
  0
SPLINE
  5
2D1
100
AcDbEntity
  8
0
100
AcDbSpline
 62
7
  6
BYLAYER
 70
0
 71
3
 72
37
 73
33
 74
0
 42
0.0000001
 43
0.0000001
 44
0.0000000001
 40
0.0
 40
0.0
 40
0.0
 40
0.0
 40
0.0304252229
 40
0.0618921471
 40
0.0943181472
 40
0.1276291095
 40
0.1617418815
 40
0.1965564041
 40
0.2319653464
 40
0.2678553898
 40
0.3041083365
 40
0.3406013398
 40
0.4137904476
 40
0.4864311837
 40
0.5575388121
 40
0.5922362726
 40
0.626213991
 40
0.6593757753
 40
0.6916345171
 40
0.7229163653
 40
0.753160266
 40
0.7823225413
 40
0.8103770312
 40
0.8373196557
 40
0.8503815834
 40
0.8631751574
 40
0.8879785389
 40
0.9118105258
 40
0.934777043
 40
0.957015476
 40
0.9786924058
 40
1.0
 40
1.0
 40
1.0
 40
1.0
 10
12.9203573626
 20
28.8539845232
 30
0.0
 10
12.8202437874
 20
28.7961842686
 30
0.0
 10
12.6202766765
 20
28.6721162186
 30
0.0
 10
12.3270675665
 20
28.4657691064
 30
0.0
 10
12.0369379722
 20
28.2369516245
 30
0.0
 10
11.7514044995
 20
27.9869119814
 30
0.0
 10
11.471921075
 20
27.7169084735
 30
0.0
 10
11.199904026
 20
27.428340958
 30
0.0
 10
10.9367790636
 20
27.1226838804
 30
0.0
 10
10.6838905466
 20
26.8015287257
 30
0.0
 10
10.4425428705
 20
26.4665180451
 30
0.0
 10
10.1375503514
 20
26.0032949366
 30
0.0
 10
9.79295559
 20
25.4013369734
 30
0.0
 10
9.4437588408
 20
24.6536987065
 30
0.0
 10
9.2099296245
 20
24.0162555866
 30
0.0
 10
9.0614871698
 20
23.5061470977
 30
0.0
 10
8.9709879961
 20
23.129789091
 30
0.0
 10
8.9008539618
 20
22.7585309316
 30
0.0
 10
8.8514857179
 20
22.3942640926
 30
0.0
 10
8.8231024579
 20
22.038868476
 30
0.0
 10
8.815895218
 20
21.6941621617
 30
0.0
 10
8.8298748241
 20
21.3619090156
 30
0.0
 10
8.8650177442
 20
21.0438232279
 30
0.0
 10
8.9122646433
 20
20.7893000997
 30
0.0
 10
8.9607708243
 20
20.5945916952
 30
0.0
 10
9.0150453049
 20
20.4098758004
 30
0.0
 10
9.095253945
 20
20.1903275392
 30
0.0
 10
9.2124360721
 20
19.944329981
 30
0.0
 10
9.3490124764
 20
19.7198128996
 30
0.0
 10
9.5043331811
 20
19.5179953345
 30
0.0
 10
9.6775987499
 20
19.3400438308
 30
0.0
 10
9.8052438321
 20
19.2373801072
 30
0.0
 10
9.8713723169
 20
19.1906757305
 30
0.0
  0
SPLINE
  5
2D2
100
AcDbEntity
  8
0
100
AcDbSpline
 62
7
  6
BYLAYER
 70
0
 71
3
 72
23
 73
19
 74
0
 42
0.0000001
 43
0.0000001
 44
0.0000000001
 40
0.0
 40
0.0
 40
0.0
 40
0.0
 40
0.0563688811
 40
0.1150577069
 40
0.1758328959
 40
0.2384133372
 40
0.3024805838
 40
0.3676876391
 40
0.4336656647
 40
0.5000318974
 40
0.566396998
 40
0.6323712263
 40
0.6975718095
 40
0.7616308912
 40
0.8242011541
 40
0.8849607328
 40
0.9436389183
 40
1.0
 40
1.0
 40
1.0
 40
1.0
 10
6.7355394403
 20
23.1166208458
 30
0.0
 10
6.7399862475
 20
23.2707023603
 30
0.0
 10
6.7617008315
 20
23.5849437053
 30
0.0
 10
6.8293033525
 20
24.0613604607
 30
0.0
 10
6.932053715
 20
24.548818733
 30
0.0
 10
7.0690373016
 20
25.0430248787
 30
0.0
 10
7.2390446229
 20
25.5396729864
 30
0.0
 10
7.4405943369
 20
26.0344089221
 30
0.0
 10
7.671921741
 20
26.5228960681
 30
0.0
 10
7.9309870773
 20
27.0008554917
 30
0.0
 10
8.215523106
 20
27.4640922662
 30
0.0
 10
8.5230410934
 20
27.9085370432
 30
0.0
 10
8.8508322125
 20
28.33030093
 30
0.0
 10
9.1960287851
 20
28.725687242
 30
0.0
 10
9.5556130646
 20
29.0912121089
 30
0.0
 10
9.9264433161
 20
29.4237154453
 30
0.0
 10
10.3052807697
 20
29.7202568916
 30
0.0
 10
10.5666160788
 20
29.8960157872
 30
0.0
 10
10.6978494763
 20
29.9768372434
 30
0.0
  0
SPLINE
  5
2D3
100
AcDbEntity
  8
0
100
AcDbSpline
 62
7
  6
BYLAYER
 70
0
 71
3
 72
17
 73
13
 74
0
 42
0.0000001
 43
0.0000001
 44
0.0000000001
 40
0.0
 40
0.0
 40
0.0
 40
0.0
 40
0.0547079481
 40
0.110981304
 40
0.1687171408
 40
0.2278222792
 40
0.349739615
 40
0.475855728
 40
0.6051116649
 40
0.7363621354
 40
0.8684007643
 40
1.0
 40
1.0
 40
1.0
 40
1.0
 10
13.0617793076
 20
28.6090358888
 30
0.0
 10
12.9826342435
 20
28.5633417375
 30
0.0
 10
12.8244657768
 20
28.4664558911
 30
0.0
 10
12.5914200734
 20
28.3077819989
 30
0.0
 10
12.3600042577
 20
28.1341938385
 30
0.0
 10
12.0516004583
 20
27.8811228593
 30
0.0
 10
11.6758034039
 20
27.5309225266
 30
0.0
 10
11.2486852237
 20
27.0667017434
 30
0.0
 10
10.8466521554
 20
26.5605462358
 30
0.0
 10
10.4752693168
 20
26.0194765679
 30
0.0
 10
10.1396847545
 20
25.4510005484
 30
0.0
 10
9.9419460195
 20
25.0570270556
 30
0.0
 10
9.85022662
 20
24.8572404682
 30
0.0
  0
SPLINE
  5
2D4
100
AcDbEntity
  8
0
100
AcDbSpline
 62
7
  6
BYLAYER
 70
0
 71
3
 72
24
 73
20
 74
0
 42
0.0000001
 43
0.0000001
 44
0.0000000001
 40
0.0
 40
0.0
 40
0.0
 40
0.0
 40
0.0771636486
 40
0.1533318024
 40
0.2281917927
 40
0.301449761
 40
0.3728354494
 40
0.4421064194
 40
0.5090571538
 40
0.5735214844
 40
0.6353840441
 40
0.6945855181
 40
0.7511320726
 40
0.8051065734
 40
0.8566736725
 40
0.9060915276
 40
0.9537112251
 40
0.9769941867
 40
1.0
 40
1.0
 40
1.0
 40
1.0
 10
9.85022662
 20
24.8572404682
 30
0.0
 10
9.7881803494
 20
24.7220889875
 30
0.0
 10
9.6712077085
 20
24.4505726213
 30
0.0
 10
9.5168684817
 20
24.0385829251
 30
0.0
 10
9.3855475205
 20
23.6265616652
 30
0.0
 10
9.2780876889
 20
23.2171958847
 30
0.0
 10
9.1951851325
 20
22.8131321555
 30
0.0
 10
9.1373964652
 20
22.4169801897
 30
0.0
 10
9.1050745272
 20
22.0313013062
 30
0.0
 10
9.098469573
 20
21.6585754949
 30
0.0
 10
9.1176185549
 20
21.30120073
 30
0.0
 10
9.162435177
 20
20.9614690052
 30
0.0
 10
9.2326863305
 20
20.6415632886
 30
0.0
 10
9.3279520564
 20
20.3435399981
 30
0.0
 10
9.4477465929
 20
20.0693442853
 30
0.0
 10
9.5913296003
 20
19.8208111825
 30
0.0
 10
9.7312646063
 20
19.6350526938
 30
0.0
 10
9.853881001
 20
19.5017889911
 30
0.0
 10
9.9185896107
 20
19.4402582737
 30
0.0
 10
9.951746032
 20
19.4108219302
 30
0.0
  0
SPLINE
  5
2D5
100
AcDbEntity
  8
0
100
AcDbSpline
 62
7
  6
BYLAYER
 70
0
 71
3
 72
20
 73
16
 74
0
 42
0.0000001
 43
0.0000001
 44
0.0000000001
 40
0.0
 40
0.0
 40
0.0
 40
0.0
 40
0.0539040491
 40
0.1080662174
 40
0.1627392182
 40
0.2181629858
 40
0.2745608186
 40
0.3321371256
 40
0.3910711355
 40
0.451519295
 40
0.513612084
 40
0.577450354
 40
0.7106113309
 40
0.8514710287
 40
1.0
 40
1.0
 40
1.0
 40
1.0
 10
15.8203066979
 20
29.1412437241
 30
0.0
 10
15.772831152
 20
29.1686509592
 30
0.0
 10
15.6752620153
 20
29.219568599
 30
0.0
 10
15.5224144747
 20
29.283519936
 30
0.0
 10
15.363280077
 20
29.3349512021
 30
0.0
 10
15.1982819729
 20
29.3737609367
 30
0.0
 10
15.0278233901
 20
29.3998643016
 30
0.0
 10
14.8523237137
 20
29.4131840658
 30
0.0
 10
14.6722122272
 20
29.413730404
 30
0.0
 10
14.4879241825
 20
29.401495726
 30
0.0
 10
14.2999026722
 20
29.376511449
 30
0.0
 10
14.0412310555
 20
29.325621259
 30
0.0
 10
13.7106045959
 20
29.2292385817
 30
0.0
 10
13.3123118127
 20
29.066215425
 30
0.0
 10
13.0511699005
 20
28.9295087263
 30
0.0
 10
12.9203573626
 20
28.8539845232
 30
0.0
  0
SPLINE
  5
2D6
100
AcDbEntity
  8
0
100
AcDbSpline
 62
7
  6
BYLAYER
 70
0
 71
3
 72
13
 73
9
 74
0
 42
0.0000001
 43
0.0000001
 44
0.0000000001
 40
0.0
 40
0.0
 40
0.0
 40
0.0
 40
0.1146567372
 40
0.2304446748
 40
0.3484391331
 40
0.4696205907
 40
0.724386249
 40
1.0
 40
1.0
 40
1.0
 40
1.0
 10
13.2954994526
 20
22.440999097
 30
0.0
 10
13.2805978168
 20
22.4496023644
 30
0.0
 10
13.2516826292
 20
22.4687595287
 30
0.0
 10
13.211818485
 20
22.5027832472
 30
0.0
 10
13.1755687231
 20
22.5419848006
 30
0.0
 10
13.1316095534
 20
22.6018397439
 30
0.0
 10
13.0868204807
 20
22.6895390288
 30
0.0
 10
13.0640073445
 20
22.7662275993
 30
0.0
 10
13.0551713573
 20
22.8066348411
 30
0.0
  0
SPLINE
  5
2D7
100
AcDbEntity
  8
0
100
AcDbSpline
 62
7
  6
BYLAYER
 70
0
 71
3
 72
9
 73
5
 74
0
 42
0.0000001
 43
0.0000001
 44
0.0000000001
 40
0.0
 40
0.0
 40
0.0
 40
0.0
 40
0.2427756056
 40
1.0
 40
1.0
 40
1.0
 40
1.0
 10
13.0551713573
 20
22.8066348411
 30
0.0
 10
13.0528849631
 20
22.8170905918
 30
0.0
 10
13.044301636
 20
22.8603388347
 30
0.0
 10
13.0389603086
 20
22.9042102584
 30
0.0
 10
13.0364955437
 20
22.9375015537
 30
0.0
  0
SPLINE
  5
2D8
100
AcDbEntity
  8
0
100
AcDbSpline
 62
7
  6
BYLAYER
 70
0
 71
3
 72
23
 73
19
 74
0
 42
0.0000001
 43
0.0000001
 44
0.0000000001
 40
0.0
 40
0.0
 40
0.0
 40
0.0
 40
0.05749991
 40
0.1191133253
 40
0.1836915242
 40
0.2501109418
 40
0.3174078594
 40
0.3848233581
 40
0.4517953329
 40
0.5179258664
 40
0.5829444395
 40
0.6466772179
 40
0.7090236296
 40
0.7699411598
 40
0.8294350667
 40
0.8875515131
 40
0.9443709753
 40
1.0
 40
1.0
 40
1.0
 40
1.0
 10
14.352254556
 20
24.8143599838
 30
0.0
 10
14.3109121217
 20
24.7904910608
 30
0.0
 10
14.2272427748
 20
24.7375863978
 30
0.0
 10
14.1038473016
 20
24.6478221352
 30
0.0
 10
13.980070897
 20
24.5464457126
 30
0.0
 10
13.8583111957
 20
24.4355364189
 30
0.0
 10
13.7405951721
 20
24.3170041571
 30
0.0
 10
13.6285623921
 20
24.1924685177
 30
0.0
 10
13.5235145556
 20
24.0632280495
 30
0.0
 10
13.4265053643
 20
23.9302974233
 30
0.0
 10
13.3384254853
 20
23.7944726466
 30
0.0
 10
13.2600680511
 20
23.6564035392
 30
0.0
 10
13.1921681707
 20
23.5166620211
 30
0.0
 10
13.1354174899
 20
23.3758017699
 30
0.0
 10
13.0904555506
 20
23.2344098351
 30
0.0
 10
13.05784441
 20
23.0931355467
 30
0.0
 10
13.0380306957
 20
22.9527411632
 30
0.0
 10
13.0335035135
 20
22.8593294693
 30
0.0
 10
13.0335038592
 20
22.8131446716
 30
0.0
  0
SPLINE
  5
2D9
100
AcDbEntity
  8
0
100
AcDbSpline
 62
7
  6
BYLAYER
 70
0
 71
3
 72
13
 73
9
 74
0
 42
0.0000001
 43
0.0000001
 44
0.0000000001
 40
0.0
 40
0.0
 40
0.0
 40
0.0
 40
0.278950506
 40
0.5345452949
 40
0.6552762232
 40
0.7723339951
 40
0.8868267465
 40
1.0
 40
1.0
 40
1.0
 40
1.0
 10
14.0798271574
 20
24.6420734263
 30
0.0
 10
14.1230063821
 20
24.6584214887
 30
0.0
 10
14.2083498375
 20
24.6835420235
 30
0.0
 10
14.3171624323
 20
24.6939934895
 30
0.0
 10
14.398760521
 20
24.6877766697
 30
0.0
 10
14.4560939147
 20
24.6763393456
 30
0.0
 10
14.5103150361
 20
24.6580920677
 30
0.0
 10
14.5442556581
 20
24.6414215142
 30
0.0
 10
14.5604779893
 20
24.6320557602
 30
0.0
  0
SPLINE
  5
2DA
100
AcDbEntity
  8
0
100
AcDbSpline
 62
7
  6
BYLAYER
 70
0
 71
3
 72
15
 73
11
 74
0
 42
0.0000001
 43
0.0000001
 44
0.0000000001
 40
0.0
 40
0.0
 40
0.0
 40
0.0
 40
0.1080119715
 40
0.2180608606
 40
0.3320050502
 40
0.4513559807
 40
0.57725962
 40
0.710499896
 40
0.8514742298
 40
1.0
 40
1.0
 40
1.0
 40
1.0
 10
14.5604779893
 20
24.6320557602
 30
0.0
 10
14.5812183101
 20
24.6200816032
 30
0.0
 10
14.621089096
 20
24.5922498179
 30
0.0
 10
14.6737890436
 20
24.5404044904
 30
0.0
 10
14.7190900761
 20
24.4788503937
 30
0.0
 10
14.7566216608
 20
24.4083188975
 30
0.0
 10
14.786050199
 20
24.3294961687
 30
0.0
 10
14.8071809726
 20
24.2431456954
 30
0.0
 10
14.8198077896
 20
24.1501199874
 30
0.0
 10
14.822475075
 20
24.0858878419
 30
0.0
 10
14.822475075
 20
24.0529562833
 30
0.0
  0
SPLINE
  5
2DB
100
AcDbEntity
  8
0
100
AcDbSpline
 62
7
  6
BYLAYER
 70
0
 71
3
 72
15
 73
11
 74
0
 42
0.0000001
 43
0.0000001
 44
0.0000000001
 40
0.0
 40
0.0
 40
0.0
 40
0.0
 40
0.1016596244
 40
0.2093865451
 40
0.3236898974
 40
0.4449076386
 40
0.5732246651
 40
0.7086453913
 40
0.8510314162
 40
1.0
 40
1.0
 40
1.0
 40
1.0
 10
8.4966338975
 20
19.3654127983
 30
0.0
 10
8.5168611623
 20
19.3289059527
 30
0.0
 10
8.5626436445
 20
19.2559462677
 30
0.0
 10
8.643603444
 20
19.1503650876
 30
0.0
 10
8.73839006
 20
19.045893425
 30
0.0
 10
8.8465965806
 20
18.9427553454
 30
0.0
 10
8.9678022505
 20
18.8411849098
 30
0.0
 10
9.101523842
 20
18.7414601596
 30
0.0
 10
9.2471670398
 20
18.6439420715
 30
0.0
 10
9.3495419763
 20
18.5819926176
 30
0.0
 10
9.4025070878
 20
18.551413888
 30
0.0
  0
SPLINE
  5
2DC
100
AcDbEntity
  8
0
100
AcDbSpline
 62
7
  6
BYLAYER
 70
0
 71
3
 72
26
 73
22
 74
0
 42
0.0000001
 43
0.0000001
 44
0.0000000001
 40
0.0
 40
0.0
 40
0.0
 40
0.0
 40
0.0742367425
 40
0.1493396777
 40
0.2246087972
 40
0.2994154552
 40
0.3731090346
 40
0.4450745534
 40
0.5147482066
 40
0.5816319034
 40
0.6453205518
 40
0.7055255538
 40
0.7342811188
 40
0.7621270978
 40
0.8151134669
 40
0.8647616741
 40
0.911569496
 40
0.9341581385
 40
0.9563396099
 40
0.9782413
 40
1.0
 40
1.0
 40
1.0
 40
1.0
 10
10.9715179355
 20
24.8098360104
 30
0.0
 10
11.1016553253
 20
24.7897043186
 30
0.0
 10
11.3649408207
 20
24.7583252747
 30
0.0
 10
11.7631043627
 20
24.7376577756
 30
0.0
 10
12.1627931783
 20
24.7433064651
 30
0.0
 10
12.5587420461
 20
24.7751638436
 30
0.0
 10
12.9458530802
 20
24.8328342728
 30
0.0
 10
13.3190951461
 20
24.9155621078
 30
0.0
 10
13.6736348542
 20
25.022278131
 30
0.0
 10
14.0048990217
 20
25.1516342073
 30
0.0
 10
14.3085955797
 20
25.3019644821
 30
0.0
 10
14.5389479102
 20
25.4453099712
 30
0.0
 10
14.705212151
 20
25.5691327788
 30
0.0
 10
14.8541423514
 20
25.6941995308
 30
0.0
 10
15.0174798797
 20
25.8592212634
 30
0.0
 10
15.1759776107
 20
26.0729106233
 30
0.0
 10
15.273298474
 20
26.2616162067
 30
0.0
 10
15.3274146824
 20
26.4149983393
 30
0.0
 10
15.3561935263
 20
26.5299019067
 30
0.0
 10
15.3735174818
 20
26.6455825575
 30
0.0
 10
15.3773706659
 20
26.7230848472
 30
0.0
 10
15.3773704434
 20
26.7616816582
 30
0.0
  0
SPLINE
  5
2DD
100
AcDbEntity
  8
0
100
AcDbSpline
 62
7
  6
BYLAYER
 70
0
 71
3
 72
22
 73
18
 74
0
 42
0.0000001
 43
0.0000001
 44
0.0000000001
 40
0.0
 40
0.0
 40
0.0
 40
0.0
 40
0.1588441551
 40
0.2343052368
 40
0.3068864285
 40
0.376500409
 40
0.4431186715
 40
0.5067946155
 40
0.5676615161
 40
0.6259504967
 40
0.6819903298
 40
0.7362087626
 40
0.7891219823
 40
0.841323183
 40
0.893459946
 40
0.9461688949
 40
1.0
 40
1.0
 40
1.0
 40
1.0
 10
13.571538772
 20
25.2900002502
 30
0.0
 10
13.7154612657
 20
25.3397088013
 30
0.0
 10
13.9242139739
 20
25.4244308898
 30
0.0
 10
14.185244793
 20
25.5604321825
 30
0.0
 10
14.3635226149
 20
25.6691638688
 30
0.0
 10
14.526536535
 20
25.7856483593
 30
0.0
 10
14.67327336
 20
25.9092374671
 30
0.0
 10
14.8028428971
 20
26.0391692945
 30
0.0
 10
14.9144160419
 20
26.1747009463
 30
0.0
 10
15.0072799276
 20
26.3150253946
 30
0.0
 10
15.0808044872
 20
26.4593126142
 30
0.0
 10
15.1344486536
 20
26.6066788283
 30
0.0
 10
15.1678377109
 20
26.7561762408
 30
0.0
 10
15.1806508115
 20
26.9068357455
 30
0.0
 10
15.1728020019
 20
27.0576484603
 30
0.0
 10
15.1443241512
 20
27.207505023
 30
0.0
 10
15.1122499165
 20
27.3048066117
 30
0.0
 10
15.0931242948
 20
27.3527328306
 30
0.0
  0
SPLINE
  5
2DE
100
AcDbEntity
  8
0
100
AcDbSpline
 62
7
  6
BYLAYER
 70
0
 71
3
 72
15
 73
11
 74
0
 42
0.0000001
 43
0.0000001
 44
0.0000000001
 40
0.0
 40
0.0
 40
0.0
 40
0.0
 40
0.1485249588
 40
0.2894986556
 40
0.4227385334
 40
0.5486420441
 40
0.6679931309
 40
0.7819377483
 40
0.8919872751
 40
1.0
 40
1.0
 40
1.0
 40
1.0
 10
13.9279887209
 20
22.5036518709
 30
0.0
 10
13.8994704002
 20
22.4871869091
 30
0.0
 10
13.8425125663
 20
22.4573822387
 30
0.0
 10
13.7556403069
 20
22.4218062343
 30
0.0
 10
13.6702968457
 20
22.3969318868
 30
0.0
 10
13.5873234893
 20
22.3830068572
 30
0.0
 10
13.5074787186
 20
22.3802442416
 30
0.0
 10
13.4315234934
 20
22.3886982041
 30
0.0
 10
13.3602763799
 20
22.4084135394
 30
0.0
 10
13.3162390946
 20
22.4290253318
 30
0.0
 10
13.2954994526
 20
22.440999097
 30
0.0
  0
SPLINE
  5
2DF
100
AcDbEntity
  8
0
100
AcDbSpline
 62
7
  6
BYLAYER
 70
0
 71
3
 72
43
 73
39
 74
0
 42
0.0000001
 43
0.0000001
 44
0.0000000001
 40
0.0
 40
0.0
 40
0.0
 40
0.0
 40
0.0344751869
 40
0.070528475
 40
0.1080696794
 40
0.1468906834
 40
0.1867277525
 40
0.2273040254
 40
0.2683525046
 40
0.3096226534
 40
0.3508777241
 40
0.3918886709
 40
0.4324272182
 40
0.4722611092
 40
0.5111520644
 40
0.5488577724
 40
0.5851376459
 40
0.6197617042
 40
0.6525218974
 40
0.6832435587
 40
0.7117961226
 40
0.7381026711
 40
0.7621510325
 40
0.7840106833
 40
0.8038616419
 40
0.8220408544
 40
0.8306778973
 40
0.8391252365
 40
0.8474915207
 40
0.8558981295
 40
0.8644757049
 40
0.8733569708
 40
0.8925130855
 40
0.903039701
 40
0.9143134458
 40
0.9393456581
 40
0.9679247063
 40
1.0
 40
1.0
 40
1.0
 40
1.0
 10
14.352254556
 20
21.7688059679
 30
0.0
 10
14.3927477611
 20
21.7921845913
 30
0.0
 10
14.4717339422
 20
21.8469334808
 30
0.0
 10
14.5792111675
 20
21.9471998147
 30
0.0
 10
14.6770565721
 20
22.0645809405
 30
0.0
 10
14.7646096028
 20
22.1959219456
 30
0.0
 10
14.8418691265
 20
22.3381980324
 30
0.0
 10
14.9092236047
 20
22.4886826175
 30
0.0
 10
14.9672996416
 20
22.6450225957
 30
0.0
 10
15.0168254754
 20
22.8052147624
 30
0.0
 10
15.0585459145
 20
22.9675433261
 30
0.0
 10
15.0931692434
 20
23.130504796
 30
0.0
 10
15.1213376268
 20
23.2927399214
 30
0.0
 10
15.1436113693
 20
23.4529801335
 30
0.0
 10
15.16046001
 20
23.6100136313
 30
0.0
 10
15.1722565861
 20
23.7626710185
 30
0.0
 10
15.1792729606
 20
23.909828988
 30
0.0
 10
15.1816761848
 20
24.050427796
 30
0.0
 10
15.1795257896
 20
24.1834954292
 30
0.0
 10
15.1727719907
 20
24.3081706724
 30
0.0
 10
15.1612564581
 20
24.4237161138
 30
0.0
 10
15.1447103082
 20
24.5295188463
 30
0.0
 10
15.1227530602
 20
24.6250727381
 30
0.0
 10
15.0948625684
 20
24.7099592268
 30
0.0
 10
15.0603815427
 20
24.7837618138
 30
0.0
 10
15.0247550558
 20
24.8365304316
 30
0.0
 10
14.9922821796
 20
24.8717528921
 30
0.0
 10
14.9662200144
 20
24.8944981412
 30
0.0
 10
14.9379491104
 20
24.9138959605
 30
0.0
 10
14.907383642
 20
24.9298243054
 30
0.0
 10
14.874449367
 20
24.9421581644
 30
0.0
 10
14.8261070471
 20
24.9539523373
 30
0.0
 10
14.7734595758
 20
24.9573817295
 30
0.0
 10
14.718023274
 20
24.9533021994
 30
0.0
 10
14.655227449
 20
24.9432673503
 30
0.0
 10
14.5702541124
 20
24.9192570435
 30
0.0
 10
14.4627316083
 20
24.8746664403
 30
0.0
 10
14.3899289406
 20
24.8361111701
 30
0.0
 10
14.352254556
 20
24.8143599838
 30
0.0
  0
SPLINE
  5
2E0
100
AcDbEntity
  8
0
100
AcDbSpline
 62
7
  6
BYLAYER
 70
0
 71
3
 72
23
 73
19
 74
0
 42
0.0000001
 43
0.0000001
 44
0.0000000001
 40
0.0
 40
0.0
 40
0.0
 40
0.0
 40
0.0558120963
 40
0.1141796495
 40
0.1747917028
 40
0.2373542753
 40
0.3015484278
 40
0.366993801
 40
0.4332848381
 40
0.5000015996
 40
0.5667183051
 40
0.6330091756
 40
0.6984542746
 40
0.7626480511
 40
0.8252101535
 40
0.885821653
 40
0.9441885816
 40
1.0
 40
1.0
 40
1.0
 40
1.0
 10
14.822475075
 20
24.0529562833
 30
0.0
 10
14.822475075
 20
24.0183675836
 30
0.0
 10
14.8193902309
 20
23.947581396
 30
0.0
 10
14.8063716081
 20
23.8399495123
 30
0.0
 10
14.7849184773
 20
23.7294137662
 30
0.0
 10
14.7552789344
 20
23.6170590362
 30
0.0
 10
14.7177125112
 20
23.5039454251
 30
0.0
 10
14.6726073956
 20
23.3911333351
 30
0.0
 10
14.6203590706
 20
23.2797203127
 30
0.0
 10
14.5615009056
 20
23.1707586007
 30
0.0
 10
14.496566941
 20
23.0653048526
 30
0.0
 10
14.4262052401
 20
22.9643498902
 30
0.0
 10
14.3510603808
 20
22.8688817467
 30
0.0
 10
14.2718851178
 20
22.7797916927
 30
0.0
 10
14.1894036844
 20
22.6979461076
 30
0.0
 10
14.1044043822
 20
22.6240998003
 30
0.0
 10
14.0177026861
 20
22.5590100624
 30
0.0
 10
13.9579430944
 20
22.5209459333
 30
0.0
 10
13.9279887209
 20
22.5036518709
 30
0.0
  0
SPLINE
  5
2E1
100
AcDbEntity
  8
0
100
AcDbSpline
 62
7
  6
BYLAYER
 70
0
 71
3
 72
9
 73
5
 74
0
 42
0.0000001
 43
0.0000001
 44
0.0000000001
 40
0.0
 40
0.0
 40
0.0
 40
0.0
 40
0.5041418435
 40
1.0
 40
1.0
 40
1.0
 40
1.0
 10
13.0335038592
 20
22.8131446716
 30
0.0
 10
13.0335041803
 20
22.7702502405
 30
0.0
 10
13.037335502
 20
22.6851174852
 30
0.0
 10
13.0491240956
 20
22.6007078235
 30
0.0
 10
13.0569684155
 20
22.5592538636
 30
0.0
  0
SPLINE
  5
2E2
100
AcDbEntity
  8
0
100
AcDbSpline
 62
7
  6
BYLAYER
 70
0
 71
3
 72
21
 73
17
 74
0
 42
0.0000001
 43
0.0000001
 44
0.0000000001
 40
0.0
 40
0.0
 40
0.0
 40
0.0
 40
0.0653507754
 40
0.1298958366
 40
0.2567470408
 40
0.3811420679
 40
0.442595512
 40
0.5035666445
 40
0.5641376539
 40
0.6244450512
 40
0.6847065339
 40
0.7452446168
 40
0.8064976158
 40
0.8690024499
 40
0.9333305871
 40
1.0
 40
1.0
 40
1.0
 40
1.0
 10
13.0569684155
 20
22.5592538636
 30
0.0
 10
13.064172418
 20
22.5211837144
 30
0.0
 10
13.0818638191
 20
22.4460967035
 30
0.0
 10
13.1300973895
 20
22.3015451864
 30
0.0
 10
13.2135657053
 20
22.132675722
 30
0.0
 10
13.3264341206
 20
21.9839845304
 30
0.0
 10
13.4317491767
 20
21.8820523305
 30
0.0
 10
13.5174632505
 20
21.8151713876
 30
0.0
 10
13.609615513
 20
21.7587355926
 30
0.0
 10
13.7075649189
 20
21.7140075366
 30
0.0
 10
13.8105220839
 20
21.682387409
 30
0.0
 10
13.9174882735
 20
21.6653544968
 30
0.0
 10
14.0271725773
 20
21.6643552508
 30
0.0
 10
14.1379587605
 20
21.6806137538
 30
0.0
 10
14.2479191926
 20
21.7148483782
 30
0.0
 10
14.3180226289
 20
21.7490422736
 30
0.0
 10
14.352254556
 20
21.7688059679
 30
0.0
  0
SPLINE
  5
2E3
100
AcDbEntity
  8
0
100
AcDbSpline
 62
7
  6
BYLAYER
 70
0
 71
3
 72
11
 73
7
 74
0
 42
0.0000001
 43
0.0000001
 44
0.0000000001
 40
0.0
 40
0.0
 40
0.0
 40
0.0
 40
0.2522080473
 40
0.5041393507
 40
0.753986681
 40
1.0
 40
1.0
 40
1.0
 40
1.0
 10
10.8160681393
 20
21.125320617
 30
0.0
 10
10.7153962833
 20
20.9697244349
 30
0.0
 10
10.5237374033
 20
20.6523921507
 30
0.0
 10
10.2667251538
 20
20.1611963281
 30
0.0
 10
10.0425171893
 20
19.6591607862
 30
0.0
 10
9.915223799
 20
19.3174360415
 30
0.0
 10
9.8578198317
 20
19.1460203564
 30
0.0
  0
SPLINE
  5
2E4
100
AcDbEntity
  8
0
100
AcDbSpline
 62
7
  6
BYLAYER
 70
0
 71
3
 72
19
 73
15
 74
0
 42
0.0000001
 43
0.0000001
 44
0.0000000001
 40
0.0
 40
0.0
 40
0.0
 40
0.0
 40
0.1447200733
 40
0.2827239254
 40
0.4141578417
 40
0.4775926405
 40
0.5396055282
 40
0.659736038
 40
0.7181617926
 40
0.7756702295
 40
0.8324271955
 40
0.8886090952
 40
0.9444023206
 40
1.0
 40
1.0
 40
1.0
 40
1.0
 10
5.6244258361
 20
9.9185199544
 30
0.0
 10
5.4876911633
 20
10.0174414738
 30
0.0
 10
5.2281394489
 20
10.2215230039
 30
0.0
 10
4.8762682976
 20
10.5533198848
 30
0.0
 10
4.6211201681
 20
10.8469023131
 30
0.0
 10
4.4439110893
 20
11.0886160569
 30
0.0
 10
4.2880260058
 20
11.3289878278
 30
0.0
 10
4.1564463968
 20
11.577743239
 30
0.0
 10
4.0521748609
 20
11.8326966692
 30
0.0
 10
3.9885658331
 20
12.0239427618
 30
0.0
 10
3.9389555384
 20
12.2165843195
 30
0.0
 10
3.903445412
 20
12.4102941545
 30
0.0
 10
3.8821292251
 20
12.6047070358
 30
0.0
 10
3.8773840486
 20
12.7346550195
 30
0.0
 10
3.8773823251
 20
12.7994903747
 30
0.0
  0
SPLINE
  5
2E5
100
AcDbEntity
  8
0
100
AcDbSpline
 62
7
  6
BYLAYER
 70
0
 71
3
 72
11
 73
7
 74
0
 42
0.0000001
 43
0.0000001
 44
0.0000000001
 40
0.0
 40
0.0
 40
0.0
 40
0.0
 40
0.2403948923
 40
0.4866294971
 40
0.7396026693
 40
1.0
 40
1.0
 40
1.0
 40
1.0
 10
5.9068508189
 20
24.3414991399
 30
0.0
 10
5.9440756495
 20
24.4216013757
 30
0.0
 10
6.0275188169
 20
24.5801048561
 30
0.0
 10
6.1759520568
 20
24.8081523485
 30
0.0
 10
6.3480364855
 20
25.0282967944
 30
0.0
 10
6.4759352277
 20
25.1672443737
 30
0.0
 10
6.54328522
 20
25.2352033018
 30
0.0
  0
SPLINE
  5
2E6
100
AcDbEntity
  8
0
100
AcDbSpline
 62
7
  6
BYLAYER
 70
0
 71
3
 72
18
 73
14
 74
0
 42
0.0000001
 43
0.0000001
 44
0.0000000001
 40
0.0
 40
0.0
 40
0.0
 40
0.0
 40
0.0571771349
 40
0.1144079795
 40
0.1719034199
 40
0.2298333516
 40
0.2883174311
 40
0.3474636336
 40
0.4682273581
 40
0.5931951137
 40
0.7231455031
 40
0.8586869967
 40
1.0
 40
1.0
 40
1.0
 40
1.0
 10
18.227370518
 20
6.430771473
 30
0.0
 10
18.227370518
 20
6.3621558026
 30
0.0
 10
18.2215876272
 20
6.224790869
 30
0.0
 10
18.195696648
 20
6.0199004573
 30
0.0
 10
18.1527804689
 20
5.8169563099
 30
0.0
 10
18.0932011895
 20
5.6167138472
 30
0.0
 10
18.0174501869
 20
5.4198905331
 30
0.0
 10
17.8946442281
 20
5.1612483093
 30
0.0
 10
17.7017620123
 20
4.8488165338
 30
0.0
 10
17.4157505592
 20
4.4988559091
 30
0.0
 10
17.0777334791
 20
4.172908002
 30
0.0
 10
16.6917325872
 20
3.8727410929
 30
0.0
 10
16.4108249444
 20
3.6943409748
 30
0.0
 10
16.2639612908
 20
3.609549711
 30
0.0
  0
SPLINE
  5
2E7
100
AcDbEntity
  8
0
100
AcDbSpline
 62
7
  6
BYLAYER
 70
0
 71
3
 72
32
 73
28
 74
0
 42
0.0000001
 43
0.0000001
 44
0.0000000001
 40
0.0
 40
0.0
 40
0.0
 40
0.0
 40
0.0213512884
 40
0.0428916436
 40
0.0648011969
 40
0.0872456129
 40
0.1103688881
 40
0.1342927206
 40
0.1848546889
 40
0.2116531914
 40
0.239489159
 40
0.2683672154
 40
0.298273073
 40
0.3291778786
 40
0.3610366313
 40
0.3937939827
 40
0.4273817258
 40
0.4617237965
 40
0.4967350458
 40
0.5683780441
 40
0.6415320058
 40
0.7153441144
 40
0.7889405286
 40
0.8614503993
 40
0.93205352
 40
0.9664136647
 40
1.0
 40
1.0
 40
1.0
 40
1.0
 10
18.2273656483
 20
9.0435792038
 30
0.0
 10
18.2273687909
 20
8.9618411211
 30
0.0
 10
18.2178088602
 20
8.7974846565
 30
0.0
 10
18.1749541557
 20
8.5526228494
 30
0.0
 10
18.1038188835
 20
8.310061711
 30
0.0
 10
18.0047416784
 20
8.0709924889
 30
0.0
 10
17.878287317
 20
7.8364336536
 30
0.0
 10
17.6701760191
 20
7.525525962
 30
0.0
 10
17.4116422036
 20
7.2337334371
 30
0.0
 10
17.112463909
 20
6.9638524037
 30
0.0
 10
16.8603768314
 20
6.7667654916
 30
0.0
 10
16.5861754787
 20
6.5799155317
 30
0.0
 10
16.2910495827
 20
6.4040517511
 30
0.0
 10
15.9763009292
 20
6.2399920206
 30
0.0
 10
15.6433434264
 20
6.0884030401
 30
0.0
 10
15.2936323035
 20
5.9500085751
 30
0.0
 10
14.9287398487
 20
5.825364894
 30
0.0
 10
14.5502645762
 20
5.7150676109
 30
0.0
 10
14.0258167592
 20
5.5867789829
 30
0.0
 10
13.3473012541
 20
5.4658964203
 30
0.0
 10
12.5134988371
 20
5.3850089579
 30
0.0
 10
11.6684522111
 20
5.3685948773
 30
0.0
 10
10.8270926975
 20
5.4169664701
 30
0.0
 10
10.0042544907
 20
5.529238416
 30
0.0
 10
9.339915375
 20
5.6757724461
 30
0.0
 10
8.8304890512
 20
5.8239675479
 30
0.0
 10
8.5841725236
 20
5.9079250237
 30
0.0
 10
8.4635111621
 20
5.9523418809
 30
0.0
  0
SPLINE
  5
2E8
100
AcDbEntity
  8
0
100
AcDbSpline
 62
7
  6
BYLAYER
 70
0
 71
3
 72
18
 73
14
 74
0
 42
0.0000001
 43
0.0000001
 44
0.0000000001
 40
0.0
 40
0.0
 40
0.0
 40
0.0
 40
0.1391665152
 40
0.273125854
 40
0.4022416491
 40
0.5270904596
 40
0.5881663255
 40
0.6484747591
 40
0.7671124035
 40
0.8256955496
 40
0.8839263637
 40
0.941968956
 40
1.0
 40
1.0
 40
1.0
 40
1.0
 10
7.1622284473
 20
3.8141288727
 30
0.0
 10
7.0384866904
 20
3.8972428883
 30
0.0
 10
6.8022106416
 20
4.0704995029
 30
0.0
 10
6.4793365637
 20
4.3567729788
 30
0.0
 10
6.1976712832
 20
4.6633059771
 30
0.0
 10
5.9983259617
 20
4.9366521398
 30
0.0
 10
5.8634651741
 20
5.1635073657
 30
0.0
 10
5.7466395358
 20
5.3926736844
 30
0.0
 10
5.6540848636
 20
5.6307176267
 30
0.0
 10
5.5885475368
 20
5.8744346071
 30
0.0
 10
5.5533550942
 20
6.0585779756
 30
0.0
 10
5.5321140849
 20
6.24423288
 30
0.0
 10
5.527370518
 20
6.3686134365
 30
0.0
 10
5.527370518
 20
6.430771473
 30
0.0
  0
SPLINE
  5
2E9
100
AcDbEntity
  8
0
100
AcDbSpline
 62
7
  6
BYLAYER
 70
0
 71
3
 72
9
 73
5
 74
0
 42
0.0000001
 43
0.0000001
 44
0.0000000001
 40
0.0
 40
0.0
 40
0.0
 40
0.0
 40
0.4942414677
 40
1.0
 40
1.0
 40
1.0
 40
1.0
 10
7.5624000985
 20
3.5688465837
 30
0.0
 10
7.494897875
 20
3.606609077
 30
0.0
 10
7.3598253882
 20
3.6857261567
 30
0.0
 10
7.2279044587
 20
3.7700146322
 30
0.0
 10
7.1622013259
 20
3.814147614
 30
0.0
  0
SPLINE
  5
2EA
100
AcDbEntity
  8
0
100
AcDbSpline
 62
7
  6
BYLAYER
 70
0
 71
3
 72
23
 73
19
 74
0
 42
0.0000001
 43
0.0000001
 44
0.0000000001
 40
0.0
 40
0.0
 40
0.0
 40
0.0
 40
0.0567813319
 40
0.1156759897
 40
0.1764550151
 40
0.2389195075
 40
0.302801439
 40
0.3677798928
 40
0.4335096599
 40
0.4996282761
 40
0.5657600689
 40
0.631530657
 40
0.6965740229
 40
0.7605440668
 40
0.8231235895
 40
0.8840335658
 40
0.9430483282
 40
1.0
 40
1.0
 40
1.0
 40
1.0
 10
16.2238043411
 20
3.5865698483
 30
0.0
 10
16.0757520458
 20
3.5025948345
 30
0.0
 10
15.7668544121
 20
3.344111555
 30
0.0
 10
15.279057583
 20
3.1384572499
 30
0.0
 10
14.7620092408
 20
2.9617696586
 30
0.0
 10
14.2201704785
 20
2.8152319039
 30
0.0
 10
13.6580320967
 20
2.6997916744
 30
0.0
 10
13.0803856664
 20
2.6163777368
 30
0.0
 10
12.4922454149
 20
2.5655793572
 30
0.0
 10
11.8987296949
 20
2.5478046113
 30
0.0
 10
11.3050258998
 20
2.5632032361
 30
0.0
 10
10.7163276831
 20
2.6116241316
 30
0.0
 10
10.1377676042
 20
2.6927324722
 30
0.0
 10
9.5743443977
 20
2.8058739512
 30
0.0
 10
9.0308843599
 20
2.950227392
 30
0.0
 10
8.5119609512
 20
3.1247869447
 30
0.0
 10
8.0219199783
 20
3.3283431024
 30
0.0
 10
7.7113779206
 20
3.4855092912
 30
0.0
 10
7.562386601
 20
3.5688576925
 30
0.0
  0
SPLINE
  5
2EB
100
AcDbEntity
  8
0
100
AcDbSpline
 62
7
  6
BYLAYER
 70
0
 71
3
 72
11
 73
7
 74
0
 42
0.0000001
 43
0.0000001
 44
0.0000000001
 40
0.0
 40
0.0
 40
0.0
 40
0.0
 40
0.253335065
 40
0.5060615403
 40
0.7557373591
 40
1.0
 40
1.0
 40
1.0
 40
1.0
 10
11.5740468893
 20
21.4081513052
 30
0.0
 10
11.7137363876
 20
21.4015019052
 30
0.0
 10
11.9933018764
 20
21.3974331892
 30
0.0
 10
12.41024138
 20
21.4186380194
 30
0.0
 10
12.8198837197
 20
21.46690414
 30
0.0
 10
13.0881269146
 20
21.5172804112
 30
0.0
 10
13.2196518076
 20
21.5469937056
 30
0.0
  0
SPLINE
  5
2EC
100
AcDbEntity
  8
0
100
AcDbSpline
 62
7
  6
BYLAYER
 70
0
 71
3
 72
11
 73
7
 74
0
 42
0.0000001
 43
0.0000001
 44
0.0000000001
 40
0.0
 40
0.0
 40
0.0
 40
0.0
 40
0.2724417779
 40
0.5264155769
 40
0.767039158
 40
1.0
 40
1.0
 40
1.0
 40
1.0
 10
15.2283029462
 20
22.6875761557
 30
0.0
 10
15.2634121229
 20
22.7393791403
 30
0.0
 10
15.3252106324
 20
22.8437947991
 30
0.0
 10
15.3932066782
 20
23.0070012296
 30
0.0
 10
15.4334207965
 20
23.169887975
 30
0.0
 10
15.442370518
 20
23.2788606579
 30
0.0
 10
15.442370518
 20
23.3323715076
 30
0.0
  0
SPLINE
  5
2ED
100
AcDbEntity
  8
0
100
AcDbSpline
 62
7
  6
BYLAYER
 70
0
 71
3
 72
15
 73
11
 74
0
 42
0.0000001
 43
0.0000001
 44
0.0000000001
 40
0.0
 40
0.0
 40
0.0
 40
0.0
 40
0.1407149237
 40
0.2758888266
 40
0.4057713266
 40
0.5308913099
 40
0.651963983
 40
0.7698402738
 40
0.8854907774
 40
1.0
 40
1.0
 40
1.0
 40
1.0
 10
6.5231422924
 20
7.0725890268
 30
0.0
 10
6.4440786371
 20
7.1441795663
 30
0.0
 10
6.2943462813
 20
7.2905449077
 30
0.0
 10
6.0930116295
 20
7.5235613562
 30
0.0
 10
5.9206998748
 20
7.7644809232
 30
0.0
 10
5.7783438999
 20
8.0120273212
 30
0.0
 10
5.6667519363
 20
8.2650200494
 30
0.0
 10
5.586506404
 20
8.5221818918
 30
0.0
 10
5.5381619236
 20
8.7821396369
 30
0.0
 10
5.5273787247
 20
8.9567831154
 30
0.0
 10
5.5273753877
 20
9.0435792119
 30
0.0
  0
SPLINE
  5
2EE
100
AcDbEntity
  8
0
100
AcDbSpline
 62
7
  6
BYLAYER
 70
0
 71
3
 72
11
 73
7
 74
0
 42
0.0000001
 43
0.0000001
 44
0.0000000001
 40
0.0
 40
0.0
 40
0.0
 40
0.0
 40
0.2634861211
 40
0.5177251305
 40
0.7630108013
 40
1.0
 40
1.0
 40
1.0
 40
1.0
 10
6.248966132
 20
8.9782036162
 30
0.0
 10
6.1739493424
 20
9.0452704852
 30
0.0
 10
6.0309482155
 20
9.1820937809
 30
0.0
 10
5.8356270862
 20
9.3987099969
 30
0.0
 10
5.6642701549
 20
9.6221436191
 30
0.0
 10
5.5649038112
 20
9.7775586688
 30
0.0
 10
5.5197281201
 20
9.8559840663
 30
0.0
  0
SPLINE
  5
2EF
100
AcDbEntity
  8
0
100
AcDbSpline
 62
7
  6
BYLAYER
 70
0
 71
3
 72
9
 73
5
 74
0
 42
0.0000001
 43
0.0000001
 44
0.0000000001
 40
0.0
 40
0.0
 40
0.0
 40
0.0
 40
0.253312381
 40
1.0
 40
1.0
 40
1.0
 40
1.0
 10
5.5197281201
 20
9.8559840663
 30
0.0
 10
5.5067867502
 20
9.8784503983
 30
0.0
 10
5.4568757223
 20
9.9678120716
 30
0.0
 10
5.4117786019
 20
10.0598756166
 30
0.0
 10
5.3811647885
 20
10.1299013838
 30
0.0
  0
SPLINE
  5
2F0
100
AcDbEntity
  8
0
100
AcDbSpline
 62
7
  6
BYLAYER
 70
0
 71
3
 72
15
 73
11
 74
0
 42
0.0000001
 43
0.0000001
 44
0.0000000001
 40
0.0
 40
0.0
 40
0.0
 40
0.0
 40
0.1256547803
 40
0.253181192
 40
0.3815050202
 40
0.5096277508
 40
0.6365080638
 40
0.7611365382
 40
0.882604781
 40
1.0
 40
1.0
 40
1.0
 40
1.0
 10
13.9093812331
 20
7.3906691438
 30
0.0
 10
13.6725932499
 20
7.3471586052
 30
0.0
 10
13.1923559596
 20
7.2757775839
 30
0.0
 10
12.4634129312
 20
7.2154771514
 30
0.0
 10
11.7273555061
 20
7.2016628013
 30
0.0
 10
10.9931442016
 20
7.2344485787
 30
0.0
 10
10.2695722436
 20
7.3134887422
 30
0.0
 10
9.565291119
 20
7.4377916002
 30
0.0
 10
8.8888791996
 20
7.6059025583
 30
0.0
 10
8.4534706499
 20
7.7485626212
 30
0.0
 10
8.2427146365
 20
7.827138421
 30
0.0
  0
SPLINE
  5
2F1
100
AcDbEntity
  8
0
100
AcDbSpline
 62
7
  6
BYLAYER
 70
0
 71
3
 72
37
 73
33
 74
0
 42
0.0000001
 43
0.0000001
 44
0.0000000001
 40
0.0
 40
0.0
 40
0.0
 40
0.0
 40
0.0213116057
 40
0.0428305599
 40
0.0647540016
 40
0.0872615723
 40
0.1105072836
 40
0.1346186278
 40
0.1596922817
 40
0.1857981346
 40
0.2129772976
 40
0.2412480438
 40
0.2706047697
 40
0.3010237048
 40
0.3324624305
 40
0.3648644088
 40
0.3981591276
 40
0.4322652171
 40
0.4670913304
 40
0.5025379745
 40
0.5748466927
 40
0.6483011719
 40
0.6851682398
 40
0.7219619563
 40
0.7585624099
 40
0.7948523056
 40
0.8307165303
 40
0.8660426924
 40
0.9007258484
 40
0.9346752476
 40
0.9678008006
 40
1.0
 40
1.0
 40
1.0
 40
1.0
 10
19.8773587109
 20
12.7994902785
 30
0.0
 10
19.8773615843
 20
12.6913998026
 30
0.0
 10
19.8640993207
 20
12.4739383315
 30
0.0
 10
19.8045697379
 20
12.1501996052
 30
0.0
 10
19.7058315348
 20
11.8298327887
 30
0.0
 10
19.5683889178
 20
11.5145649789
 30
0.0
 10
19.3931190349
 20
11.2058946393
 30
0.0
 10
19.1808879543
 20
10.9053688601
 30
0.0
 10
18.9328838108
 20
10.6143556733
 30
0.0
 10
18.650294512
 20
10.3342937856
 30
0.0
 10
18.3345877016
 20
10.066441393
 30
0.0
 10
17.9872675205
 20
9.8121324598
 30
0.0
 10
17.6100763673
 20
9.5725179947
 30
0.0
 10
17.2048231869
 20
9.348802511
 30
0.0
 10
16.7735118251
 20
9.1420120283
 30
0.0
 10
16.3182275261
 20
8.9531911094
 30
0.0
 10
15.8412079292
 20
8.7832173531
 30
0.0
 10
15.3447755349
 20
8.6329497062
 30
0.0
 10
14.8313562536
 20
8.503092384
 30
0.0
 10
14.1228836459
 20
8.3570944029
 30
0.0
 10
13.2114345598
 20
8.2301810106
 30
0.0
 10
12.2855445367
 20
8.177987145
 30
0.0
 10
11.5392274231
 20
8.1811063464
 30
0.0
 10
10.9803894447
 20
8.2060738246
 30
0.0
 10
10.425958438
 20
8.2535680587
 30
0.0
 10
9.878631984
 20
8.323325213
 30
0.0
 10
9.341105296
 20
8.4150436175
 30
0.0
 10
8.8160078715
 20
8.5282144558
 30
0.0
 10
8.3058969569
 20
8.6623475035
 30
0.0
 10
7.8132224757
 20
8.8167652283
 30
0.0
 10
7.3405118457
 20
8.9907345729
 30
0.0
 10
7.0356898238
 20
9.1210405356
 30
0.0
 10
6.8873641882
 20
9.1893786523
 30
0.0
  0
SPLINE
  5
2F2
100
AcDbEntity
  8
0
100
AcDbSpline
 62
7
  6
BYLAYER
 70
0
 71
3
 72
19
 73
15
 74
0
 42
0.0000001
 43
0.0000001
 44
0.0000000001
 40
0.0
 40
0.0
 40
0.0
 40
0.0
 40
0.0555969764
 40
0.111389804
 40
0.1675717674
 40
0.2243291012
 40
0.2818379749
 40
0.3402640271
 40
0.4603944746
 40
0.5224071569
 40
0.5858417407
 40
0.7172755346
 40
0.8552799226
 40
1.0
 40
1.0
 40
1.0
 40
1.0
 10
19.8773616048
 20
13.6159927467
 30
0.0
 10
19.8773599037
 20
13.6808272987
 30
0.0
 10
19.8726147935
 20
13.8107740387
 30
0.0
 10
19.8512981392
 20
14.0051857175
 30
0.0
 10
19.8157871474
 20
14.1988954734
 30
0.0
 10
19.7661767067
 20
14.3915380715
 30
0.0
 10
19.7025676487
 20
14.5827855675
 30
0.0
 10
19.5982959795
 20
14.8377398732
 30
0.0
 10
19.4667162022
 20
15.0864953407
 30
0.0
 10
19.3108309984
 20
15.3268664489
 30
0.0
 10
19.1336220242
 20
15.5685795731
 30
0.0
 10
18.878473695
 20
15.862162248
 30
0.0
 10
18.526602417
 20
16.1939598502
 30
0.0
 10
18.2670503172
 20
16.3980421294
 30
0.0
 10
18.1303151999
 20
16.4969631159
 30
0.0
  0
SPLINE
  5
2F3
100
AcDbEntity
  8
0
100
AcDbSpline
 62
7
  6
BYLAYER
 70
0
 71
3
 72
15
 73
11
 74
0
 42
0.0000001
 43
0.0000001
 44
0.0000000001
 40
0.0
 40
0.0
 40
0.0
 40
0.0
 40
0.1232931133
 40
0.247314481
 40
0.3721156289
 40
0.4975038825
 40
0.6232627122
 40
0.7491292846
 40
0.8747800793
 40
1.0
 40
1.0
 40
1.0
 40
1.0
 10
15.7080579253
 20
23.904055566
 30
0.0
 10
15.6902196844
 20
23.906610501
 30
0.0
 10
15.6538675971
 20
23.908363558
 30
0.0
 10
15.5996979015
 20
23.9009390574
 30
0.0
 10
15.5474550624
 20
23.8837528785
 30
0.0
 10
15.4989220504
 20
23.8573688482
 30
0.0
 10
15.4557112875
 20
23.8227055688
 30
0.0
 10
15.4193151331
 20
23.7808903646
 30
0.0
 10
15.3908988765
 20
23.7334030564
 30
0.0
 10
15.377903455
 20
23.6988654828
 30
0.0
 10
15.3730289515
 20
23.6812246568
 30
0.0
  0
SPLINE
  5
2F4
100
AcDbEntity
  8
0
100
AcDbSpline
 62
7
  6
BYLAYER
 70
0
 71
3
 72
11
 73
7
 74
0
 42
0.0000001
 43
0.0000001
 44
0.0000000001
 40
0.0
 40
0.0
 40
0.0
 40
0.0
 40
0.2830961164
 40
0.5426405281
 40
0.7801108243
 40
1.0
 40
1.0
 40
1.0
 40
1.0
 10
15.7292976428
 20
23.7606975678
 30
0.0
 10
15.739869299
 20
23.7668010431
 30
0.0
 10
15.7609267695
 20
23.7772165653
 30
0.0
 10
15.7932049768
 20
23.7872593005
 30
0.0
 10
15.8241305724
 20
23.7907337628
 30
0.0
 10
15.8439534268
 20
23.7884489955
 30
0.0
 10
15.8531446227
 20
23.7861203887
 30
0.0
  0
SPLINE
  5
2F5
100
AcDbEntity
  8
0
100
AcDbSpline
 62
7
  6
BYLAYER
 70
0
 71
3
 72
15
 73
11
 74
0
 42
0.0000001
 43
0.0000001
 44
0.0000000001
 40
0.0
 40
0.0
 40
0.0
 40
0.0
 40
0.1353425184
 40
0.2702163375
 40
0.402548791
 40
0.5311189051
 40
0.6550515221
 40
0.7740691253
 40
0.8887031776
 40
1.0
 40
1.0
 40
1.0
 40
1.0
 10
15.729300005
 20
23.760697681
 30
0.0
 10
15.7097356609
 20
23.7597663617
 30
0.0
 10
15.6707577267
 20
23.7547428024
 30
0.0
 10
15.6146462887
 20
23.7382172564
 30
0.0
 10
15.5628308671
 20
23.7131808556
 30
0.0
 10
15.5173130919
 20
23.6805941774
 30
0.0
 10
15.4797665905
 20
23.6416593021
 30
0.0
 10
15.4517190036
 20
23.5977214126
 30
0.0
 10
15.4343344479
 20
23.5505073095
 30
0.0
 10
15.4303010808
 20
23.5176954662
 30
0.0
 10
15.4303012684
 20
23.5015888129
 30
0.0
  0
SPLINE
  5
2F6
100
AcDbEntity
  8
0
100
AcDbSpline
 62
7
  6
BYLAYER
 70
0
 71
3
 72
18
 73
14
 74
0
 42
0.0000001
 43
0.0000001
 44
0.0000000001
 40
0.0
 40
0.0
 40
0.0
 40
0.0
 40
0.1246317654
 40
0.1873085775
 40
0.2500658112
 40
0.3755895123
 40
0.438514461
 40
0.5014203353
 40
0.6267859222
 40
0.7516649096
 40
0.8140337441
 40
0.8762950936
 40
1.0
 40
1.0
 40
1.0
 40
1.0
 10
15.8532135288
 20
23.7861016834
 30
0.0
 10
15.8301616095
 20
23.7961388655
 30
0.0
 10
15.7933864925
 20
23.8068925364
 30
0.0
 10
15.7430637035
 20
23.8116414117
 30
0.0
 10
15.69235126
 20
23.8100498054
 30
0.0
 10
15.642271815
 20
23.7989571943
 30
0.0
 10
15.5955564807
 20
23.7789644789
 30
0.0
 10
15.5517365074
 20
23.7532786755
 30
0.0
 10
15.5035771106
 20
23.7113269671
 30
0.0
 10
15.4673990668
 20
23.6588020494
 30
0.0
 10
15.447173914
 20
23.6125729622
 30
0.0
 10
15.4330289473
 20
23.5644145359
 30
0.0
 10
15.4294323555
 20
23.5265290183
 30
0.0
 10
15.4303012684
 20
23.5015888129
 30
0.0
  0
SPLINE
  5
2F7
100
AcDbEntity
  8
0
100
AcDbSpline
 62
7
  6
BYLAYER
 70
0
 71
3
 72
13
 73
9
 74
0
 42
0.0000001
 43
0.0000001
 44
0.0000000001
 40
0.0
 40
0.0
 40
0.0
 40
0.0
 40
0.2754748676
 40
0.5321468408
 40
0.6538596202
 40
0.7716674626
 40
0.8866023334
 40
1.0
 40
1.0
 40
1.0
 40
1.0
 10
15.4766410854
 20
22.7642171287
 30
0.0
 10
15.4519575251
 20
22.7697933504
 30
0.0
 10
15.402867543
 20
22.7753803862
 30
0.0
 10
15.3425897704
 20
22.7666062331
 30
0.0
 10
15.2999865901
 20
22.7499254623
 30
0.0
 10
15.2718365917
 20
22.7332544366
 30
0.0
 10
15.2475209394
 20
22.7125265006
 30
0.0
 10
15.2341446047
 20
22.6961961374
 30
0.0
 10
15.2283006128
 20
22.6875729399
 30
0.0
  0
SPLINE
  5
2F8
100
AcDbEntity
  8
0
100
AcDbSpline
 62
7
  6
BYLAYER
 70
0
 71
3
 72
17
 73
13
 74
0
 42
0.0000001
 43
0.0000001
 44
0.0000000001
 40
0.0
 40
0.0
 40
0.0
 40
0.0
 40
0.1814568347
 40
0.3541891904
 40
0.5134078952
 40
0.6547360499
 40
0.7744181744
 40
0.8698841409
 40
0.9088759642
 40
0.9427515837
 40
0.9725738312
 40
1.0
 40
1.0
 40
1.0
 40
1.0
 10
15.3337401238
 20
22.6178152319
 30
0.0
 10
15.3247008896
 20
22.6191854098
 30
0.0
 10
15.3070113089
 20
22.6215711739
 30
0.0
 10
15.2812516251
 20
22.6240202428
 30
0.0
 10
15.2574175055
 20
22.6250804217
 30
0.0
 10
15.2362255423
 20
22.6246004236
 30
0.0
 10
15.2183577777
 20
22.6225618215
 30
0.0
 10
15.2058760636
 20
22.6192931661
 30
0.0
 10
15.1982185561
 20
22.6155809175
 30
0.0
 10
15.193975099
 20
22.6125662332
 30
0.0
 10
15.1908692846
 20
22.6091232255
 30
0.0
 10
15.1895929218
 20
22.6064790657
 30
0.0
 10
15.1891976009
 20
22.6051549846
 30
0.0
  0
SPLINE
  5
2F9
100
AcDbEntity
  8
0
100
AcDbSpline
 62
7
  6
BYLAYER
 70
0
 71
3
 72
10
 73
6
 74
0
 42
0.0000001
 43
0.0000001
 44
0.0000000001
 40
0.0
 40
0.0
 40
0.0
 40
0.0
 40
0.2764021422
 40
0.6573238257
 40
1.0
 40
1.0
 40
1.0
 40
1.0
 10
13.2857599703
 20
21.4993188836
 30
0.0
 10
13.2941824368
 20
21.5041815679
 30
0.0
 10
13.3148281783
 20
21.5147123211
 30
0.0
 10
13.3483704933
 20
21.5260321171
 30
0.0
 10
13.374018566
 20
21.5286301243
 30
0.0
 10
13.3860649247
 20
21.5281162879
 30
0.0
  0
SPLINE
  5
2FA
100
AcDbEntity
  8
0
100
AcDbSpline
 62
7
  6
BYLAYER
 70
0
 71
3
 72
9
 73
5
 74
0
 42
0.0000001
 43
0.0000001
 44
0.0000000001
 40
0.0
 40
0.0
 40
0.0
 40
0.0
 40
0.2575689794
 40
1.0
 40
1.0
 40
1.0
 40
1.0
 10
13.3860649247
 20
21.5281162879
 30
0.0
 10
13.3891914069
 20
21.5279829281
 30
0.0
 10
13.4013037656
 20
21.5270147845
 30
0.0
 10
13.4132846695
 20
21.5241436036
 30
0.0
 10
13.4216995482
 20
21.5208951072
 30
0.0
  0
SPLINE
  5
2FB
100
AcDbEntity
  8
0
100
AcDbSpline
 62
7
  6
BYLAYER
 70
0
 71
3
 72
14
 73
10
 74
0
 42
0.0000001
 43
0.0000001
 44
0.0000000001
 40
0.0
 40
0.0
 40
0.0
 40
0.0
 40
0.3335682637
 40
0.4778890166
 40
0.607069081
 40
0.7216860253
 40
0.8234024019
 40
0.9148967678
 40
1.0
 40
1.0
 40
1.0
 40
1.0
 10
13.2857599703
 20
21.4993188836
 30
0.0
 10
13.280537978
 20
21.5070236542
 30
0.0
 10
13.2724965065
 20
21.517728628
 30
0.0
 10
13.2607544887
 20
21.5299632864
 30
0.0
 10
13.252518827
 20
21.5370293749
 30
0.0
 10
13.2444596458
 20
21.5423757221
 30
0.0
 10
13.2366080009
 20
21.5459677017
 30
0.0
 10
13.2289925542
 20
21.5477646225
 30
0.0
 10
13.2240011985
 20
21.5477125463
 30
0.0
 10
13.2216519716
 20
21.5473659
 30
0.0
  0
SPLINE
  5
2FC
100
AcDbEntity
  8
0
100
AcDbSpline
 62
7
  6
BYLAYER
 70
0
 71
3
 72
16
 73
12
 74
0
 42
0.0000001
 43
0.0000001
 44
0.0000000001
 40
0.0
 40
0.0
 40
0.0
 40
0.0
 40
0.4154278695
 40
0.5832705178
 40
0.7229435095
 40
0.8335303062
 40
0.8779100803
 40
0.9151116287
 40
0.9453147371
 40
0.9688951369
 40
1.0
 40
1.0
 40
1.0
 40
1.0
 10
11.5597828915
 20
21.3534429961
 30
0.0
 10
11.5609079025
 20
21.3613207322
 30
0.0
 10
11.5626239182
 20
21.3723649484
 30
0.0
 10
11.5652710376
 20
21.3859597476
 30
0.0
 10
11.5670710955
 20
21.3937655774
 30
0.0
 10
11.5686110229
 20
21.399199759
 30
0.0
 10
11.5698598761
 20
21.4026661023
 30
0.0
 10
11.5707025364
 20
21.4046320188
 30
0.0
 10
11.5715441774
 20
21.4061759563
 30
0.0
 10
11.5724656883
 20
21.4074747729
 30
0.0
 10
11.5734520593
 20
21.4081816465
 30
0.0
 10
11.5740471434
 20
21.4081519588
 30
0.0
  0
SPLINE
  5
2FD
100
AcDbEntity
  8
0
100
AcDbSpline
 62
7
  6
BYLAYER
 70
0
 71
3
 72
10
 73
6
 74
0
 42
0.0000001
 43
0.0000001
 44
0.0000000001
 40
0.0
 40
0.0
 40
0.0
 40
0.0
 40
0.5239897819
 40
0.7696726252
 40
1.0
 40
1.0
 40
1.0
 40
1.0
 10
11.4359359467
 20
21.2358592195
 30
0.0
 10
11.4533165566
 20
21.2603332906
 30
0.0
 10
11.4821260303
 20
21.2942040988
 30
0.0
 10
11.5256698734
 20
21.3315524011
 30
0.0
 10
11.5483556326
 20
21.3468440298
 30
0.0
 10
11.5597826544
 20
21.3534413362
 30
0.0
  0
SPLINE
  5
2FE
100
AcDbEntity
  8
0
100
AcDbSpline
 62
7
  6
BYLAYER
 70
0
 71
3
 72
15
 73
11
 74
0
 42
0.0000001
 43
0.0000001
 44
0.0000000001
 40
0.0
 40
0.0
 40
0.0
 40
0.0
 40
0.185741175
 40
0.3561326431
 40
0.509047119
 40
0.6430387855
 40
0.7570345918
 40
0.8515864345
 40
0.9302696293
 40
1.0
 40
1.0
 40
1.0
 40
1.0
 10
11.4358738279
 20
21.2357639145
 30
0.0
 10
11.4344984064
 20
21.2461086607
 30
0.0
 10
11.4322874401
 20
21.2660046183
 30
0.0
 10
11.4307809734
 20
21.2945880683
 30
0.0
 10
11.4315151769
 20
21.3203053755
 30
0.0
 10
11.434330044
 20
21.3426936955
 30
0.0
 10
11.438920215
 20
21.3614399283
 30
0.0
 10
11.4452643894
 20
21.376390552
 30
0.0
 10
11.4536953627
 20
21.3874006786
 30
0.0
 10
11.4610862533
 20
21.3918135387
 30
0.0
 10
11.4648025246
 20
21.3930537969
 30
0.0
  0
SPLINE
  5
2FF
100
AcDbEntity
  8
0
100
AcDbSpline
 62
7
  6
BYLAYER
 70
0
 71
3
 72
10
 73
6
 74
0
 42
0.0000001
 43
0.0000001
 44
0.0000000001
 40
0.0
 40
0.0
 40
0.0
 40
0.0
 40
0.254896163
 40
0.5065932916
 40
1.0
 40
1.0
 40
1.0
 40
1.0
 10
6.8873641882
 20
10.0058810694
 30
0.0
 10
6.8352703668
 20
10.0426715578
 30
0.0
 10
6.7309882214
 20
10.1147423487
 30
0.0
 10
6.5220108104
 20
10.2523487477
 30
0.0
 10
6.3628074611
 20
10.3495239771
 30
0.0
 10
6.2558950121
 20
10.411248512
 30
0.0
  0
SPLINE
  5
300
100
AcDbEntity
  8
0
100
AcDbSpline
 62
7
  6
BYLAYER
 70
0
 71
3
 72
13
 73
9
 74
0
 42
0.0000001
 43
0.0000001
 44
0.0000000001
 40
0.0
 40
0.0
 40
0.0
 40
0.0
 40
0.318364795
 40
0.462368795
 40
0.5944004721
 40
0.7139651547
 40
0.8209773863
 40
1.0
 40
1.0
 40
1.0
 40
1.0
 10
10.9316863832
 20
21.0713319877
 30
0.0
 10
10.9307924296
 20
21.0904331344
 30
0.0
 10
10.9308822112
 20
21.11829522
 30
0.0
 10
10.9346864197
 20
21.1538233557
 30
0.0
 10
10.9391093617
 20
21.1771936825
 30
0.0
 10
10.9451276658
 20
21.1979387508
 30
0.0
 10
10.9545956238
 20
21.2203639538
 30
0.0
 10
10.9647007623
 20
21.234923082
 30
0.0
 10
10.972851376
 20
21.2419364967
 30
0.0
  0
SPLINE
  5
301
100
AcDbEntity
  8
0
100
AcDbSpline
 62
7
  6
BYLAYER
 70
0
 71
3
 72
9
 73
5
 74
0
 42
0.0000001
 43
0.0000001
 44
0.0000000001
 40
0.0
 40
0.0
 40
0.0
 40
0.0
 40
0.5117537117
 40
1.0
 40
1.0
 40
1.0
 40
1.0
 10
10.972851376
 20
21.2419364967
 30
0.0
 10
10.9758928999
 20
21.2445536577
 30
0.0
 10
10.9823698009
 20
21.2490973943
 30
0.0
 10
10.9897472149
 20
21.2520020928
 30
0.0
 10
10.9934551559
 20
21.2529541433
 30
0.0
  0
SPLINE
  5
302
100
AcDbEntity
  8
0
100
AcDbSpline
 62
7
  6
BYLAYER
 70
0
 71
3
 72
15
 73
11
 74
0
 42
0.0000001
 43
0.0000001
 44
0.0000000001
 40
0.0
 40
0.0
 40
0.0
 40
0.0
 40
0.1406015005
 40
0.27570676
 40
0.4055598607
 40
0.5306753705
 40
0.6517690673
 40
0.7696929383
 40
0.8854130194
 40
1.0
 40
1.0
 40
1.0
 40
1.0
 10
6.6408738366
 20
12.1077551966
 30
0.0
 10
6.5643512289
 20
12.1774484352
 30
0.0
 10
6.4194351087
 20
12.3199158355
 30
0.0
 10
6.2246085256
 20
12.5466192156
 30
0.0
 10
6.0578718652
 20
12.7809375037
 30
0.0
 10
5.9201500135
 20
13.0216419264
 30
0.0
 10
5.8121878113
 20
13.2675759076
 30
0.0
 10
5.7345877735
 20
13.5175328766
 30
0.0
 10
5.6877971705
 20
13.770171129
 30
0.0
 10
5.6773815649
 20
13.9398914475
 30
0.0
 10
5.6773806307
 20
14.0242439505
 30
0.0
  0
SPLINE
  5
303
100
AcDbEntity
  8
0
100
AcDbSpline
 62
7
  6
BYLAYER
 70
0
 71
3
 72
10
 73
6
 74
0
 42
0.0000001
 43
0.0000001
 44
0.0000000001
 40
0.0
 40
0.0
 40
0.0
 40
0.0
 40
0.5547280288
 40
0.7914608363
 40
1.0
 40
1.0
 40
1.0
 40
1.0
 10
8.3102171844
 20
14.7145436368
 30
0.0
 10
8.321016422
 20
14.7135945441
 30
0.0
 10
8.3365166251
 20
14.7128699396
 30
0.0
 10
8.3560375723
 20
14.7140700272
 30
0.0
 10
8.3646596814
 20
14.7153847228
 30
0.0
 10
8.368640742
 20
14.7162565757
 30
0.0
  0
SPLINE
  5
304
100
AcDbEntity
  8
0
100
AcDbSpline
 62
7
  6
BYLAYER
 70
0
 71
3
 72
11
 73
7
 74
0
 42
0.0000001
 43
0.0000001
 44
0.0000000001
 40
0.0
 40
0.0
 40
0.0
 40
0.0
 40
0.3133546481
 40
0.5701723352
 40
0.7877819661
 40
1.0
 40
1.0
 40
1.0
 40
1.0
 10
8.368640742
 20
14.7162565757
 30
0.0
 10
8.3729186076
 20
14.7171934289
 30
0.0
 10
8.3806144611
 20
14.7194340224
 30
0.0
 10
8.3903646042
 20
14.7248439373
 30
0.0
 10
8.3967764601
 20
14.7323850692
 30
0.0
 10
8.3980622354
 20
14.73852852
 30
0.0
 10
8.398058791
 20
14.7414943453
 30
0.0
  0
SPLINE
  5
305
100
AcDbEntity
  8
0
100
AcDbSpline
 62
7
  6
BYLAYER
 70
0
 71
3
 72
24
 73
20
 74
0
 42
0.0000001
 43
0.0000001
 44
0.0000000001
 40
0.0
 40
0.0
 40
0.0
 40
0.0
 40
0.0600699509
 40
0.1226153088
 40
0.1872273748
 40
0.2534876048
 40
0.3209133658
 40
0.3889984
 40
0.4572220487
 40
0.525059293
 40
0.5919942098
 40
0.6575327003
 40
0.7212151163
 40
0.782629564
 40
0.8414279433
 40
0.8973435303
 40
0.9241720961
 40
0.9502273823
 40
1.0
 40
1.0
 40
1.0
 40
1.0
 10
6.8873641882
 20
10.0058810694
 30
0.0
 10
7.1165294239
 20
9.9002976984
 30
0.0
 10
7.5936919444
 20
9.7047125424
 30
0.0
 10
8.3426462492
 20
9.4626672731
 30
0.0
 10
9.1321586263
 20
9.2682786077
 30
0.0
 10
9.9530562885
 20
9.1237303618
 30
0.0
 10
10.7960285785
 20
9.0307011615
 30
0.0
 10
11.6513911496
 20
8.9902382811
 30
0.0
 10
12.5093439643
 20
9.0027986071
 30
0.0
 10
13.3600529265
 20
9.0682532198
 30
0.0
 10
14.1937662903
 20
9.1858543472
 30
0.0
 10
15.0009416941
 20
9.3542446051
 30
0.0
 10
15.7723478084
 20
9.5715029542
 30
0.0
 10
16.4991905092
 20
9.8351855167
 30
0.0
 10
17.1731461616
 20
10.1423016717
 30
0.0
 10
17.6913990328
 20
10.4355493488
 30
0.0
 10
18.0715670776
 20
10.6895218977
 30
0.0
 10
18.4173660306
 20
10.9473025584
 30
0.0
 10
18.6572074212
 20
11.1583168439
 30
0.0
 10
18.8050657947
 20
11.306121515
 30
0.0
  0
SPLINE
  5
306
100
AcDbEntity
  8
0
100
AcDbSpline
 62
7
  6
BYLAYER
 70
0
 71
3
 72
15
 73
11
 74
0
 42
0.0000001
 43
0.0000001
 44
0.0000000001
 40
0.0
 40
0.0
 40
0.0
 40
0.0
 40
0.1390265851
 40
0.2729646124
 40
0.4021986127
 40
0.5272395432
 40
0.6487306005
 40
0.7674304934
 40
0.8842068826
 40
1.0
 40
1.0
 40
1.0
 40
1.0
 10
18.8050657947
 20
11.306121515
 30
0.0
 10
18.8907262996
 20
11.3917509077
 30
0.0
 10
19.0527590979
 20
11.5662036995
 30
0.0
 10
19.2697930857
 20
11.8418015906
 30
0.0
 10
19.4552432559
 20
12.1251977039
 30
0.0
 10
19.6082038421
 20
12.4152136514
 30
0.0
 10
19.7280188588
 20
12.7105892613
 30
0.0
 10
19.814011089
 20
13.0100916386
 30
0.0
 10
19.8658297816
 20
13.3123118001
 30
0.0
 10
19.8773642516
 20
13.515113542
 30
0.0
 10
19.8773616048
 20
13.6159927467
 30
0.0
  0
SPLINE
  5
307
100
AcDbEntity
  8
0
100
AcDbSpline
 62
7
  6
BYLAYER
 70
0
 71
3
 72
13
 73
9
 74
0
 42
0.0000001
 43
0.0000001
 44
0.0000000001
 40
0.0
 40
0.0
 40
0.0
 40
0.0
 40
0.2632815238
 40
0.5190789805
 40
0.6434308733
 40
0.7651290312
 40
0.8840278523
 40
1.0
 40
1.0
 40
1.0
 40
1.0
 10
13.484063229
 20
19.8751340305
 30
0.0
 10
13.2808866045
 20
19.7418516728
 30
0.0
 10
12.8826885451
 20
19.4754089407
 30
0.0
 10
12.398663181
 20
19.1311264398
 30
0.0
 10
12.0296502744
 20
18.851137941
 30
0.0
 10
11.7666780119
 20
18.6405947379
 30
0.0
 10
11.5164577799
 20
18.4267434168
 30
0.0
 10
11.3576004079
 20
18.2791093826
 30
0.0
 10
11.2811455736
 20
18.2042021981
 30
0.0
  0
SPLINE
  5
308
100
AcDbEntity
  8
0
100
AcDbSpline
 62
7
  6
BYLAYER
 70
0
 71
3
 72
9
 73
5
 74
0
 42
0.0000001
 43
0.0000001
 44
0.0000000001
 40
0.0
 40
0.0
 40
0.0
 40
0.0
 40
0.4605421544
 40
1.0
 40
1.0
 40
1.0
 40
1.0
 10
15.4303212985
 20
23.5015205137
 30
0.0
 10
15.4247253583
 20
23.5126729585
 30
0.0
 10
15.4090141916
 20
23.5351183243
 30
0.0
 10
15.3893310144
 20
23.5538954167
 30
0.0
 10
15.3781867158
 20
23.5633518608
 30
0.0
  0
SPLINE
  5
309
100
AcDbEntity
  8
0
100
AcDbSpline
 62
7
  6
BYLAYER
 70
0
 71
3
 72
13
 73
9
 74
0
 42
0.0000001
 43
0.0000001
 44
0.0000000001
 40
0.0
 40
0.0
 40
0.0
 40
0.0
 40
0.1124163848
 40
0.2264157256
 40
0.3433551291
 40
0.4644037469
 40
0.7214309487
 40
1.0
 40
1.0
 40
1.0
 40
1.0
 10
6.5432829012
 20
25.2352022517
 30
0.0
 10
6.5492686732
 20
25.2412400645
 30
0.0
 10
6.5623944348
 20
25.25238711
 30
0.0
 10
6.5847965389
 20
25.2657355194
 30
0.0
 10
6.6096495212
 20
25.2755815561
 30
0.0
 10
6.6462595935
 20
25.2839846451
 30
0.0
 10
6.6965167217
 20
25.2846015425
 30
0.0
 10
6.7363648553
 20
25.2755871597
 30
0.0
 10
6.7563697614
 20
25.2689787969
 30
0.0
  0
SPLINE
  5
30A
100
AcDbEntity
  8
0
100
AcDbSpline
 62
7
  6
BYLAYER
 70
0
 71
3
 72
20
 73
16
 74
0
 42
0.0000001
 43
0.0000001
 44
0.0000000001
 40
0.0
 40
0.0
 40
0.0
 40
0.0
 40
0.010722563
 40
0.0178779343
 40
0.026629274
 40
0.0494278733
 40
0.0796951828
 40
0.1175935882
 40
0.1631567949
 40
0.2163031547
 40
0.2768672154
 40
0.4195037052
 40
0.5894510525
 40
0.7840672985
 40
1.0
 40
1.0
 40
1.0
 40
1.0
 10
10.8160716714
 20
21.1253272126
 30
0.0
 10
10.8163229852
 20
21.1257137289
 30
0.0
 10
10.8170628344
 20
21.1261278702
 30
0.0
 10
10.8181871098
 20
21.1263049928
 30
0.0
 10
10.8198601568
 20
21.1263242846
 30
0.0
 10
10.8224956585
 20
21.1259060581
 30
0.0
 10
10.8262795297
 20
21.1249065878
 30
0.0
 10
10.8309151997
 20
21.1233406532
 30
0.0
 10
10.8363911468
 20
21.1212129054
 30
0.0
 10
10.8426908046
 20
21.1185247067
 30
0.0
 10
10.8527193427
 20
21.1139495379
 30
0.0
 10
10.8671133535
 20
21.1068552093
 30
0.0
 10
10.8864253943
 20
21.0967215782
 30
0.0
 10
10.9083036114
 20
21.0847057674
 30
0.0
 10
10.9236460414
 20
21.0759745114
 30
0.0
 10
10.9316863832
 20
21.0713319877
 30
0.0
  0
SPLINE
  5
30B
100
AcDbEntity
  8
0
100
AcDbSpline
 62
7
  6
BYLAYER
 70
0
 71
3
 72
15
 73
11
 74
0
 42
0.0000001
 43
0.0000001
 44
0.0000000001
 40
0.0
 40
0.0
 40
0.0
 40
0.0
 40
0.1142595595
 40
0.2300219155
 40
0.3482047078
 40
0.4696270182
 40
0.5950071297
 40
0.724947871
 40
0.859879005
 40
1.0
 40
1.0
 40
1.0
 40
1.0
 10
5.531034289
 20
9.8581811241
 30
0.0
 10
5.5358403698
 20
9.7764480373
 30
0.0
 10
5.5550655362
 20
9.6123160078
 30
0.0
 10
5.6121706937
 20
9.3689194081
 30
0.0
 10
5.6972706613
 20
9.1283923821
 30
0.0
 10
5.8099430894
 20
8.8918760204
 30
0.0
 10
5.9496385864
 20
8.6603947968
 30
0.0
 10
6.1156992271
 20
8.4349416402
 30
0.0
 10
6.3073080771
 20
8.2165718115
 30
0.0
 10
6.4487145059
 20
8.0789596607
 30
0.0
 10
6.5231422924
 20
8.0115668065
 30
0.0
  0
SPLINE
  5
30C
100
AcDbEntity
  8
0
100
AcDbSpline
 62
7
  6
BYLAYER
 70
0
 71
3
 72
12
 73
8
 74
0
 42
0.0000001
 43
0.0000001
 44
0.0000000001
 40
0.0
 40
0.0
 40
0.0
 40
0.0
 40
0.2410774258
 40
0.3640879891
 40
0.488605741
 40
0.7417582146
 40
1.0
 40
1.0
 40
1.0
 40
1.0
 10
9.2723118826
 20
17.0195367247
 30
0.0
 10
9.4438731585
 20
17.089104856
 30
0.0
 10
9.6940962388
 20
17.2168730464
 30
0.0
 10
10.0106895478
 20
17.4183760893
 30
0.0
 10
10.3232462258
 20
17.6426277291
 30
0.0
 10
10.698948582
 20
17.9555976503
 30
0.0
 10
10.9807370657
 20
18.2296014405
 30
0.0
 10
11.1187165345
 20
18.3720401096
 30
0.0
  0
SPLINE
  5
30D
100
AcDbEntity
  8
0
100
AcDbSpline
 62
7
  6
BYLAYER
 70
0
 71
3
 72
13
 73
9
 74
0
 42
0.0000001
 43
0.0000001
 44
0.0000000001
 40
0.0
 40
0.0
 40
0.0
 40
0.0
 40
0.1167127401
 40
0.2361062936
 40
0.3580577804
 40
0.4824365021
 40
0.7377519486
 40
1.0
 40
1.0
 40
1.0
 40
1.0
 10
11.1187178075
 20
18.3720380441
 30
0.0
 10
11.1930656572
 20
18.4525940633
 30
0.0
 10
11.3478050451
 20
18.6115859638
 30
0.0
 10
11.592401444
 20
18.8424962777
 30
0.0
 10
11.8500014214
 20
19.0698170431
 30
0.0
 10
12.2119063852
 20
19.3715898489
 30
0.0
 10
12.6880560852
 20
19.7417540131
 30
0.0
 10
13.0814167691
 20
20.0274817542
 30
0.0
 10
13.2824605849
 20
20.1697918402
 30
0.0
  0
SPLINE
  5
30E
100
AcDbEntity
  8
0
100
AcDbSpline
 62
7
  6
BYLAYER
 70
0
 71
3
 72
9
 73
5
 74
0
 42
0.0000001
 43
0.0000001
 44
0.0000000001
 40
0.0
 40
0.0
 40
0.0
 40
0.0
 40
0.5044511769
 40
1.0
 40
1.0
 40
1.0
 40
1.0
 10
11.4358534195
 20
21.2359068655
 30
0.0
 10
11.351986221
 20
21.205557977
 30
0.0
 10
11.1849229353
 20
21.1475884704
 30
0.0
 10
11.0159080049
 20
21.0955165188
 30
0.0
 10
10.9316753912
 20
21.0714054991
 30
0.0
  0
SPLINE
  5
30F
100
AcDbEntity
  8
0
100
AcDbSpline
 62
7
  6
BYLAYER
 70
0
 71
3
 72
9
 73
5
 74
0
 42
0.0000001
 43
0.0000001
 44
0.0000000001
 40
0.0
 40
0.0
 40
0.0
 40
0.0
 40
0.5083699349
 40
1.0
 40
1.0
 40
1.0
 40
1.0
 10
13.4063162865
 20
20.2873687644
 30
0.0
 10
13.6477117525
 20
20.3247624246
 30
0.0
 10
14.1199396371
 20
20.4165352232
 30
0.0
 10
14.5831819929
 20
20.5466681616
 30
0.0
 10
14.8074907339
 20
20.6207670931
 30
0.0
  0
SPLINE
  5
310
100
AcDbEntity
  8
0
100
AcDbSpline
 62
7
  6
BYLAYER
 70
0
 71
3
 72
11
 73
7
 74
0
 42
0.0000001
 43
0.0000001
 44
0.0000000001
 40
0.0
 40
0.0
 40
0.0
 40
0.0
 40
0.244797283
 40
0.494499352
 40
0.7469713902
 40
1.0
 40
1.0
 40
1.0
 40
1.0
 10
13.2857623764
 20
21.4993174945
 30
0.0
 10
13.1475071882
 20
21.4680837332
 30
0.0
 10
12.865839138
 20
21.4151606003
 30
0.0
 10
12.4360044915
 20
21.3644670432
 30
0.0
 10
11.9989965439
 20
21.342217484
 30
0.0
 10
11.706092215
 20
21.3464927529
 30
0.0
 10
11.5597525636
 20
21.3534587088
 30
0.0
  0
SPLINE
  5
311
100
AcDbEntity
  8
0
100
AcDbSpline
 62
7
  6
BYLAYER
 70
0
 71
3
 72
15
 73
11
 74
0
 42
0.0000001
 43
0.0000001
 44
0.0000000001
 40
0.0
 40
0.0
 40
0.0
 40
0.0
 40
0.1407148027
 40
0.2758887221
 40
0.4057711166
 40
0.5308907569
 40
0.6519629962
 40
0.7698390796
 40
0.8854900214
 40
1.0
 40
1.0
 40
1.0
 40
1.0
 10
6.5231422924
 20
4.4597812919
 30
0.0
 10
6.444078684
 20
4.531371789
 30
0.0
 10
6.294346379
 20
4.6777371475
 30
0.0
 10
6.0930116811
 20
4.9107534429
 30
0.0
 10
5.9206998386
 20
5.1516726451
 30
0.0
 10
5.7783440102
 20
5.3992184315
 30
0.0
 10
5.6667516702
 20
5.6522102401
 30
0.0
 10
5.5865055548
 20
5.9093718334
 30
0.0
 10
5.5381608463
 20
6.1693303806
 30
0.0
 10
5.5273773567
 20
6.3439747805
 30
0.0
 10
5.5273738063
 20
6.4307714731
 30
0.0
  0
SPLINE
  5
312
100
AcDbEntity
  8
0
100
AcDbSpline
 62
7
  6
BYLAYER
 70
0
 71
3
 72
27
 73
23
 74
0
 42
0.0000001
 43
0.0000001
 44
0.0000000001
 40
0.0
 40
0.0
 40
0.0
 40
0.0
 40
0.0166471713
 40
0.0316017062
 40
0.0452488048
 40
0.0581026408
 40
0.0829150069
 40
0.1080335224
 40
0.1339914104
 40
0.1608500701
 40
0.1885389415
 40
0.2169614714
 40
0.2756429638
 40
0.33633091
 40
0.3986086232
 40
0.4621807422
 40
0.5268326032
 40
0.5924042804
 40
0.6587741641
 40
0.7258489884
 40
0.8618416849
 40
1.0
 40
1.0
 40
1.0
 40
1.0
 10
8.4635111621
 20
3.3395341461
 30
0.0
 10
8.4635111621
 20
3.3339345888
 30
0.0
 10
8.4626332296
 20
3.3232656785
 30
0.0
 10
8.4582813629
 20
3.3085600044
 30
0.0
 10
8.4514209325
 20
3.2962881165
 30
0.0
 10
8.4399163535
 20
3.2832682348
 30
0.0
 10
8.4217565015
 20
3.2717328774
 30
0.0
 10
8.3972922446
 20
3.2639196126
 30
0.0
 10
8.3712647505
 20
3.2601591987
 30
0.0
 10
8.3441541979
 20
3.2594101524
 30
0.0
 10
8.3162656875
 20
3.2609880286
 30
0.0
 10
8.2779153834
 20
3.2656454675
 30
0.0
 10
8.229096914
 20
3.2753718731
 30
0.0
 10
8.1700815074
 20
3.2913012562
 30
0.0
 10
8.1103648247
 20
3.3106256121
 30
0.0
 10
8.0501811058
 20
3.3326589109
 30
0.0
 10
7.9896714523
 20
3.3569269559
 30
0.0
 10
7.9289303047
 20
3.383082798
 30
0.0
 10
7.8680211946
 20
3.4108672627
 30
0.0
 10
7.7862724845
 20
3.4500038182
 30
0.0
 10
7.6839801637
 20
3.502102309
 30
0.0
 10
7.602957018
 20
3.5461579917
 30
0.0
 10
7.5624000985
 20
3.5688465837
 30
0.0
  0
SPLINE
  5
313
100
AcDbEntity
  8
0
100
AcDbSpline
 62
7
  6
BYLAYER
 70
0
 71
3
 72
22
 73
18
 74
0
 42
0.0000001
 43
0.0000001
 44
0.0000000001
 40
0.0
 40
0.0
 40
0.0
 40
0.0
 40
0.0550974309
 40
0.1123438988
 40
0.1715302761
 40
0.2324630247
 40
0.2949161737
 40
0.3586267859
 40
0.4233156256
 40
0.4886911961
 40
0.620245736
 40
0.6858469747
 40
0.7509083633
 40
0.815127026
 40
0.8782259582
 40
0.9399479308
 40
1.0
 40
1.0
 40
1.0
 40
1.0
 10
16.3275292523
 20
3.8155595261
 30
0.0
 10
16.198141958
 20
3.7421712697
 30
0.0
 10
15.928742077
 20
3.602198313
 30
0.0
 10
15.5042963649
 20
3.4162511352
 30
0.0
 10
15.0543646992
 20
3.2515153455
 30
0.0
 10
14.5822018409
 20
3.1091269818
 30
0.0
 10
14.0910656689
 20
2.9900501767
 30
0.0
 10
13.5843917318
 20
2.8951407029
 30
0.0
 10
13.0657237596
 20
2.8250369667
 30
0.0
 10
12.3617306262
 20
2.7652419481
 30
0.0
 10
11.651663194
 20
2.7569266642
 30
0.0
 10
10.944839311
 20
2.8000498777
 30
0.0
 10
10.421657137
 20
2.8578722459
 30
0.0
 10
9.9087107853
 20
2.940762093
 30
0.0
 10
9.409525853
 20
3.0481631333
 30
0.0
 10
8.927710523
 20
3.1793440819
 30
0.0
 10
8.6156577564
 20
3.2835272068
 30
0.0
 10
8.4635111621
 20
3.3395341461
 30
0.0
  0
SPLINE
  5
314
100
AcDbEntity
  8
0
100
AcDbSpline
 62
7
  6
BYLAYER
 70
0
 71
3
 72
22
 73
18
 74
0
 42
0.0000001
 43
0.0000001
 44
0.0000000001
 40
0.0
 40
0.0
 40
0.0
 40
0.0
 40
0.0561659317
 40
0.112272863
 40
0.1684452147
 40
0.2248527335
 40
0.2817331512
 40
0.3393580719
 40
0.3979882658
 40
0.4578868959
 40
0.5823841104
 40
0.6475210963
 40
0.7145671744
 40
0.7834687152
 40
0.8541429649
 40
0.9264101333
 40
1.0
 40
1.0
 40
1.0
 40
1.0
 10
14.9503624839
 20
20.6393643662
 30
0.0
 10
14.9922891946
 20
20.6184245318
 30
0.0
 10
15.0787079349
 20
20.5815705072
 30
0.0
 10
15.2140201183
 20
20.5423510682
 30
0.0
 10
15.3533418569
 20
20.5199253091
 30
0.0
 10
15.4950357971
 20
20.5150372467
 30
0.0
 10
15.6374057743
 20
20.5284196219
 30
0.0
 10
15.7787683669
 20
20.5599410664
 30
0.0
 10
15.9175512684
 20
20.6094858104
 30
0.0
 10
16.0992413573
 20
20.7005179243
 30
0.0
 10
16.2670710818
 20
20.8271396312
 30
0.0
 10
16.4172612963
 20
20.9800781411
 30
0.0
 10
16.5234116224
 20
21.1103502409
 30
0.0
 10
16.6204305617
 20
21.25309007
 30
0.0
 10
16.7083801525
 20
21.4065991979
 30
0.0
 10
16.7873362556
 20
21.5692421061
 30
0.0
 10
16.8336935641
 20
21.6818588419
 30
0.0
 10
16.8554812956
 20
21.73926694
 30
0.0
  0
SPLINE
  5
315
100
AcDbEntity
  8
0
100
AcDbSpline
 62
7
  6
BYLAYER
 70
0
 71
3
 72
22
 73
18
 74
0
 42
0.0000001
 43
0.0000001
 44
0.0000000001
 40
0.0
 40
0.0
 40
0.0
 40
0.0
 40
0.0706911062
 40
0.1401448117
 40
0.2081057421
 40
0.2744603469
 40
0.3392216944
 40
0.402376872
 40
0.4640437814
 40
0.5244627475
 40
0.5839850806
 40
0.642992373
 40
0.7018338866
 40
0.760787722
 40
0.820020866
 40
0.8796696646
 40
1.0
 40
1.0
 40
1.0
 40
1.0
 10
15.3337619259
 20
22.6178291638
 30
0.0
 10
15.3184723337
 20
22.5587435159
 30
0.0
 10
15.2848120356
 20
22.4424330568
 30
0.0
 10
15.2236281412
 20
22.2733503664
 30
0.0
 10
15.1514165981
 20
22.1127175952
 30
0.0
 10
15.0674830325
 20
21.9624428654
 30
0.0
 10
14.971296917
 20
21.8246597738
 30
0.0
 10
14.863068016
 20
21.7013649053
 30
0.0
 10
14.7431613811
 20
21.594874184
 30
0.0
 10
14.6128490508
 20
21.5068024076
 30
0.0
 10
14.4735347668
 20
21.4388355943
 30
0.0
 10
14.3273914954
 20
21.3914294054
 30
0.0
 10
14.1765679548
 20
21.3649849175
 30
0.0
 10
14.0234317859
 20
21.3587547536
 30
0.0
 10
13.8700590834
 20
21.3720067279
 30
0.0
 10
13.6674996534
 20
21.4139644711
 30
0.0
 10
13.5212174469
 20
21.4707711699
 30
0.0
 10
13.4286408869
 20
21.5179131662
 30
0.0
  0
SPLINE
  5
316
100
AcDbEntity
  8
0
100
AcDbSpline
 62
7
  6
BYLAYER
 70
0
 71
3
 72
28
 73
24
 74
0
 42
0.0000001
 43
0.0000001
 44
0.0000000001
 40
0.0
 40
0.0
 40
0.0
 40
0.0
 40
0.0331738137
 40
0.0670878722
 40
0.1367327066
 40
0.2082465783
 40
0.2808851719
 40
0.3538512083
 40
0.4263429538
 40
0.4975710035
 40
0.5667902859
 40
0.6333282509
 40
0.6966167738
 40
0.7562283768
 40
0.8119186789
 40
0.8382958013
 40
0.8637115135
 40
0.8882096539
 40
0.9118563361
 40
0.9347381881
 40
0.9569658931
 40
0.9786698579
 40
1.0
 40
1.0
 40
1.0
 40
1.0
 10
8.4635111621
 20
4.9725389803
 30
0.0
 10
8.5797015725
 20
4.9297679325
 30
0.0
 10
8.8167263948
 20
4.8487409729
 30
0.0
 10
9.3064996008
 20
4.7049444105
 30
0.0
 10
9.9446903257
 20
4.5610148179
 30
0.0
 10
10.7352450689
 20
4.4472189956
 30
0.0
 10
11.5445051903
 20
4.3926145048
 30
0.0
 10
12.3592165882
 20
4.3981329046
 30
0.0
 10
13.1660424475
 20
4.4636625918
 30
0.0
 10
13.9517811829
 20
4.5881448355
 30
0.0
 10
14.7035944835
 20
4.769551833
 30
0.0
 10
15.40922703
 20
5.0049402599
 30
0.0
 10
16.0572563786
 20
5.2905611179
 30
0.0
 10
16.6371196279
 20
5.6218540581
 30
0.0
 10
17.0634013232
 20
5.9374414363
 30
0.0
 10
17.3594283774
 20
6.2086177865
 30
0.0
 10
17.554835622
 20
6.4161098869
 30
0.0
 10
17.7267693346
 20
6.6305481385
 30
0.0
 10
17.8745460888
 20
6.8510438847
 30
0.0
 10
17.9974535725
 20
7.0767444901
 30
0.0
 10
18.0949976573
 20
7.3067002235
 30
0.0
 10
18.1666617259
 20
7.5399397572
 30
0.0
 10
18.1971624569
 20
7.6980146253
 30
0.0
 10
18.2078905028
 20
7.7768976878
 30
0.0
  0
SPLINE
  5
317
100
AcDbEntity
  8
0
100
AcDbSpline
 62
7
  6
BYLAYER
 70
0
 71
3
 72
11
 73
7
 74
0
 42
0.0000001
 43
0.0000001
 44
0.0000000001
 40
0.0
 40
0.0
 40
0.0
 40
0.0
 40
0.2286716041
 40
0.474728889
 40
0.7336984893
 40
1.0
 40
1.0
 40
1.0
 40
1.0
 10
15.4766410788
 20
22.7642171309
 30
0.0
 10
15.4630126499
 20
22.7563488007
 30
0.0
 10
15.4360515882
 20
22.7376519689
 30
0.0
 10
15.3986644779
 20
22.7035361594
 30
0.0
 10
15.3638975041
 20
22.6632770815
 30
0.0
 10
15.3433425204
 20
22.6334435304
 30
0.0
 10
15.3337575282
 20
22.6178235778
 30
0.0
  0
SPLINE
  5
318
100
AcDbEntity
  8
0
100
AcDbSpline
 62
7
  6
BYLAYER
 70
0
 71
3
 72
11
 73
7
 74
0
 42
0.0000001
 43
0.0000001
 44
0.0000000001
 40
0.0
 40
0.0
 40
0.0
 40
0.0
 40
0.2634349547
 40
0.5174109728
 40
0.7626205951
 40
1.0
 40
1.0
 40
1.0
 40
1.0
 10
16.9983721973
 20
21.8856651355
 30
0.0
 10
17.0600961162
 20
21.9479471228
 30
0.0
 10
17.1769023082
 20
22.0747797316
 30
0.0
 10
17.3335044401
 20
22.2749264928
 30
0.0
 10
17.4675167447
 20
22.4806015416
 30
0.0
 10
17.5425270418
 20
22.6229739114
 30
0.0
 10
17.5758259198
 20
22.6946280877
 30
0.0
  0
SPLINE
  5
319
100
AcDbEntity
  8
0
100
AcDbSpline
 62
7
  6
BYLAYER
 70
0
 71
3
 72
14
 73
10
 74
0
 42
0.0000001
 43
0.0000001
 44
0.0000000001
 40
0.0
 40
0.0
 40
0.0
 40
0.0
 40
0.1210087393
 40
0.2417477893
 40
0.362917465
 40
0.4852539076
 40
0.6095184367
 40
0.7364173384
 40
1.0
 40
1.0
 40
1.0
 40
1.0
 10
15.7292659594
 20
23.7607158598
 30
0.0
 10
15.7352645628
 20
23.7187154411
 30
0.0
 10
15.7431726309
 20
23.6341654684
 30
0.0
 10
15.7425122597
 20
23.5067291515
 30
0.0
 10
15.7292659157
 20
23.3795006442
 30
0.0
 10
15.7034454165
 20
23.2529689775
 30
0.0
 10
15.6651754695
 20
23.1275243744
 30
0.0
 10
15.5969052051
 20
22.9602620468
 30
0.0
 10
15.528490874
 20
22.8407155978
 30
0.0
 10
15.4766435201
 20
22.7642157215
 30
0.0
  0
SPLINE
  5
31A
100
AcDbEntity
  8
0
100
AcDbSpline
 62
7
  6
BYLAYER
 70
0
 71
3
 72
15
 73
11
 74
0
 42
0.0000001
 43
0.0000001
 44
0.0000000001
 40
0.0
 40
0.0
 40
0.0
 40
0.0
 40
0.0670386614
 40
0.1440788266
 40
0.2375611904
 40
0.3505782412
 40
0.4840504952
 40
0.6378471662
 40
0.8105538334
 40
1.0
 40
1.0
 40
1.0
 40
1.0
 10
9.8578210385
 20
19.1460199524
 30
0.0
 10
9.8568062806
 20
19.1429775241
 30
0.0
 10
9.8561454342
 20
19.1358842952
 30
0.0
 10
9.8593521707
 20
19.1248046951
 30
0.0
 10
9.8662527221
 20
19.1130221356
 30
0.0
 10
9.8767348231
 20
19.1005191199
 30
0.0
 10
9.8906871713
 20
19.0873564199
 30
0.0
 10
9.9079746433
 20
19.0737056525
 30
0.0
 10
9.9283440876
 20
19.0597391936
 30
0.0
 10
9.9431556887
 20
19.0507337959
 30
0.0
 10
9.9510047734
 20
19.0462022272
 30
0.0
  0
SPLINE
  5
31B
100
AcDbEntity
  8
0
100
AcDbSpline
 62
7
  6
BYLAYER
 70
0
 71
3
 72
12
 73
8
 74
0
 42
0.0000001
 43
0.0000001
 44
0.0000000001
 40
0.0
 40
0.0
 40
0.0
 40
0.0
 40
0.1082454098
 40
0.2185184182
 40
0.4515828434
 40
0.710623551
 40
1.0
 40
1.0
 40
1.0
 40
1.0
 10
9.1636048951
 20
17.0240905415
 30
0.0
 10
9.1636030044
 20
17.0184067778
 30
0.0
 10
9.1645859219
 20
17.006907989
 30
0.0
 10
9.1705707438
 20
16.9838658251
 30
0.0
 10
9.18589409
 20
16.9556172832
 30
0.0
 10
9.2144330989
 20
16.9256571452
 30
0.0
 10
9.2383092856
 20
16.9092144752
 30
0.0
 10
9.2514682837
 20
16.901617296
 30
0.0
  0
SPLINE
  5
31C
100
AcDbEntity
  8
0
100
AcDbSpline
 62
7
  6
BYLAYER
 70
0
 71
3
 72
20
 73
16
 74
0
 42
0.0000001
 43
0.0000001
 44
0.0000000001
 40
0.0
 40
0.0
 40
0.0
 40
0.0
 40
0.130340264
 40
0.186732359
 40
0.2383801293
 40
0.2864892552
 40
0.3325191763
 40
0.3781256651
 40
0.4250648017
 40
0.5291221522
 40
0.5891499777
 40
0.6557342339
 40
0.7295979116
 40
0.811311431
 40
1.0
 40
1.0
 40
1.0
 40
1.0
 10
18.0773715396
 20
22.3081827542
 30
0.0
 10
18.0773710644
 20
22.3207833618
 30
0.0
 10
18.0763719839
 20
22.3389235925
 30
0.0
 10
18.0714933718
 20
22.3614931854
 30
0.0
 10
18.0664418763
 20
22.375771358
 30
0.0
 10
18.0597377545
 20
22.3882414139
 30
0.0
 10
18.0513008851
 20
22.3988914844
 30
0.0
 10
18.0410816339
 20
22.4076810642
 30
0.0
 10
18.0245150058
 20
22.4172030319
 30
0.0
 10
18.0044211159
 20
22.4224240329
 30
0.0
 10
17.9821833483
 20
22.4241783725
 30
0.0
 10
17.9627720003
 20
22.4237899219
 30
0.0
 10
17.9413865
 20
22.4216397473
 30
0.0
 10
17.9085391259
 20
22.4161699089
 30
0.0
 10
17.8831425574
 20
22.4097845965
 30
0.0
 10
17.8655963758
 20
22.4047965438
 30
0.0
  0
SPLINE
  5
31D
100
AcDbEntity
  8
0
100
AcDbSpline
 62
7
  6
BYLAYER
 70
0
 71
3
 72
33
 73
29
 74
0
 42
0.0000001
 43
0.0000001
 44
0.0000000001
 40
0.0
 40
0.0
 40
0.0
 40
0.0
 40
0.0213521008
 40
0.0428928934
 40
0.0648021594
 40
0.0872448428
 40
0.1103654249
 40
0.1342840745
 40
0.1590973926
 40
0.1848747027
 40
0.2116639719
 40
0.239489089
 40
0.2683547989
 40
0.2982482096
 40
0.3609617866
 40
0.427260176
 40
0.4615893421
 40
0.4965885197
 40
0.5321670986
 40
0.5682274515
 40
0.6046686384
 40
0.6413850486
 40
0.7151972196
 40
0.788807482
 40
0.8613443378
 40
0.9319948436
 40
0.9663837056
 40
1.0
 40
1.0
 40
1.0
 40
1.0
 10
18.0773604053
 20
14.0242439541
 30
0.0
 10
18.0773612881
 20
13.9445354654
 30
0.0
 10
18.0680705069
 20
13.7842606272
 30
0.0
 10
18.026311415
 20
13.5454788838
 30
0.0
 10
17.9570314764
 20
13.308934068
 30
0.0
 10
17.8605415745
 20
13.0757741024
 30
0.0
 10
17.7373590443
 20
12.8470360789
 30
0.0
 10
17.5881111733
 20
12.6237093228
 30
0.0
 10
17.4134570984
 20
12.4068002487
 30
0.0
 10
17.2142642423
 20
12.1971872842
 30
0.0
 10
16.9913772815
 20
11.9958259584
 30
0.0
 10
16.7458350749
 20
11.8035414991
 30
0.0
 10
16.4787061774
 20
11.6211763505
 30
0.0
 10
16.0891334436
 20
11.388634114
 30
0.0
 10
15.5543564979
 20
11.1290674692
 30
0.0
 10
14.9810608356
 20
10.9186225591
 30
0.0
 10
14.4949874176
 20
10.7764742979
 30
0.0
 10
14.1145441421
 20
10.6830315767
 30
0.0
 10
13.7241777007
 20
10.604446833
 30
0.0
 10
13.3256158003
 20
10.5410170899
 30
0.0
 10
12.9206155428
 20
10.4930804973
 30
0.0
 10
12.3735509782
 20
10.4499738866
 30
0.0
 10
11.6855545808
 20
10.4358738182
 30
0.0
 10
10.8649322051
 20
10.482081374
 30
0.0
 10
10.0620825771
 20
10.5905408525
 30
0.0
 10
9.4136816322
 20
10.7325522706
 30
0.0
 10
8.9163036939
 20
10.8763439589
 30
0.0
 10
8.6757577591
 20
10.9578487956
 30
0.0
 10
8.5579107692
 20
11.0009784462
 30
0.0
  0
SPLINE
  5
31E
100
AcDbEntity
  8
0
100
AcDbSpline
 62
7
  6
BYLAYER
 70
0
 71
3
 72
9
 73
5
 74
0
 42
0.0000001
 43
0.0000001
 44
0.0000000001
 40
0.0
 40
0.0
 40
0.0
 40
0.0
 40
0.2731157039
 40
1.0
 40
1.0
 40
1.0
 40
1.0
 10
15.7929275768
 20
23.878032952
 30
0.0
 10
15.7979278023
 20
23.8731118188
 30
0.0
 10
15.8157345529
 20
23.8546234304
 30
0.0
 10
15.8313900085
 20
23.8338290319
 30
0.0
 10
15.8402077566
 20
23.8173703792
 30
0.0
  0
SPLINE
  5
31F
100
AcDbEntity
  8
0
100
AcDbSpline
 62
7
  6
BYLAYER
 70
0
 71
3
 72
9
 73
5
 74
0
 42
0.0000001
 43
0.0000001
 44
0.0000000001
 40
0.0
 40
0.0
 40
0.0
 40
0.0
 40
0.2569064076
 40
1.0
 40
1.0
 40
1.0
 40
1.0
 10
15.8402077566
 20
23.8173703792
 30
0.0
 10
15.841573924
 20
23.8148203772
 30
0.0
 10
15.8466531298
 20
23.8047696313
 30
0.0
 10
15.8507234795
 20
23.7942011188
 30
0.0
 10
15.8530629795
 20
23.7861671743
 30
0.0
  0
SPLINE
  5
320
100
AcDbEntity
  8
0
100
AcDbSpline
 62
7
  6
BYLAYER
 70
0
 71
3
 72
10
 73
6
 74
0
 42
0.0000001
 43
0.0000001
 44
0.0000000001
 40
0.0
 40
0.0
 40
0.0
 40
0.0
 40
0.5073334956
 40
0.7555071926
 40
1.0
 40
1.0
 40
1.0
 40
1.0
 10
6.2558950121
 20
10.411248512
 30
0.0
 10
6.151926424
 20
10.4712734464
 30
0.0
 10
5.9949334321
 20
10.5570066281
 30
0.0
 10
5.7829833299
 20
10.6622738924
 30
0.0
 10
5.6772159294
 20
10.7113492215
 30
0.0
 10
5.6244258361
 20
10.7350223716
 30
0.0
  0
SPLINE
  5
321
100
AcDbEntity
  8
0
100
AcDbSpline
 62
7
  6
BYLAYER
 70
0
 71
3
 72
17
 73
13
 74
0
 42
0.0000001
 43
0.0000001
 44
0.0000000001
 40
0.0
 40
0.0
 40
0.0
 40
0.0
 40
0.0539148097
 40
0.1080885312
 40
0.1627726602
 40
0.218207434
 40
0.3321236085
 40
0.4514617079
 40
0.5773546586
 40
0.7105449605
 40
0.8514484205
 40
1.0
 40
1.0
 40
1.0
 40
1.0
 10
18.2273672297
 20
6.430771473
 30
0.0
 10
18.2273696847
 20
6.3707552963
 30
0.0
 10
18.2222417504
 20
6.250371632
 30
0.0
 10
18.1991841114
 20
6.0704477915
 30
0.0
 10
18.1608503971
 20
5.8914030962
 30
0.0
 10
18.088870829
 20
5.6523836639
 30
0.0
 10
17.959495839
 20
5.3567111768
 30
0.0
 10
17.7470046499
 20
5.0166082409
 30
0.0
 10
17.4782461932
 20
4.6908191967
 30
0.0
 10
17.1559316147
 20
4.3823082117
 30
0.0
 10
16.7832913692
 20
4.0938927419
 30
0.0
 10
16.5107257749
 20
3.9211236556
 30
0.0
 10
16.3675172727
 20
3.8384426818
 30
0.0
  0
SPLINE
  5
322
100
AcDbEntity
  8
0
100
AcDbSpline
 62
7
  6
BYLAYER
 70
0
 71
3
 72
20
 73
16
 74
0
 42
0.0000001
 43
0.0000001
 44
0.0000000001
 40
0.0
 40
0.0
 40
0.0
 40
0.0
 40
0.1169648767
 40
0.2355481222
 40
0.356055352
 40
0.4789264046
 40
0.6048071278
 40
0.6691701938
 40
0.734672673
 40
0.8014525794
 40
0.8694537053
 40
0.9036806465
 40
0.9375629337
 40
0.9701691901
 40
1.0
 40
1.0
 40
1.0
 40
1.0
 10
7.1622013259
 20
3.814147614
 30
0.0
 10
7.1321887123
 20
3.8343071722
 30
0.0
 10
7.0721754056
 20
3.8755467125
 30
0.0
 10
6.9829936569
 20
3.9400625961
 30
0.0
 10
6.894251598
 20
4.0082353864
 30
0.0
 10
6.806258164
 20
4.0809773481
 30
0.0
 10
6.7345685105
 20
4.1460874823
 30
0.0
 10
6.678742916
 20
4.2020827198
 30
0.0
 10
6.6376586956
 20
4.2469148176
 30
0.0
 10
6.5984042517
 20
4.2948314183
 30
0.0
 10
6.5684830034
 20
4.337779663
 30
0.0
 10
6.5477628973
 20
4.3744357253
 30
0.0
 10
6.5348053315
 20
4.4028051558
 30
0.0
 10
6.5257355167
 20
4.4312502752
 30
0.0
 10
6.5231422924
 20
4.4505603616
 30
0.0
 10
6.5231422924
 20
4.4597812919
 30
0.0
  0
SPLINE
  5
323
100
AcDbEntity
  8
0
100
AcDbSpline
 62
7
  6
BYLAYER
 70
0
 71
3
 72
15
 73
11
 74
0
 42
0.0000001
 43
0.0000001
 44
0.0000000001
 40
0.0
 40
0.0
 40
0.0
 40
0.0
 40
0.1105073135
 40
0.2263131319
 40
0.3474724071
 40
0.4736673821
 40
0.6037162343
 40
0.7360275742
 40
0.8688958317
 40
1.0
 40
1.0
 40
1.0
 40
1.0
 10
17.8655846001
 20
22.4047582926
 30
0.0
 10
17.8655858778
 20
22.4210692785
 30
0.0
 10
17.8615784027
 20
22.4545650549
 30
0.0
 10
17.8447622074
 20
22.5033694475
 30
0.0
 10
17.8176561896
 20
22.5499793198
 30
0.0
 10
17.7814196009
 20
22.5926381431
 30
0.0
 10
17.7374489588
 20
22.6298436647
 30
0.0
 10
17.6873272281
 20
22.660155135
 30
0.0
 10
17.6330629657
 20
22.6825490155
 30
0.0
 10
17.5950037338
 20
22.6917663004
 30
0.0
 10
17.5758806947
 20
22.6947284795
 30
0.0
  0
SPLINE
  5
324
100
AcDbEntity
  8
0
100
AcDbSpline
 62
7
  6
BYLAYER
 70
0
 71
3
 72
11
 73
7
 74
0
 42
0.0000001
 43
0.0000001
 44
0.0000000001
 40
0.0
 40
0.0
 40
0.0
 40
0.0
 40
0.2198904415
 40
0.4573602265
 40
0.7169057738
 40
1.0
 40
1.0
 40
1.0
 40
1.0
 10
17.6996792879
 20
22.7200472205
 30
0.0
 10
17.6904874584
 20
22.7223735136
 30
0.0
 10
17.6706653753
 20
22.724660209
 30
0.0
 10
17.639739169
 20
22.7211867065
 30
0.0
 10
17.6074613991
 20
22.7111430971
 30
0.0
 10
17.5864038683
 20
22.7007278563
 30
0.0
 10
17.575832308
 20
22.6946243996
 30
0.0
  0
SPLINE
  5
325
100
AcDbEntity
  8
0
100
AcDbSpline
 62
7
  6
BYLAYER
 70
0
 71
3
 72
13
 73
9
 74
0
 42
0.0000001
 43
0.0000001
 44
0.0000000001
 40
0.0
 40
0.0
 40
0.0
 40
0.0
 40
0.2440996612
 40
0.3722959634
 40
0.5020280489
 40
0.6314531212
 40
0.7587846521
 40
1.0
 40
1.0
 40
1.0
 40
1.0
 10
17.8655843174
 20
22.4047590307
 30
0.0
 10
17.8698310819
 20
22.4353562525
 30
0.0
 10
17.8691749991
 20
22.4834215746
 30
0.0
 10
17.8536439271
 20
22.5452135607
 30
0.0
 10
17.8343909282
 20
22.5905376198
 30
0.0
 10
17.8080061656
 20
22.6319896944
 30
0.0
 10
17.7661552599
 20
22.6793496894
 30
0.0
 10
17.7271274225
 20
22.7066527725
 30
0.0
 10
17.6996945019
 20
22.7200409239
 30
0.0
  0
SPLINE
  5
326
100
AcDbEntity
  8
0
100
AcDbSpline
 62
7
  6
BYLAYER
 70
0
 71
3
 72
11
 73
7
 74
0
 42
0.0000001
 43
0.0000001
 44
0.0000000001
 40
0.0
 40
0.0
 40
0.0
 40
0.0
 40
0.2634344958
 40
0.5174092261
 40
0.7626192239
 40
1.0
 40
1.0
 40
1.0
 40
1.0
 10
17.2588070236
 20
21.5547448047
 30
0.0
 10
17.3236674939
 20
21.6201928333
 30
0.0
 10
17.4464088289
 20
21.7534728119
 30
0.0
 10
17.6109648566
 20
21.9637962981
 30
0.0
 10
17.7517862426
 20
22.1799265033
 30
0.0
 10
17.8306124591
 20
22.3295341883
 30
0.0
 10
17.8656033444
 20
22.4048310646
 30
0.0
  0
SPLINE
  5
327
100
AcDbEntity
  8
0
100
AcDbSpline
 62
7
  6
BYLAYER
 70
0
 71
3
 72
16
 73
12
 74
0
 42
0.0000001
 43
0.0000001
 44
0.0000000001
 40
0.0
 40
0.0
 40
0.0
 40
0.0
 40
0.1186496485
 40
0.2570567097
 40
0.409036161
 40
0.5632953899
 40
0.7078217093
 40
0.8327396158
 40
0.9304143841
 40
0.9686642623
 40
1.0
 40
1.0
 40
1.0
 40
1.0
 10
16.8554809422
 20
21.7392610252
 30
0.0
 10
16.872394427
 20
21.7343273056
 30
0.0
 10
16.908794258
 20
21.7227985914
 30
0.0
 10
16.9660218148
 20
21.7024140026
 30
0.0
 10
17.0274201394
 20
21.6780973112
 30
0.0
 10
17.0888397113
 20
21.6514574283
 30
0.0
 10
17.1455608042
 20
21.6241912141
 30
0.0
 10
17.1936871473
 20
21.598553869
 30
0.0
 10
17.2268226591
 20
21.5784200286
 30
0.0
 10
17.2471337699
 20
21.5641128082
 30
0.0
 10
17.2552501206
 20
21.5577032077
 30
0.0
 10
17.2587762112
 20
21.5546671333
 30
0.0
  0
SPLINE
  5
328
100
AcDbEntity
  8
0
100
AcDbSpline
 62
7
  6
BYLAYER
 70
0
 71
3
 72
11
 73
7
 74
0
 42
0.0000001
 43
0.0000001
 44
0.0000000001
 40
0.0
 40
0.0
 40
0.0
 40
0.0
 40
0.2286718949
 40
0.4747291937
 40
0.7336986462
 40
1.0
 40
1.0
 40
1.0
 40
1.0
 10
16.9983712737
 20
21.8856656687
 30
0.0
 10
16.9847428645
 20
21.8777972642
 30
0.0
 10
16.9577817467
 20
21.8591004906
 30
0.0
 10
16.9203946599
 20
21.8249846251
 30
0.0
 10
16.8856276506
 20
21.7847256252
 30
0.0
 10
16.8650725611
 20
21.7548921503
 30
0.0
 10
16.8554877232
 20
21.7392721156
 30
0.0
  0
SPLINE
  5
329
100
AcDbEntity
  8
0
100
AcDbSpline
 62
7
  6
BYLAYER
 70
0
 71
3
 72
15
 73
11
 74
0
 42
0.0000001
 43
0.0000001
 44
0.0000000001
 40
0.0
 40
0.0
 40
0.0
 40
0.0
 40
0.1112899993
 40
0.2301111777
 40
0.355123838
 40
0.4846161893
 40
0.6162940768
 40
0.747664389
 40
0.8764144784
 40
1.0
 40
1.0
 40
1.0
 40
1.0
 10
17.258810706
 20
21.5547527732
 30
0.0
 10
17.258810402
 20
21.5712966211
 30
0.0
 10
17.2550631992
 20
21.6055606605
 30
0.0
 10
17.2399581214
 20
21.6563856127
 30
0.0
 10
17.2157531358
 20
21.7065755429
 30
0.0
 10
17.1833461981
 20
21.7541984628
 30
0.0
 10
17.1440046412
 20
21.797545526
 30
0.0
 10
17.0991412753
 20
21.834990709
 30
0.0
 10
17.0504617302
 20
21.8650761678
 30
0.0
 10
17.0158050523
 20
21.8799069853
 30
0.0
 10
16.9983604636
 20
21.8856692396
 30
0.0
  0
SPLINE
  5
32A
100
AcDbEntity
  8
0
100
AcDbSpline
 62
7
  6
BYLAYER
 70
0
 71
3
 72
15
 73
11
 74
0
 42
0.0000001
 43
0.0000001
 44
0.0000000001
 40
0.0
 40
0.0
 40
0.0
 40
0.0
 40
0.0995037901
 40
0.204873562
 40
0.3190015221
 40
0.4430063783
 40
0.5758005566
 40
0.7149812111
 40
0.8576526438
 40
1.0
 40
1.0
 40
1.0
 40
1.0
 10
14.9503728826
 20
20.6393609919
 30
0.0
 10
14.9634193896
 20
20.6315972708
 30
0.0
 10
14.987792039
 20
20.6110796862
 30
0.0
 10
15.0144522135
 20
20.5696464215
 30
0.0
 10
15.03087945
 20
20.5193715682
 30
0.0
 10
15.0367939057
 20
20.4627295645
 30
0.0
 10
15.0320110739
 20
20.4021981412
 30
0.0
 10
15.0166475153
 20
20.3405512666
 30
0.0
 10
14.9916133631
 20
20.280630304
 30
0.0
 10
14.9691255416
 20
20.243181903
 30
0.0
 10
14.9565022996
 20
20.2255083832
 30
0.0
  0
SPLINE
  5
32B
100
AcDbEntity
  8
0
100
AcDbSpline
 62
7
  6
BYLAYER
 70
0
 71
3
 72
22
 73
18
 74
0
 42
0.0000001
 43
0.0000001
 44
0.0000000001
 40
0.0
 40
0.0
 40
0.0
 40
0.0
 40
0.0549139906
 40
0.1100893526
 40
0.1656187602
 40
0.2216961142
 40
0.2785450172
 40
0.336386947
 40
0.3954443779
 40
0.4559201816
 40
0.5179878237
 40
0.5817711988
 40
0.7145808245
 40
0.7836966543
 40
0.8544520932
 40
0.9266543178
 40
1.0
 40
1.0
 40
1.0
 40
1.0
 10
14.9564431482
 20
20.2254714584
 30
0.0
 10
15.0060567401
 20
20.2028030761
 30
0.0
 10
15.1084517144
 20
20.163496075
 30
0.0
 10
15.2684709744
 20
20.1236611727
 30
0.0
 10
15.4333326572
 20
20.1035363794
 30
0.0
 10
15.6010736909
 20
20.103605276
 30
0.0
 10
15.7698540671
 20
20.1242369054
 30
0.0
 10
15.9378482829
 20
20.1655089166
 30
0.0
 10
16.1032360869
 20
20.2273691249
 30
0.0
 10
16.2643573767
 20
20.3092868049
 30
0.0
 10
16.4196434926
 20
20.4106299247
 30
0.0
 10
16.619807543
 20
20.5722805353
 30
0.0
 10
16.800333477
 20
20.7670607545
 30
0.0
 10
16.9594911125
 20
20.9864107854
 30
0.0
 10
17.0704481074
 20
21.1657121997
 30
0.0
 10
17.1709619848
 20
21.3557628444
 30
0.0
 10
17.2306336754
 20
21.4875572444
 30
0.0
 10
17.2588070236
 20
21.5547448047
 30
0.0
  0
SPLINE
  5
32C
100
AcDbEntity
  8
0
100
AcDbSpline
 62
7
  6
BYLAYER
 70
0
 71
3
 72
15
 73
11
 74
0
 42
0.0000001
 43
0.0000001
 44
0.0000000001
 40
0.0
 40
0.0
 40
0.0
 40
0.0
 40
0.1177321608
 40
0.2458841273
 40
0.3802628885
 40
0.5167595998
 40
0.6509949145
 40
0.7787052855
 40
0.8961762557
 40
1.0
 40
1.0
 40
1.0
 40
1.0
 10
14.9565022996
 20
20.2255083832
 30
0.0
 10
14.9565019348
 20
20.2424146512
 30
0.0
 10
14.9543006749
 20
20.2777356765
 30
0.0
 10
14.9457536061
 20
20.3317327259
 30
0.0
 10
14.932033184
 20
20.387433549
 30
0.0
 10
14.9136704367
 20
20.4426956411
 30
0.0
 10
14.8913848049
 20
20.4954598633
 30
0.0
 10
14.8659862037
 20
20.5437492074
 30
0.0
 10
14.8384458034
 20
20.5857138224
 30
0.0
 10
14.8179705818
 20
20.6101738679
 30
0.0
 10
14.80747467
 20
20.6207623023
 30
0.0
  0
SPLINE
  5
32D
100
AcDbEntity
  8
0
100
AcDbSpline
 62
7
  6
BYLAYER
 70
0
 71
3
 72
11
 73
7
 74
0
 42
0.0000001
 43
0.0000001
 44
0.0000000001
 40
0.0
 40
0.0
 40
0.0
 40
0.0
 40
0.2178159224
 40
0.4522812518
 40
0.7119286569
 40
1.0
 40
1.0
 40
1.0
 40
1.0
 10
14.9503737158
 20
20.6393605962
 30
0.0
 10
14.9405720148
 20
20.6440156862
 30
0.0
 10
14.9184958834
 20
20.6503255169
 30
0.0
 10
14.8826332756
 20
20.6497781556
 30
0.0
 10
14.8446498515
 20
20.639836614
 30
0.0
 10
14.8199184056
 20
20.6279428265
 30
0.0
 10
14.8074901652
 20
20.6207674214
 30
0.0
  0
SPLINE
  5
32E
100
AcDbEntity
  8
0
100
AcDbSpline
 62
7
  6
BYLAYER
 70
0
 71
3
 72
9
 73
5
 74
0
 42
0.0000001
 43
0.0000001
 44
0.0000000001
 40
0.0
 40
0.0
 40
0.0
 40
0.0
 40
0.508369658
 40
1.0
 40
1.0
 40
1.0
 40
1.0
 10
13.4840639306
 20
19.8751321934
 30
0.0
 10
13.7377263877
 20
19.9144261334
 30
0.0
 10
14.2339515508
 20
20.0108634286
 30
0.0
 10
14.7207352636
 20
20.1476075009
 30
0.0
 10
14.9564431482
 20
20.2254714584
 30
0.0
  0
SPLINE
  5
32F
100
AcDbEntity
  8
0
100
AcDbSpline
 62
7
  6
BYLAYER
 70
0
 71
3
 72
11
 73
7
 74
0
 42
0.0000001
 43
0.0000001
 44
0.0000000001
 40
0.0
 40
0.0
 40
0.0
 40
0.0
 40
0.2320938299
 40
0.5023665053
 40
0.7713599936
 40
1.0
 40
1.0
 40
1.0
 40
1.0
 10
13.2824454722
 20
20.1697775429
 30
0.0
 10
13.2959016688
 20
20.1456184441
 30
0.0
 10
13.3266132001
 20
20.0942083558
 30
0.0
 10
13.3770099798
 20
20.0173241263
 30
0.0
 10
13.4301641708
 20
19.9428250191
 30
0.0
 10
13.4666364758
 20
19.8960389661
 30
0.0
 10
13.484057244
 20
19.875094819
 30
0.0
  0
SPLINE
  5
330
100
AcDbEntity
  8
0
100
AcDbSpline
 62
7
  6
BYLAYER
 70
0
 71
3
 72
11
 73
7
 74
0
 42
0.0000001
 43
0.0000001
 44
0.0000000001
 40
0.0
 40
0.0
 40
0.0
 40
0.0
 40
0.2457204407
 40
0.4955585305
 40
0.7476315771
 40
1.0
 40
1.0
 40
1.0
 40
1.0
 10
9.9510047734
 20
19.046202227
 30
0.0
 10
10.0096722995
 20
19.2213910624
 30
0.0
 10
10.1398636857
 20
19.5708337712
 30
0.0
 10
10.369260915
 20
20.0844077205
 30
0.0
 10
10.6323668984
 20
20.5871978333
 30
0.0
 10
10.8285989833
 20
20.9120938966
 30
0.0
 10
10.9316753912
 20
21.0714054991
 30
0.0
  0
SPLINE
  5
331
100
AcDbEntity
  8
0
100
AcDbSpline
 62
7
  6
BYLAYER
 70
0
 71
3
 72
15
 73
11
 74
0
 42
0.0000001
 43
0.0000001
 44
0.0000000001
 40
0.0
 40
0.0
 40
0.0
 40
0.0
 40
0.1199374602
 40
0.2508689109
 40
0.3881942221
 40
0.5268955939
 40
0.6615851044
 40
0.7873813521
 40
0.9007684854
 40
1.0
 40
1.0
 40
1.0
 40
1.0
 10
6.7058715068
 20
15.5292333259
 30
0.0
 10
6.6878272252
 20
15.5188155173
 30
0.0
 10
6.6476627254
 20
15.5011290097
 30
0.0
 10
6.5820730192
 20
15.4844495593
 30
0.0
 10
6.5115104183
 20
15.4771612847
 30
0.0
 10
6.4399771152
 20
15.4796254967
 30
0.0
 10
6.371451028
 20
15.4917464719
 30
0.0
 10
6.3096900923
 20
15.5128391281
 30
0.0
 10
6.2581284588
 20
15.541813393
 30
0.0
 10
6.2305680751
 20
15.5672295208
 30
0.0
 10
6.2199945928
 20
15.5808446704
 30
0.0
  0
SPLINE
  5
332
100
AcDbEntity
  8
0
100
AcDbSpline
 62
7
  6
BYLAYER
 70
0
 71
3
 72
10
 73
6
 74
0
 42
0.0000001
 43
0.0000001
 44
0.0000000001
 40
0.0
 40
0.0
 40
0.0
 40
0.0
 40
0.2303272191
 40
0.4760100754
 40
1.0
 40
1.0
 40
1.0
 40
1.0
 10
13.4063173196
 20
20.287368168
 30
0.0
 10
13.3948903233
 20
20.280770828
 30
0.0
 10
13.3722048597
 20
20.2654789113
 30
0.0
 10
13.3286593446
 20
20.2281321195
 30
0.0
 10
13.2998547427
 20
20.1942576416
 30
0.0
 10
13.2824706118
 20
20.1697860513
 30
0.0
  0
SPLINE
  5
333
100
AcDbEntity
  8
0
100
AcDbSpline
 62
7
  6
BYLAYER
 70
0
 71
3
 72
9
 73
5
 74
0
 42
0.0000001
 43
0.0000001
 44
0.0000000001
 40
0.0
 40
0.0
 40
0.0
 40
0.0
 40
0.2424503142
 40
1.0
 40
1.0
 40
1.0
 40
1.0
 10
6.2199945928
 20
15.5808446704
 30
0.0
 10
6.2506320903
 20
15.5413937021
 30
0.0
 10
6.3808157887
 20
15.3816549615
 30
0.0
 10
6.5254849951
 20
15.23390494
 30
0.0
 10
6.6408738366
 20
15.12881414
 30
0.0
  0
SPLINE
  5
334
100
AcDbEntity
  8
0
100
AcDbSpline
 62
7
  6
BYLAYER
 70
0
 71
3
 72
9
 73
5
 74
0
 42
0.0000001
 43
0.0000001
 44
0.0000000001
 40
0.0
 40
0.0
 40
0.0
 40
0.0
 40
0.2455525119
 40
1.0
 40
1.0
 40
1.0
 40
1.0
 10
8.5579107692
 20
14.0220373896
 30
0.0
 10
8.6209382389
 20
13.9989705912
 30
0.0
 10
8.8788183192
 20
13.9083430122
 30
0.0
 10
9.1412349131
 20
13.8307246985
 30
0.0
 10
9.340865312
 20
13.7790498827
 30
0.0
  0
SPLINE
  5
335
100
AcDbEntity
  8
0
100
AcDbSpline
 62
7
  6
BYLAYER
 70
0
 71
3
 72
15
 73
11
 74
0
 42
0.0000001
 43
0.0000001
 44
0.0000000001
 40
0.0
 40
0.0
 40
0.0
 40
0.0
 40
0.121016333
 40
0.2531832534
 40
0.391303861
 40
0.5304859408
 40
0.6656448276
 40
0.7918274237
 40
0.9045574081
 40
1.0
 40
1.0
 40
1.0
 40
1.0
 10
13.4840584713
 20
19.8750926146
 30
0.0
 10
13.4840589609
 20
19.8921128075
 30
0.0
 10
13.482913019
 20
19.9277244985
 30
0.0
 10
13.4784771979
 20
19.9825970853
 30
0.0
 10
13.4713273646
 20
20.0397581837
 30
0.0
 10
13.4618127427
 20
20.0969992686
 30
0.0
 10
13.4501941679
 20
20.1521380051
 30
0.0
 10
13.4369993652
 20
20.2030889481
 30
0.0
 10
13.4228393224
 20
20.2479568457
 30
0.0
 10
13.4119745356
 20
20.2751950949
 30
0.0
 10
13.4063173192
 20
20.2873681685
 30
0.0
  0
SPLINE
  5
336
100
AcDbEntity
  8
0
100
AcDbSpline
 62
7
  6
BYLAYER
 70
0
 71
3
 72
15
 73
11
 74
0
 42
0.0000001
 43
0.0000001
 44
0.0000000001
 40
0.0
 40
0.0
 40
0.0
 40
0.0
 40
0.1560429229
 40
0.3044220677
 40
0.4432424797
 40
0.5717600134
 40
0.6901296945
 40
0.799404748
 40
0.9016423528
 40
1.0
 40
1.0
 40
1.0
 40
1.0
 10
9.340865312
 20
13.7790498827
 30
0.0
 10
9.3280719612
 20
13.7823614728
 30
0.0
 10
9.3033930309
 20
13.7899790793
 30
0.0
 10
9.2687531022
 20
13.8046190487
 30
0.0
 10
9.2380356731
 20
13.8220041049
 30
0.0
 10
9.211890302
 20
13.8417695356
 30
0.0
 10
9.1908371284
 20
13.8635683263
 30
0.0
 10
9.1753290384
 20
13.8870291727
 30
0.0
 10
9.1657660002
 20
13.9117049739
 30
0.0
 10
9.163614454
 20
13.928764673
 30
0.0
 10
9.163613374
 20
13.937094414
 30
0.0
  0
SPLINE
  5
337
100
AcDbEntity
  8
0
100
AcDbSpline
 62
7
  6
BYLAYER
 70
0
 71
3
 72
12
 73
8
 74
0
 42
0.0000001
 43
0.0000001
 44
0.0000000001
 40
0.0
 40
0.0
 40
0.0
 40
0.0
 40
0.2526752973
 40
0.5042330793
 40
0.7538284526
 40
0.8775016892
 40
1.0
 40
1.0
 40
1.0
 40
1.0
 10
5.8134328848
 20
21.4349777411
 30
0.0
 10
5.8268592867
 20
21.2034517449
 30
0.0
 10
5.8640267084
 20
20.7419107361
 30
0.0
 10
5.9577636293
 20
20.0560210766
 30
0.0
 10
6.0733058969
 20
19.4936424262
 30
0.0
 10
6.1936613675
 20
19.0546699039
 30
0.0
 10
6.2642641802
 20
18.8398982685
 30
0.0
 10
6.3024506918
 20
18.7341480718
 30
0.0
  0
SPLINE
  5
338
100
AcDbEntity
  8
0
100
AcDbSpline
 62
7
  6
BYLAYER
 70
0
 71
3
 72
11
 73
7
 74
0
 42
0.0000001
 43
0.0000001
 44
0.0000000001
 40
0.0
 40
0.0
 40
0.0
 40
0.0
 40
0.2495411873
 40
0.5077799932
 40
0.7616105593
 40
1.0
 40
1.0
 40
1.0
 40
1.0
 10
11.1187140535
 20
18.372038637
 30
0.0
 10
11.1289757778
 20
18.355387094
 30
0.0
 10
11.1520592961
 20
18.32283826
 30
0.0
 10
11.1915314742
 20
18.2779187738
 30
0.0
 10
11.234837618
 20
18.2379661932
 30
0.0
 10
11.2656630368
 20
18.2146392414
 30
0.0
 10
11.2811560871
 20
18.2041935554
 30
0.0
  0
SPLINE
  5
339
100
AcDbEntity
  8
0
100
AcDbSpline
 62
7
  6
BYLAYER
 70
0
 71
3
 72
11
 73
7
 74
0
 42
0.0000001
 43
0.0000001
 44
0.0000000001
 40
0.0
 40
0.0
 40
0.0
 40
0.0
 40
0.2429193371
 40
0.4914367791
 40
0.7443258577
 40
1.0
 40
1.0
 40
1.0
 40
1.0
 10
6.0550709734
 20
24.3424327655
 30
0.0
 10
5.9944488648
 20
24.1132533168
 30
0.0
 10
5.8983528566
 20
23.6423524323
 30
0.0
 10
5.8189912833
 20
22.9195739989
 30
0.0
 10
5.7928962574
 20
22.1806732549
 30
0.0
 10
5.8034757204
 20
21.6842878635
 30
0.0
 10
5.8134308937
 20
21.434977579
 30
0.0
  0
SPLINE
  5
33A
100
AcDbEntity
  8
0
100
AcDbSpline
 62
7
  6
BYLAYER
 70
0
 71
3
 72
11
 73
7
 74
0
 42
0.0000001
 43
0.0000001
 44
0.0000000001
 40
0.0
 40
0.0
 40
0.0
 40
0.0
 40
0.2634346345
 40
0.5174096921
 40
0.7626197222
 40
1.0
 40
1.0
 40
1.0
 40
1.0
 10
6.756369374
 20
25.2689790209
 30
0.0
 10
6.6946455313
 20
25.2066971105
 30
0.0
 10
6.5778387343
 20
25.0798656192
 30
0.0
 10
6.421238077
 20
24.8797179966
 30
0.0
 10
6.2872245071
 20
24.6740439958
 30
0.0
 10
6.2122088913
 20
24.5316738326
 30
0.0
 10
6.1789098915
 20
24.4600193941
 30
0.0
  0
SPLINE
  5
33B
100
AcDbEntity
  8
0
100
AcDbSpline
 62
7
  6
BYLAYER
 70
0
 71
3
 72
12
 73
8
 74
0
 42
0.0000001
 43
0.0000001
 44
0.0000000001
 40
0.0
 40
0.0
 40
0.0
 40
0.0
 40
0.2428891668
 40
0.4907344397
 40
0.616451224
 40
0.7432699324
 40
1.0
 40
1.0
 40
1.0
 40
1.0
 10
9.3408653119
 20
16.8660460415
 30
0.0
 10
9.4894149484
 20
16.921503345
 30
0.0
 10
9.7817397907
 20
17.0550348048
 30
0.0
 10
10.1276116446
 20
17.2619531214
 30
0.0
 10
10.3963024012
 20
17.4478665208
 30
0.0
 10
10.6619933431
 20
17.6478271482
 30
0.0
 10
10.8537549063
 20
17.8092078772
 30
0.0
 10
10.9787291122
 20
17.9208817826
 30
0.0
  0
SPLINE
  5
33C
100
AcDbEntity
  8
0
100
AcDbSpline
 62
7
  6
BYLAYER
 70
0
 71
3
 72
11
 73
7
 74
0
 42
0.0000001
 43
0.0000001
 44
0.0000000001
 40
0.0
 40
0.0
 40
0.0
 40
0.0
 40
0.2483386662
 40
0.5015162194
 40
0.7539657532
 40
1.0
 40
1.0
 40
1.0
 40
1.0
 10
9.3408636643
 20
16.8660441756
 30
0.0
 10
9.3329782882
 20
16.8775888492
 30
0.0
 10
9.3182330474
 20
16.9017243506
 30
0.0
 10
9.2993540045
 20
16.9397941984
 30
0.0
 10
9.2837586803
 20
16.9791818491
 30
0.0
 10
9.27566367
 20
17.0060980054
 30
0.0
 10
9.272311863
 20
17.0195372542
 30
0.0
  0
SPLINE
  5
33D
100
AcDbEntity
  8
0
100
AcDbSpline
 62
7
  6
BYLAYER
 70
0
 71
3
 72
11
 73
7
 74
0
 42
0.0000001
 43
0.0000001
 44
0.0000000001
 40
0.0
 40
0.0
 40
0.0
 40
0.0
 40
0.2771197232
 40
0.5332351418
 40
0.7724628842
 40
1.0
 40
1.0
 40
1.0
 40
1.0
 10
7.1265380614
 20
25.2649329698
 30
0.0
 10
7.1053840126
 20
25.2621250305
 30
0.0
 10
7.064389574
 20
25.2585786673
 30
0.0
 10
7.0047776578
 20
25.2602604565
 30
0.0
 10
6.9496707577
 20
25.2693429644
 30
0.0
 10
6.9153592058
 20
25.2806682159
 30
0.0
 10
6.8992538928
 20
25.2875690439
 30
0.0
  0
SPLINE
  5
33E
100
AcDbEntity
  8
0
100
AcDbSpline
 62
7
  6
BYLAYER
 70
0
 71
3
 72
9
 73
5
 74
0
 42
0.0000001
 43
0.0000001
 44
0.0000000001
 40
0.0
 40
0.0
 40
0.0
 40
0.0
 40
0.4819865868
 40
1.0
 40
1.0
 40
1.0
 40
1.0
 10
9.2514682837
 20
16.901617296
 30
0.0
 10
9.2648854629
 20
16.8938710591
 30
0.0
 10
9.2940524948
 20
16.8800550321
 30
0.0
 10
9.3247458319
 20
16.8702186107
 30
0.0
 10
9.3408653119
 20
16.8660460415
 30
0.0
  0
SPLINE
  5
33F
100
AcDbEntity
  8
0
100
AcDbSpline
 62
7
  6
BYLAYER
 70
0
 71
3
 72
15
 73
11
 74
0
 42
0.0000001
 43
0.0000001
 44
0.0000000001
 40
0.0
 40
0.0
 40
0.0
 40
0.0
 40
0.1894461666
 40
0.3621528338
 40
0.5159495048
 40
0.6494217588
 40
0.7624388096
 40
0.8559211734
 40
0.9329613386
 40
1.0
 40
1.0
 40
1.0
 40
1.0
 10
9.2723117993
 20
17.0195370588
 30
0.0
 10
9.2644627145
 20
17.0240686275
 30
0.0
 10
9.2496511135
 20
17.0330740252
 30
0.0
 10
9.2292816692
 20
17.0470404841
 30
0.0
 10
9.2119941971
 20
17.0606912515
 30
0.0
 10
9.198041849
 20
17.0738539515
 30
0.0
 10
9.1875597479
 20
17.0863569672
 30
0.0
 10
9.1806591966
 20
17.0981395267
 30
0.0
 10
9.17745246
 20
17.1092191268
 30
0.0
 10
9.1781133064
 20
17.1163123557
 30
0.0
 10
9.1791280643
 20
17.119354784
 30
0.0
  0
SPLINE
  5
340
100
AcDbEntity
  8
0
100
AcDbSpline
 62
7
  6
BYLAYER
 70
0
 71
3
 72
9
 73
5
 74
0
 42
0.0000001
 43
0.0000001
 44
0.0000000001
 40
0.0
 40
0.0
 40
0.0
 40
0.0
 40
0.2625077439
 40
1.0
 40
1.0
 40
1.0
 40
1.0
 10
6.7563697623
 20
25.2689787967
 30
0.0
 10
6.7606496069
 20
25.2714497514
 30
0.0
 10
6.7771951003
 20
25.2804258668
 30
0.0
 10
6.7947578654
 20
25.2876172529
 30
0.0
 10
6.8081020611
 20
25.2914507422
 30
0.0
  0
SPLINE
  5
341
100
AcDbEntity
  8
0
100
AcDbSpline
 62
7
  6
BYLAYER
 70
0
 71
3
 72
9
 73
5
 74
0
 42
0.0000001
 43
0.0000001
 44
0.0000000001
 40
0.0
 40
0.0
 40
0.0
 40
0.0
 40
0.5230723589
 40
1.0
 40
1.0
 40
1.0
 40
1.0
 10
6.8081020611
 20
25.2914507422
 30
0.0
 10
6.8196455319
 20
25.2947669236
 30
0.0
 10
6.8424113873
 20
25.2990436005
 30
0.0
 10
6.8656510506
 20
25.2975951177
 30
0.0
 10
6.8763578025
 20
25.295295986
 30
0.0
  0
SPLINE
  5
342
100
AcDbEntity
  8
0
100
AcDbSpline
 62
7
  6
BYLAYER
 70
0
 71
3
 72
9
 73
5
 74
0
 42
0.0000001
 43
0.0000001
 44
0.0000000001
 40
0.0
 40
0.0
 40
0.0
 40
0.0
 40
0.253617232
 40
1.0
 40
1.0
 40
1.0
 40
1.0
 10
6.8763578025
 20
25.295295986
 30
0.0
 10
6.878357518
 20
25.2948665738
 30
0.0
 10
6.8861936749
 20
25.2929565277
 30
0.0
 10
6.8938161455
 20
25.2901542583
 30
0.0
 10
6.8992533128
 20
25.2875719715
 30
0.0
  0
SPLINE
  5
343
100
AcDbEntity
  8
0
100
AcDbSpline
 62
7
  6
BYLAYER
 70
0
 71
3
 72
10
 73
6
 74
0
 42
0.0000001
 43
0.0000001
 44
0.0000000001
 40
0.0
 40
0.0
 40
0.0
 40
0.0
 40
0.5239902012
 40
0.7696729739
 40
1.0
 40
1.0
 40
1.0
 40
1.0
 10
6.0550620128
 20
24.3424379388
 30
0.0
 10
6.0724456599
 20
24.3669098935
 30
0.0
 10
6.1012509642
 20
24.4007838595
 30
0.0
 10
6.1447962393
 20
24.4381308776
 30
0.0
 10
6.1674817409
 20
24.4534227312
 30
0.0
 10
6.178908728
 20
24.4600200659
 30
0.0
  0
SPLINE
  5
344
100
AcDbEntity
  8
0
100
AcDbSpline
 62
7
  6
BYLAYER
 70
0
 71
3
 72
14
 73
10
 74
0
 42
0.0000001
 43
0.0000001
 44
0.0000000001
 40
0.0
 40
0.0
 40
0.0
 40
0.0
 40
0.1388438528
 40
0.2744042427
 40
0.5312386251
 40
0.6532041926
 40
0.7712788377
 40
0.8863977167
 40
1.0
 40
1.0
 40
1.0
 40
1.0
 10
6.178908728
 20
24.4600200659
 30
0.0
 10
6.164376307
 20
24.4622711535
 30
0.0
 10
6.1353273385
 20
24.4649124147
 30
0.0
 10
6.0790121106
 20
24.4627297316
 30
0.0
 10
6.0251946576
 20
24.449279296
 30
0.0
 10
5.9785942635
 20
24.4243763277
 30
0.0
 10
5.9487683321
 20
24.4011137924
 30
0.0
 10
5.9243047102
 20
24.3734388018
 30
0.0
 10
5.9119184544
 20
24.3524120404
 30
0.0
 10
5.9068487317
 20
24.3414999756
 30
0.0
  0
SPLINE
  5
345
100
AcDbEntity
  8
0
100
AcDbSpline
 62
7
  6
BYLAYER
 70
0
 71
3
 72
11
 73
7
 74
0
 42
0.0000001
 43
0.0000001
 44
0.0000000001
 40
0.0
 40
0.0
 40
0.0
 40
0.0
 40
0.2841582262
 40
0.5514709598
 40
0.7923669165
 40
1.0
 40
1.0
 40
1.0
 40
1.0
 10
6.0550464317
 20
24.3424119437
 30
0.0
 10
6.0422799509
 20
24.3428004008
 30
0.0
 10
6.0174682944
 20
24.3427162436
 30
0.0
 10
5.9819243363
 20
24.339694643
 30
0.0
 10
5.9502874446
 20
24.3334972681
 30
0.0
 10
5.9311234785
 20
24.3268279075
 30
0.0
 10
5.9227209433
 20
24.3227662381
 30
0.0
  0
SPLINE
  5
346
100
AcDbEntity
  8
0
100
AcDbSpline
 62
7
  6
BYLAYER
 70
0
 71
3
 72
11
 73
7
 74
0
 42
0.0000001
 43
0.0000001
 44
0.0000000001
 40
0.0
 40
0.0
 40
0.0
 40
0.0
 40
0.2951891586
 40
0.5550095136
 40
0.7864589588
 40
1.0
 40
1.0
 40
1.0
 40
1.0
 10
5.9227209433
 20
24.3227662381
 30
0.0
 10
5.9180565154
 20
24.3205115181
 30
0.0
 10
5.9095467827
 20
24.3156753161
 30
0.0
 10
5.8988677129
 20
24.3067939866
 30
0.0
 10
5.8912401073
 20
24.2969010271
 30
0.0
 10
5.8882799431
 20
24.2895413505
 30
0.0
 10
5.8873993525
 20
24.2858984624
 30
0.0
  0
SPLINE
  5
347
100
AcDbEntity
  8
0
100
AcDbSpline
 62
7
  6
BYLAYER
 70
0
 71
3
 72
16
 73
12
 74
0
 42
0.0000001
 43
0.0000001
 44
0.0000000001
 40
0.0
 40
0.0
 40
0.0
 40
0.0
 40
0.2014006594
 40
0.3864253361
 40
0.5517841561
 40
0.6941911776
 40
0.810849807
 40
0.9009022452
 40
0.9640071329
 40
0.9853856206
 40
1.0
 40
1.0
 40
1.0
 40
1.0
 10
5.8134329443
 20
21.4349767158
 30
0.0
 10
5.8062001482
 20
21.4343871766
 30
0.0
 10
5.7923252307
 20
21.4332239389
 30
0.0
 10
5.7725225229
 20
21.4314530611
 30
0.0
 10
5.7548479679
 20
21.4297511029
 30
0.0
 10
5.7396396951
 20
21.4281471141
 30
0.0
 10
5.7271464859
 20
21.4266657283
 30
0.0
 10
5.7175190143
 20
21.4253237035
 30
0.0
 10
5.7113124701
 20
21.4242740557
 30
0.0
 10
5.7078372193
 20
21.4234587333
 30
0.0
 10
5.7065923853
 20
21.4230791423
 30
0.0
 10
5.7061078517
 20
21.4228729561
 30
0.0
  0
SPLINE
  5
348
100
AcDbEntity
  8
0
100
AcDbSpline
 62
7
  6
BYLAYER
 70
0
 71
3
 72
13
 73
9
 74
0
 42
0.0000001
 43
0.0000001
 44
0.0000000001
 40
0.0
 40
0.0
 40
0.0
 40
0.0
 40
0.2526741766
 40
0.3786691057
 40
0.5042915642
 40
0.629415606
 40
0.7539463169
 40
1.0
 40
1.0
 40
1.0
 40
1.0
 10
5.7061091061
 20
21.4228738456
 30
0.0
 10
5.720268906
 20
21.186463266
 30
0.0
 10
5.7498503697
 20
20.8325537252
 30
0.0
 10
5.8092382051
 20
20.363565304
 30
0.0
 10
5.864460572
 20
20.0147233852
 30
0.0
 10
5.9316283523
 20
19.6693453544
 30
0.0
 10
6.0380521603
 20
19.2170200977
 30
0.0
 10
6.1398305761
 20
18.8840892259
 30
0.0
 10
6.2199945928
 20
18.6678408293
 30
0.0
  0
SPLINE
  5
349
100
AcDbEntity
  8
0
100
AcDbSpline
 62
7
  6
BYLAYER
 70
0
 71
3
 72
11
 73
7
 74
0
 42
0.0000001
 43
0.0000001
 44
0.0000000001
 40
0.0
 40
0.0
 40
0.0
 40
0.0
 40
0.3024685277
 40
0.5743227918
 40
0.8087287141
 40
1.0
 40
1.0
 40
1.0
 40
1.0
 10
6.3024509043
 20
18.7341483645
 30
0.0
 10
6.2932353039
 20
18.7286604092
 30
0.0
 10
6.2760162637
 20
18.7177598961
 30
0.0
 10
6.2528234949
 20
18.7008397269
 30
0.0
 10
6.2341256121
 20
18.6846108122
 30
0.0
 10
6.2239334556
 20
18.6733593655
 30
0.0
 10
6.2199913456
 20
18.6678398594
 30
0.0
  0
SPLINE
  5
34A
100
AcDbEntity
  8
0
100
AcDbSpline
 62
7
  6
BYLAYER
 70
0
 71
3
 72
9
 73
5
 74
0
 42
0.0000001
 43
0.0000001
 44
0.0000000001
 40
0.0
 40
0.0
 40
0.0
 40
0.0
 40
0.2314831163
 40
1.0
 40
1.0
 40
1.0
 40
1.0
 10
6.2199945928
 20
18.6678408292
 30
0.0
 10
6.2238123721
 20
18.6629247974
 30
0.0
 10
6.2415948538
 20
18.6426877417
 30
0.0
 10
6.2637111598
 20
18.6265606523
 30
0.0
 10
6.281607438
 20
18.6162284649
 30
0.0
  0
SPLINE
  5
34B
100
AcDbEntity
  8
0
100
AcDbSpline
 62
7
  6
BYLAYER
 70
0
 71
3
 72
15
 73
11
 74
0
 42
0.0000001
 43
0.0000001
 44
0.0000000001
 40
0.0
 40
0.0
 40
0.0
 40
0.0
 40
0.1140712309
 40
0.2373516737
 40
0.366982556
 40
0.4999999559
 40
0.6330172831
 40
0.7626482387
 40
0.8859289027
 40
1.0
 40
1.0
 40
1.0
 40
1.0
 10
6.281607438
 20
18.6162284649
 30
0.0
 10
6.2961188849
 20
18.6078504668
 30
0.0
 10
6.3278843111
 20
18.5930785187
 30
0.0
 10
6.3795872875
 20
18.5773345356
 30
0.0
 10
6.4355874775
 20
18.5676626873
 30
0.0
 10
6.493739579
 20
18.5644154354
 30
0.0
 10
6.5518916764
 20
18.5676629134
 30
0.0
 10
6.6078918683
 20
18.5773349708
 30
0.0
 10
6.659594769
 20
18.5930792841
 30
0.0
 10
6.6913601374
 20
18.6078513917
 30
0.0
 10
6.7058715068
 20
18.6162294848
 30
0.0
  0
SPLINE
  5
34C
100
AcDbEntity
  8
0
100
AcDbSpline
 62
7
  6
BYLAYER
 70
0
 71
3
 72
15
 73
11
 74
0
 42
0.0000001
 43
0.0000001
 44
0.0000000001
 40
0.0
 40
0.0
 40
0.0
 40
0.0
 40
0.0975898282
 40
0.2116514887
 40
0.3382745343
 40
0.4732342162
 40
0.6117476575
 40
0.7488881088
 40
0.8799379043
 40
1.0
 40
1.0
 40
1.0
 40
1.0
 10
6.7058715068
 20
18.6162294848
 30
0.0
 10
6.6920774011
 20
18.6159011246
 30
0.0
 10
6.6621131305
 20
18.6172587541
 30
0.0
 10
6.6146615439
 20
18.6235254491
 30
0.0
 10
6.5625713741
 20
18.6340838243
 30
0.0
 10
6.5078505868
 20
18.648533283
 30
0.0
 10
6.4525598322
 20
18.6663235235
 30
0.0
 10
6.3987966881
 20
18.6868035982
 30
0.0
 10
6.3486420366
 20
18.7091846131
 30
0.0
 10
6.3171520936
 20
18.7256607127
 30
0.0
 10
6.3024509537
 20
18.7341482278
 30
0.0
  0
SPLINE
  5
34D
100
AcDbEntity
  8
0
100
AcDbSpline
 62
7
  6
BYLAYER
 70
0
 71
3
 72
15
 73
11
 74
0
 42
0.0000001
 43
0.0000001
 44
0.0000000001
 40
0.0
 40
0.0
 40
0.0
 40
0.0
 40
0.1200623622
 40
0.2511125682
 40
0.3882530939
 40
0.5267663767
 40
0.6617259009
 40
0.7883487273
 40
0.9024102203
 40
1.0
 40
1.0
 40
1.0
 40
1.0
 10
6.9811439278
 20
20.760813396
 30
0.0
 10
6.9958451004
 20
20.7523258621
 30
0.0
 10
7.0273351387
 20
20.7358497385
 30
0.0
 10
7.0774898796
 20
20.7134686634
 30
0.0
 10
7.1312530776
 20
20.6929885991
 30
0.0
 10
7.1865438026
 20
20.6751983796
 30
0.0
 10
7.2412645203
 20
20.6607489537
 30
0.0
 10
7.2933546161
 20
20.6501906029
 30
0.0
 10
7.3408061419
 20
20.6439239165
 30
0.0
 10
7.3707703821
 20
20.642566293
 30
0.0
 10
7.3845644809
 20
20.642894653
 30
0.0
  0
ENDSEC
  0
SECTION
  2
OBJECTS
  0
DICTIONARY
  5
C
100
AcDbDictionary
280
0
281
1
  3
ACAD_GROUP
350
D
  3
ACAD_MLINESTYLE
350
17
  3
ACAD_LAYOUT
350
1A
  3
ACAD_PLOTSETTINGS
350
19
  3
ACAD_PLOTSTYLENAME
350
E
  0
DICTIONARY
  5
D
102
{ACAD_REACTORS
330
C
102
}
100
AcDbDictionary
280
0
281
1
  0
ACDBDICTIONARYWDFLT
  5
E
102
{ACAD_REACTORS
330
C
102
}
100
AcDbDictionary
281
1
  3
Normal
350
F
100
AcDbDictionaryWithDefault
340
F
  0
DICTIONARY
  5
17
102
{ACAD_REACTORS
330
C
102
}
100
AcDbDictionary
280
0
281
1
  3
Standard
350
18
  0
DICTIONARY
  5
19
102
{ACAD_REACTORS
330
C
102
}
100
AcDbDictionary
281
1
  0
DICTIONARY
  5
1A
102
{ACAD_REACTORS
330
C
102
}
100
AcDbDictionary
281
1
  3
Model
350
34E
  3
Layout1
350
34F
  0
ACDBPLACEHOLDER
  5
F
102
{ACAD_REACTORS
330
E
102
}
  0
MLINESTYLE
  5
18
102
{ACAD_REACTORS
330
17
102
}
100
AcDbMlineStyle
  2
STANDARD
 70
0
  3

 62
256
 51
90.0
 52
90.0
 71
2
 49
0.5
 62
256
  6
BYLAYER
 49
-0.5
 62
256
  6
BYLAYER
  0
LAYOUT
  5
34E
102
{ACAD_REACTORS
330
1A
102
}
100
AcDbPlotSettings
  1

  2
none_device
  4

  6

 40
0.0
 41
0.0
 42
0.0
 43
0.0
 44
210.0
 45
297.0
 46
0.0
 47
0.0
 48
0.0
 49
0.0
140
0.0
141
0.0
142
1.0
143
1.0
 70
1024
 72
1
 73
0
 74
0
  7

 75
0
147
1.0
148
0.0
149
0.0
100
AcDbLayout
  1
Model
 70
0
 71
0
 10
0.0
 20
0.0
 11
210.0
 21
297.0
 12
0.0
 22
0.0
 32
0.0
 14
0.0
 24
0.0
 34
0.0
 15
0.0
 25
0.0
 35
0.0
146
0.0
 13
0.0
 23
0.0
 33
0.0
 16
1.0
 26
0.0
 36
0.0
 17
0.0
 27
1.0
 37
0.0
 76
0
330
210
345
0
346
0
  0
LAYOUT
  5
34F
102
{ACAD_REACTORS
330
1A
102
}
100
AcDbPlotSettings
  1

  2
none_device
  4

  6

 40
0.0
 41
0.0
 42
0.0
 43
0.0
 44
210.0
 45
297.0
 46
0.0
 47
0.0
 48
0.0
 49
0.0
140
0.0
141
0.0
142
1.0
143
1.0
 70
0
 72
1
 73
0
 74
0
  7

 75
0
147
1.0
148
0.0
149
0.0
100
AcDbLayout
  1
Layout1
 70
0
 71
1
 10
0.0
 20
0.0
 11
210.0
 21
297.0
 12
0.0
 22
0.0
 32
0.0
 14
0.0
 24
0.0
 34
0.0
 15
0.0
 25
0.0
 35
0.0
146
0.0
 13
0.0
 23
0.0
 33
0.0
 16
1.0
 26
0.0
 36
0.0
 17
0.0
 27
1.0
 37
0.0
 76
0
330
211
345
0
346
0
  0
ENDSEC
  0
EOF
