999
DXF file: C:\Users\sesa63760\Dev\_Creo\CAD\MCADFD0002484_3D-CAD\drw0001_6.dxf
999
Pro/ENGINEER 2019471 by Parametric Technology Corporation
  0
SECTION
  2
HEADER
  9
$ACADVER
  1
AC1024
  9
$DWGCODEPAGE
  3
ANSI_1252
  9
$EXTMAX
 10
91.0261007394
 20
128.7369139028
 30
0.0
  9
$EXTMIN
 10
0.0
 20
0.0
 30
0.0
  9
$LIMMIN
 10
0.0
 20
0.0
  9
$LIMMAX
 10
91.0261007394
 20
128.7369139028
  9
$VIEWCTR
 10
45.5130503697
 20
64.3684569514
  9
$VIEWSIZE
 40
128.7369139028
  9
$CLAYER
  8
0
  9
$LTSCALE
 40
8.3917395729
  9
$CELTYPE
  6
BYLAYER
  9
$DIMSCALE
 40
1.0
  9
$DIMASZ
 40
1.0836440564
  9
$DIMEXO
 40
1.0
  9
$DIMDLI
 40
5.7979291595
  9
$DIMEXE
 40
1.0
  9
$DIMCEN
 40
1.3731937483
  9
$DIMLFAC
 40
1.0
  9
$DIMBLK
  1
_FILLED
  9
$DIMALT
 70
0
  9
$DIMALTF
 40
0.0393700787
  9
$DIMTXT
 40
1.517101679
  9
$DIMTOL
 70
1
  9
$DIMLIM
 70
0
  9
$DIMTFAC
 40
1.0
  9
$DIMTP
 40
0.01
  9
$DIMTM
 40
0.01
  9
$DIMGAP
 40
0.625
  9
$DIMDSEP
 70
46
  9
$AUNITS
 70
0
  9
$PDMODE
 70
3
  9
$PDSIZE
 40
0.3125
  9
$HANDSEED
  5
2DA
  9
$TILEMODE
 70
1
  9
$MEASUREMENT
 70
1
  9
$INSUNITS
 70
4
  0
ENDSEC
  0
SECTION
  2
CLASSES
  0
CLASS
  1
ACDBDICTIONARYWDFLT
  2
AcDbDictionaryWithDefault
  3
AutoCAD 2000
 90
0
 91
1
280
0
281
0
  0
CLASS
  1
ACDBPLACEHOLDER
  2
AcDbPlaceHolder
  3
AutoCAD 2000
 90
0
 91
1
280
0
281
0
  0
CLASS
  1
LAYOUT
  2
AcDbLayout
  3
AutoCAD 2000
 90
0
 91
0
280
0
281
0
  0
ENDSEC
  0
SECTION
  2
TABLES
  0
TABLE
  2
VPORT
  5
8
100
AcDbSymbolTable
 70
2
  0
VPORT
  5
1F4
100
AcDbSymbolTableRecord
100
AcDbViewportTableRecord
  2
*ACTIVE
 70
0
 10
0.0
 20
0.0
 11
1.0
 21
1.0
 12
45.5130503697
 22
64.3684569514
 13
0.0
 23
0.0
 14
1.0
 24
1.0
 15
0.0
 25
0.0
 16
0.0
 26
0.0
 36
1.0
 17
0.0
 27
0.0
 37
0.0
 40
128.7369139028
 41
0.7070707071
 42
50.0
 43
0.0
 44
0.0
 50
0.0
 51
0.0
 71
0
 72
100
 73
1
 74
1
 75
0
 76
0
 77
0
 78
0
  0
ENDTAB
  0
TABLE
  2
LTYPE
  5
5
100
AcDbSymbolTable
 70
6
  0
LTYPE
  5
14
100
AcDbSymbolTableRecord
100
AcDbLinetypeTableRecord
  2
BYBLOCK
 70
0
  3

 72
65
 73
0
 40
0.0
  0
LTYPE
  5
15
100
AcDbSymbolTableRecord
100
AcDbLinetypeTableRecord
  2
BYLAYER
 70
0
  3

 72
65
 73
0
 40
0.0
  0
LTYPE
  5
16
100
AcDbSymbolTableRecord
100
AcDbLinetypeTableRecord
  2
CONTINUOUS
 70
64
  3
Solid line
 72
65
 73
0
 40
0.0
  0
LTYPE
  5
1F5
100
AcDbSymbolTableRecord
100
AcDbLinetypeTableRecord
  2
CENTER
 70
64
  3
____ _ ____ _ ____ _ ____ _ ____ _ ____ _ ____
 72
65
 73
4
 40
0.6
 49
0.375
 74
0
 49
-0.075
 74
0
 49
0.075
 74
0
 49
-0.075
 74
0
  0
LTYPE
  5
1F6
100
AcDbSymbolTableRecord
100
AcDbLinetypeTableRecord
  2
HIDDEN
 70
64
  3
- - - - - - - - - - - - - - - - - - - -
 72
65
 73
2
 40
0.2
 49
0.1
 74
0
 49
-0.1
 74
0
  0
LTYPE
  5
1F7
100
AcDbSymbolTableRecord
100
AcDbLinetypeTableRecord
  2
PHANTOM
 70
64
  3
_____ _ _ _____ _ _ _____ _ _ _____
 72
65
 73
6
 40
0.8
 49
0.45
 74
0
 49
-0.05
 74
0
 49
0.1
 74
0
 49
-0.05
 74
0
 49
0.1
 74
0
 49
-0.05
 74
0
  0
LTYPE
  5
1F8
100
AcDbSymbolTableRecord
100
AcDbLinetypeTableRecord
  2
DOT
 70
64
  3
. . . . . . . . . . . . . . . . . . . .
 72
65
 73
2
 40
0.2
 49
0.1
 74
0
 49
-0.1
 74
0
  0
LTYPE
  5
1F9
100
AcDbSymbolTableRecord
100
AcDbLinetypeTableRecord
  2
DASHED
 70
64
  3
- - - - - - - - - - - - - - - - - - - -
 72
65
 73
2
 40
0.2
 49
0.1
 74
0
 49
-0.1
 74
0
  0
ENDTAB
  0
TABLE
  2
LAYER
  5
2
100
AcDbSymbolTable
 70
36
  0
LAYER
  5
10
100
AcDbSymbolTableRecord
100
AcDbLayerTableRecord
  2
0
 70
0
 62
7
  6
CONTINUOUS
370
-3
390
F
  0
LAYER
  5
1FA
100
AcDbSymbolTableRecord
100
AcDbLayerTableRecord
  2
DEFAULT_1
 70
0
 62
7
  6
CENTER
370
-3
390
F
  0
LAYER
  5
1FB
100
AcDbSymbolTableRecord
100
AcDbLayerTableRecord
  2
DEFAULT_2
 70
0
 62
8
  6
HIDDEN
370
-3
390
F
  0
LAYER
  5
1FC
100
AcDbSymbolTableRecord
100
AcDbLayerTableRecord
  2
DEFAULT_3
 70
0
 62
7
  6
PHANTOM
370
-3
390
F
  0
LAYER
  5
1FD
100
AcDbSymbolTableRecord
100
AcDbLayerTableRecord
  2
00_COMPONENTS
 70
0
 62
7
  6
CONTINUOUS
370
-3
390
F
  0
LAYER
  5
1FE
100
AcDbSymbolTableRecord
100
AcDbLayerTableRecord
  2
01_1_DEFAULT_DATUMS
 70
0
 62
7
  6
CONTINUOUS
370
-3
390
F
  0
LAYER
  5
1FF
100
AcDbSymbolTableRecord
100
AcDbLayerTableRecord
  2
01_PLANES
 70
0
 62
7
  6
CONTINUOUS
370
-3
390
F
  0
LAYER
  5
200
100
AcDbSymbolTableRecord
100
AcDbLayerTableRecord
  2
02_COORD_SYS
 70
0
 62
7
  6
CONTINUOUS
370
-3
390
F
  0
LAYER
  5
201
100
AcDbSymbolTableRecord
100
AcDbLayerTableRecord
  2
03_AXES
 70
0
 62
7
  6
CONTINUOUS
370
-3
390
F
  0
LAYER
  5
202
100
AcDbSymbolTableRecord
100
AcDbLayerTableRecord
  2
04_POINTS
 70
0
 62
7
  6
CONTINUOUS
370
-3
390
F
  0
LAYER
  5
203
100
AcDbSymbolTableRecord
100
AcDbLayerTableRecord
  2
05_CURVES
 70
0
 62
7
  6
CONTINUOUS
370
-3
390
F
  0
LAYER
  5
204
100
AcDbSymbolTableRecord
100
AcDbLayerTableRecord
  2
06_SURFS
 70
0
 62
7
  6
CONTINUOUS
370
-3
390
F
  0
LAYER
  5
205
100
AcDbSymbolTableRecord
100
AcDbLayerTableRecord
  2
07_COSMETICS
 70
0
 62
7
  6
CONTINUOUS
370
-3
390
F
  0
LAYER
  5
206
100
AcDbSymbolTableRecord
100
AcDbLayerTableRecord
  2
10_NOTES
 70
0
 62
7
  6
CONTINUOUS
370
-3
390
F
  0
LAYER
  5
207
100
AcDbSymbolTableRecord
100
AcDbLayerTableRecord
  2
11_NOTES_PUB
 70
0
 62
7
  6
CONTINUOUS
370
-3
390
F
  0
LAYER
  5
208
100
AcDbSymbolTableRecord
100
AcDbLayerTableRecord
  2
13_REF_GTOL
 70
0
 62
7
  6
CONTINUOUS
370
-3
390
F
  0
LAYER
  5
209
100
AcDbSymbolTableRecord
100
AcDbLayerTableRecord
  2
16_MISC
 70
0
 62
7
  6
CONTINUOUS
370
-3
390
F
  0
LAYER
  5
20A
100
AcDbSymbolTableRecord
100
AcDbLayerTableRecord
  2
17_NO_PRINT
 70
0
 62
7
  6
CONTINUOUS
370
-3
390
F
  0
LAYER
  5
20B
100
AcDbSymbolTableRecord
100
AcDbLayerTableRecord
  2
18_DATUM_CAMS_JOINTS
 70
0
 62
7
  6
CONTINUOUS
370
-3
390
F
  0
LAYER
  5
20C
100
AcDbSymbolTableRecord
100
AcDbLayerTableRecord
  2
19_DATUM_FUNCTIONAL
 70
0
 62
7
  6
CONTINUOUS
370
-3
390
F
  0
LAYER
  5
20D
100
AcDbSymbolTableRecord
100
AcDbLayerTableRecord
  2
20_DATUM_KINEMATIC_SCHEME
 70
0
 62
7
  6
CONTINUOUS
370
-3
390
F
  0
ENDTAB
  0
TABLE
  2
STYLE
  5
3
100
AcDbSymbolTable
 70
1
  0
STYLE
  5
11
100
AcDbSymbolTableRecord
100
AcDbTextStyleTableRecord
  2
STANDARD
 70
0
 40
0.0
 41
0.8
 50
0.0
 71
0
 42
0.2
  3
txt
  4

  0
STYLE
  5
20E
100
AcDbSymbolTableRecord
100
AcDbTextStyleTableRecord
  2
TEXTSTYLE_1
 70
0
 40
0.0
 41
0.8
 50
0.0
 71
0
 42
0.2
  3
gdt
  4

  0
ENDTAB
  0
TABLE
  2
VIEW
  5
6
100
AcDbSymbolTable
 70
0
  0
ENDTAB
  0
TABLE
  2
UCS
  5
7
100
AcDbSymbolTable
 70
0
  0
ENDTAB
  0
TABLE
  2
APPID
  5
9
100
AcDbSymbolTable
 70
1
  0
APPID
  5
20F
100
AcDbSymbolTableRecord
100
AcDbRegAppTableRecord
  2
ACAD
 70
0
  0
ENDTAB
  0
TABLE
  2
BLOCK_RECORD
  5
1
100
AcDbSymbolTable
 70
0
  0
BLOCK_RECORD
  5
210
100
AcDbSymbolTableRecord
100
AcDbBlockTableRecord
  2
*Model_Space
  0
BLOCK_RECORD
  5
211
100
AcDbSymbolTableRecord
100
AcDbBlockTableRecord
  2
*Paper_Space
  0
BLOCK_RECORD
  5
212
100
AcDbSymbolTableRecord
100
AcDbBlockTableRecord
  2
_FILLED
  0
ENDTAB
  0
TABLE
  2
DIMSTYLE
  5
A
100
AcDbSymbolTable
 70
1
100
AcDbDimStyleTable
 71
0
  0
DIMSTYLE
105
213
100
AcDbSymbolTableRecord
100
AcDbDimStyleTableRecord
  2
STANDARD
 70
0
  3

  4

 40
1.0
 41
1.0836440564
 42
1.0
 43
0.38
 44
1.0
 45
0.0
 46
0.0
 47
0.01
 48
0.01
140
1.517101679
141
0.09
142
0.0
143
25.4
144
1.0
145
0.0
146
1.0
147
0.625
 71
1
 72
0
 73
0
 74
0
 75
0
 76
0
 77
1
 78
8
 79
2
170
0
171
1
172
0
173
0
174
0
175
0
176
0
177
0
178
0
270
2
179
2
271
2
272
2
273
2
274
2
275
0
280
0
281
0
282
0
283
1
284
8
285
0
286
0
287
3
288
0
340
11
278
46
341
212
342
212
343
212
344
212
  0
ENDTAB
  0
ENDSEC
  0
SECTION
  2
BLOCKS
  0
BLOCK
  5
20
100
AcDbEntity
  8
0
100
AcDbBlockBegin
  2
*Model_Space
 70
0
 10
0.0
 20
0.0
 30
0.0
  3
*Model_Space
  1

  0
ENDBLK
  5
21
100
AcDbEntity
  8
0
100
AcDbBlockEnd
  0
BLOCK
  5
1C
100
AcDbEntity
  8
0
100
AcDbBlockBegin
  2
*Paper_Space
 70
0
 10
0.0
 20
0.0
 30
0.0
  3
*Paper_Space
  1

  0
ENDBLK
  5
1D
100
AcDbEntity
  8
0
100
AcDbBlockEnd
  0
BLOCK
  5
214
100
AcDbEntity
  8
0
100
AcDbBlockBegin
  2
_FILLED
 70
64
 10
0.0
 20
0.0
  3
_FILLED
  1

  0
SOLID
  5
215
100
AcDbEntity
  8
0
  6
BYBLOCK
 62
0
100
AcDbTrace
 10
0.0
 20
0.0
 11
-1.0
 21
0.25
 12
-1.0
 22
-0.25
 13
-1.0
 23
-0.25
  0
ENDBLK
  5
216
100
AcDbEntity
  8
0
  6
BYBLOCK
 62
0
100
AcDbBlockEnd
  0
ENDSEC
  0
SECTION
  2
ENTITIES
  0
LINE
  5
217
100
AcDbEntity
  8
0
100
AcDbLine
 62
7
  6
CONTINUOUS
 10
10.5543119316
 20
27.9596010932
 11
10.5408905746
 21
29.8472833013
  0
LINE
  5
218
100
AcDbEntity
  8
0
100
AcDbLine
 62
7
  6
CONTINUOUS
 10
12.0361825804
 20
100.6306240087
 11
12.036177807
 21
100.6279044537
  0
LINE
  5
219
100
AcDbEntity
  8
0
100
AcDbLine
 62
7
  6
CONTINUOUS
 10
12.036177807
 20
100.6279044537
 11
12.0196716948
 21
99.0869425604
  0
LINE
  5
21A
100
AcDbEntity
  8
0
100
AcDbLine
 62
7
  6
CONTINUOUS
 10
10.2955469948
 20
27.9670259834
 11
11.0174983303
 21
76.2616300244
  0
LINE
  5
21B
100
AcDbEntity
  8
0
100
AcDbLine
 62
7
  6
CONTINUOUS
 10
11.1027322453
 20
77.2595015309
 11
11.3149829485
 21
91.4579151413
  0
LINE
  5
21C
100
AcDbEntity
  8
0
100
AcDbLine
 62
7
  6
CONTINUOUS
 10
11.3531233373
 20
93.4574551011
 11
11.3351866582
 21
92.2575891622
  0
LINE
  5
21D
100
AcDbEntity
  8
0
100
AcDbLine
 62
7
  6
CONTINUOUS
 10
10.4637499778
 20
33.4639440846
 11
10.4413291288
 21
31.964111661
  0
LINE
  5
21E
100
AcDbEntity
  8
0
100
AcDbLine
 62
7
  6
CONTINUOUS
 10
11.3532491576
 20
92.2570708846
 11
11.3711858367
 21
93.4569368235
  0
LINE
  5
21F
100
AcDbEntity
  8
0
100
AcDbLine
 62
7
  6
CONTINUOUS
 10
10.5408905746
 20
29.8472833013
 11
10.5561017751
 21
30.8580347107
  0
LINE
  5
220
100
AcDbEntity
  8
0
100
AcDbLine
 62
7
  6
CONTINUOUS
 10
10.5931508825
 20
32.659977373
 11
10.6051086686
 21
33.4598879989
  0
LINE
  5
221
100
AcDbEntity
  8
0
100
AcDbLine
 62
7
  6
CONTINUOUS
 10
11.491681312
 20
91.4528450342
 11
11.2794306088
 21
77.2544314238
  0
LINE
  5
222
100
AcDbEntity
  8
0
100
AcDbLine
 62
7
  6
CONTINUOUS
 10
11.3347700585
 20
76.2525263654
 11
10.6382290185
 21
29.6577324045
  0
LINE
  5
223
100
AcDbEntity
  8
0
100
AcDbLine
 62
7
  6
CONTINUOUS
 10
12.0196716948
 20
99.0869425604
 11
11.9920898046
 21
97.2488663869
  0
LINE
  5
224
100
AcDbEntity
  8
0
100
AcDbLine
 62
7
  6
CONTINUOUS
 10
10.4413291288
 20
31.964111661
 11
10.400034417
 21
29.464503624
  0
LINE
  5
225
100
AcDbEntity
  8
0
100
AcDbLine
 62
7
  6
CONTINUOUS
 10
10.400034417
 20
29.464503624
 11
10.3717236226
 21
27.9648402039
  0
LINE
  5
226
100
AcDbEntity
  8
0
100
AcDbLine
 62
7
  6
CONTINUOUS
 10
12.0083583615
 20
99.1740795448
 11
11.9658350778
 21
96.9352683642
  0
LINE
  5
227
100
AcDbEntity
  8
0
100
AcDbLine
 62
7
  6
CONTINUOUS
 10
11.9920898046
 20
97.2488663869
 11
11.9894435053
 21
97.1095411989
  0
LINE
  5
228
100
AcDbEntity
  8
0
100
AcDbLine
 62
7
  6
CONTINUOUS
 10
10.5561017751
 20
30.8580347107
 11
10.5931508825
 21
32.659977373
  0
LINE
  5
229
100
AcDbEntity
  8
0
100
AcDbLine
 62
7
  6
CONTINUOUS
 10
10.6382290185
 20
29.6577324045
 11
10.5749613771
 21
27.9590085869
  0
LINE
  5
22A
100
AcDbEntity
  8
0
100
AcDbLine
 62
7
  6
CONTINUOUS
 10
81.3665060003
 20
26.900767685
 11
10.5749613771
 21
27.9590085869
  0
LINE
  5
22B
100
AcDbEntity
  8
0
100
AcDbLine
 62
7
  6
CONTINUOUS
 10
10.5543494392
 20
27.9621101871
 11
10.3717236226
 21
27.9648402039
  0
LINE
  5
22C
100
AcDbEntity
  8
0
100
AcDbLine
 62
7
  6
CONTINUOUS
 10
10.543627387
 20
29.4623570971
 11
10.400034417
 21
29.464503624
  0
LINE
  5
22D
100
AcDbEntity
  8
0
100
AcDbLine
 62
7
  6
CONTINUOUS
 10
81.4297736417
 20
28.5994915027
 11
10.6382290185
 21
29.6577324045
  0
LINE
  5
22E
100
AcDbEntity
  8
0
100
AcDbLine
 62
7
  6
CONTINUOUS
 10
10.5749613771
 20
27.9590085869
 11
10.5543119316
 21
27.9596010932
  0
LINE
  5
22F
100
AcDbEntity
  8
0
100
AcDbLine
 62
7
  6
CONTINUOUS
 10
10.3658336772
 20
27.9650092075
 11
10.2955469948
 21
27.9670259834
  0
LINE
  5
230
100
AcDbEntity
  8
0
100
AcDbLine
 62
7
  6
CONTINUOUS
 10
12.4877187263
 20
97.1020926368
 11
12.4837296227
 21
96.7402804616
  0
LINE
  5
231
100
AcDbEntity
  8
0
100
AcDbLine
 62
7
  6
CONTINUOUS
 10
10.5788011804
 20
31.9620566338
 11
10.4413291288
 21
31.964111661
  0
LINE
  5
232
100
AcDbEntity
  8
0
100
AcDbLine
 62
7
  6
CONTINUOUS
 10
10.6051086686
 20
33.4598879989
 11
10.4637499778
 21
33.4639440846
  0
LINE
  5
233
100
AcDbEntity
  8
0
100
AcDbLine
 62
7
  6
CONTINUOUS
 10
16.2343778275
 20
52.7766693034
 11
16.1880414064
 21
49.6770156279
  0
LINE
  5
234
100
AcDbEntity
  8
0
100
AcDbLine
 62
7
  6
CONTINUOUS
 10
17.3626462007
 20
54.6600154441
 11
17.3506884146
 21
53.8601048181
  0
LINE
  5
235
100
AcDbEntity
  8
0
100
AcDbLine
 62
7
  6
CONTINUOUS
 10
22.3108249805
 20
53.7864969816
 11
22.3227827666
 21
54.5864076076
  0
LINE
  5
236
100
AcDbEntity
  8
0
100
AcDbLine
 62
7
  6
CONTINUOUS
 10
22.3500912835
 20
53.7853702912
 11
22.3620490695
 21
54.5852809171
  0
LINE
  5
237
100
AcDbEntity
  8
0
100
AcDbLine
 62
7
  6
CONTINUOUS
 10
22.3108249805
 20
53.7864969816
 11
23.3942516557
 21
52.670178275
  0
LINE
  5
238
100
AcDbEntity
  8
0
100
AcDbLine
 62
7
  6
CONTINUOUS
 10
23.4335179587
 20
52.6690515846
 11
22.3500912835
 21
53.7853702912
  0
LINE
  5
239
100
AcDbEntity
  8
0
100
AcDbLine
 62
7
  6
CONTINUOUS
 10
23.3479152346
 20
49.5705245995
 11
23.3942516557
 21
52.670178275
  0
LINE
  5
23A
100
AcDbEntity
  8
0
100
AcDbLine
 62
7
  6
CONTINUOUS
 10
23.3871815376
 20
49.5693979091
 11
23.4335179587
 21
52.6690515846
  0
LINE
  5
23B
100
AcDbEntity
  8
0
100
AcDbLine
 62
7
  6
CONTINUOUS
 10
25.517444509
 20
100.6939672609
 11
25.5391387011
 21
101.8361462178
  0
LINE
  5
23C
100
AcDbEntity
  8
0
100
AcDbLine
 62
7
  6
CONTINUOUS
 10
28.4818188031
 20
96.5011299753
 11
28.4858079067
 21
96.8629421505
  0
LINE
  5
23D
100
AcDbEntity
  8
0
100
AcDbLine
 62
7
  6
CONTINUOUS
 10
29.1895674678
 20
91.1882848087
 11
28.9773167646
 21
76.9898711983
  0
LINE
  5
23E
100
AcDbEntity
  8
0
100
AcDbLine
 62
7
  6
CONTINUOUS
 10
29.0326562143
 20
75.9879661399
 11
28.3361151743
 21
29.3931721791
  0
LINE
  5
23F
100
AcDbEntity
  8
0
100
AcDbLine
 62
7
  6
CONTINUOUS
 10
30.1856048821
 20
96.8375324113
 11
30.1816157785
 21
96.4757202361
  0
LINE
  5
240
100
AcDbEntity
  8
0
100
AcDbLine
 62
7
  6
CONTINUOUS
 10
28.3361151743
 20
29.3931721791
 11
28.2728475329
 21
27.6944483614
  0
LINE
  5
241
100
AcDbEntity
  8
0
100
AcDbLine
 62
7
  6
CONTINUOUS
 10
23.3479152346
 20
49.5705245995
 11
23.3871815376
 21
49.5693979091
  0
LINE
  5
242
100
AcDbEntity
  8
0
100
AcDbLine
 62
7
  6
CONTINUOUS
 10
41.0458013904
 20
49.3059643741
 11
41.0850676934
 21
49.3048376836
  0
LINE
  5
243
100
AcDbEntity
  8
0
100
AcDbLine
 62
7
  6
CONTINUOUS
 10
58.7436875462
 20
49.0414041486
 11
58.7829538492
 21
49.0402774581
  0
LINE
  5
244
100
AcDbEntity
  8
0
100
AcDbLine
 62
7
  6
CONTINUOUS
 10
76.441573702
 20
48.7768439232
 11
76.480840005
 21
48.7757172327
  0
LINE
  5
245
100
AcDbEntity
  8
0
100
AcDbLine
 62
7
  6
CONTINUOUS
 10
33.9322639834
 20
52.5121090779
 11
33.8859275622
 21
49.4124554024
  0
LINE
  5
246
100
AcDbEntity
  8
0
100
AcDbLine
 62
7
  6
CONTINUOUS
 10
35.0605323565
 20
54.3954552186
 11
35.0485745704
 21
53.5955445927
  0
LINE
  5
247
100
AcDbEntity
  8
0
100
AcDbLine
 62
7
  6
CONTINUOUS
 10
17.3506884146
 20
53.8601048181
 11
16.2343778275
 21
52.7766693034
  0
LINE
  5
248
100
AcDbEntity
  8
0
100
AcDbLine
 62
7
  6
CONTINUOUS
 10
75.455707537
 20
53.7916002407
 11
70.4563046681
 21
53.8663347677
  0
LINE
  5
249
100
AcDbEntity
  8
0
100
AcDbLine
 62
7
  6
CONTINUOUS
 10
57.7578213812
 20
54.0561604662
 11
52.7584185123
 21
54.1308949932
  0
LINE
  5
24A
100
AcDbEntity
  8
0
100
AcDbLine
 62
7
  6
CONTINUOUS
 10
40.0599352254
 20
54.3207206916
 11
35.0605323565
 21
54.3954552186
  0
LINE
  5
24B
100
AcDbEntity
  8
0
100
AcDbLine
 62
7
  6
CONTINUOUS
 10
22.3620490695
 20
54.5852809171
 11
17.3626462007
 21
54.6600154441
  0
LINE
  5
24C
100
AcDbEntity
  8
0
100
AcDbLine
 62
7
  6
CONTINUOUS
 10
23.4335179587
 20
52.6690515846
 11
23.3942516557
 21
52.670178275
  0
LINE
  5
24D
100
AcDbEntity
  8
0
100
AcDbLine
 62
7
  6
CONTINUOUS
 10
41.1314041145
 20
52.4044913591
 11
41.0921378115
 21
52.4056180496
  0
LINE
  5
24E
100
AcDbEntity
  8
0
100
AcDbLine
 62
7
  6
CONTINUOUS
 10
58.8292902703
 20
52.1399311337
 11
58.7900239673
 21
52.1410578241
  0
LINE
  5
24F
100
AcDbEntity
  8
0
100
AcDbLine
 62
7
  6
CONTINUOUS
 10
76.5271764261
 20
51.8753709082
 11
76.4879101231
 21
51.8764975987
  0
LINE
  5
250
100
AcDbEntity
  8
0
100
AcDbLine
 62
7
  6
CONTINUOUS
 10
22.3500912835
 20
53.7853702912
 11
22.3108249805
 21
53.7864969816
  0
LINE
  5
251
100
AcDbEntity
  8
0
100
AcDbLine
 62
7
  6
CONTINUOUS
 10
40.0479774393
 20
53.5208100657
 11
40.0087111363
 21
53.5219367562
  0
LINE
  5
252
100
AcDbEntity
  8
0
100
AcDbLine
 62
7
  6
CONTINUOUS
 10
57.7458635951
 20
53.2562498403
 11
57.7065972921
 21
53.2573765307
  0
LINE
  5
253
100
AcDbEntity
  8
0
100
AcDbLine
 62
7
  6
CONTINUOUS
 10
75.4437497509
 20
52.9916896148
 11
75.4044834479
 21
52.9928163053
  0
LINE
  5
254
100
AcDbEntity
  8
0
100
AcDbLine
 62
7
  6
CONTINUOUS
 10
40.0087111363
 20
53.5219367562
 11
41.0921378115
 21
52.4056180496
  0
LINE
  5
255
100
AcDbEntity
  8
0
100
AcDbLine
 62
7
  6
CONTINUOUS
 10
41.1314041145
 20
52.4044913591
 11
40.0479774393
 21
53.5208100657
  0
LINE
  5
256
100
AcDbEntity
  8
0
100
AcDbLine
 62
7
  6
CONTINUOUS
 10
40.0087111363
 20
53.5219367562
 11
40.0206689224
 21
54.3218473821
  0
LINE
  5
257
100
AcDbEntity
  8
0
100
AcDbLine
 62
7
  6
CONTINUOUS
 10
40.0479774393
 20
53.5208100657
 11
40.0599352254
 21
54.3207206916
  0
LINE
  5
258
100
AcDbEntity
  8
0
100
AcDbLine
 62
7
  6
CONTINUOUS
 10
41.0458013904
 20
49.3059643741
 11
41.0921378115
 21
52.4056180496
  0
LINE
  5
259
100
AcDbEntity
  8
0
100
AcDbLine
 62
7
  6
CONTINUOUS
 10
41.0850676934
 20
49.3048376836
 11
41.1314041145
 21
52.4044913591
  0
LINE
  5
25A
100
AcDbEntity
  8
0
100
AcDbLine
 62
7
  6
CONTINUOUS
 10
46.1797049589
 20
96.2365697498
 11
46.1836940625
 21
96.598381925
  0
LINE
  5
25B
100
AcDbEntity
  8
0
100
AcDbLine
 62
7
  6
CONTINUOUS
 10
46.8874536236
 20
90.9237245832
 11
46.6752029204
 21
76.7253109728
  0
LINE
  5
25C
100
AcDbEntity
  8
0
100
AcDbLine
 62
7
  6
CONTINUOUS
 10
46.7305423701
 20
75.7234059145
 11
46.0340013301
 21
29.1286119536
  0
LINE
  5
25D
100
AcDbEntity
  8
0
100
AcDbLine
 62
7
  6
CONTINUOUS
 10
35.0485745704
 20
53.5955445927
 11
33.9322639834
 21
52.5121090779
  0
LINE
  5
25E
100
AcDbEntity
  8
0
100
AcDbLine
 62
7
  6
CONTINUOUS
 10
57.7065972921
 20
53.2573765307
 11
58.7900239673
 21
52.1410578241
  0
LINE
  5
25F
100
AcDbEntity
  8
0
100
AcDbLine
 62
7
  6
CONTINUOUS
 10
47.8834910379
 20
96.5729721859
 11
47.8795019343
 21
96.2111600107
  0
LINE
  5
260
100
AcDbEntity
  8
0
100
AcDbLine
 62
7
  6
CONTINUOUS
 10
46.0340013301
 20
29.1286119536
 11
45.9707336887
 21
27.429888136
  0
LINE
  5
261
100
AcDbEntity
  8
0
100
AcDbLine
 62
7
  6
CONTINUOUS
 10
58.8292902703
 20
52.1399311337
 11
57.7458635951
 21
53.2562498403
  0
LINE
  5
262
100
AcDbEntity
  8
0
100
AcDbLine
 62
7
  6
CONTINUOUS
 10
51.6301501392
 20
52.2475488525
 11
51.583813718
 21
49.147895177
  0
LINE
  5
263
100
AcDbEntity
  8
0
100
AcDbLine
 62
7
  6
CONTINUOUS
 10
52.7584185123
 20
54.1308949932
 11
52.7464607262
 21
53.3309843672
  0
LINE
  5
264
100
AcDbEntity
  8
0
100
AcDbLine
 62
7
  6
CONTINUOUS
 10
57.7065972921
 20
53.2573765307
 11
57.7185550782
 21
54.0572871567
  0
LINE
  5
265
100
AcDbEntity
  8
0
100
AcDbLine
 62
7
  6
CONTINUOUS
 10
57.7458635951
 20
53.2562498403
 11
57.7578213812
 21
54.0561604662
  0
LINE
  5
266
100
AcDbEntity
  8
0
100
AcDbLine
 62
7
  6
CONTINUOUS
 10
58.7436875462
 20
49.0414041486
 11
58.7900239673
 21
52.1410578241
  0
LINE
  5
267
100
AcDbEntity
  8
0
100
AcDbLine
 62
7
  6
CONTINUOUS
 10
58.7829538492
 20
49.0402774581
 11
58.8292902703
 21
52.1399311337
  0
LINE
  5
268
100
AcDbEntity
  8
0
100
AcDbLine
 62
7
  6
CONTINUOUS
 10
52.7464607262
 20
53.3309843672
 11
51.6301501392
 21
52.2475488525
  0
LINE
  5
269
100
AcDbEntity
  8
0
100
AcDbLine
 62
7
  6
CONTINUOUS
 10
82.1263146817
 20
75.1942854636
 11
11.3347700585
 21
76.2525263654
  0
LINE
  5
26A
100
AcDbEntity
  8
0
100
AcDbLine
 62
7
  6
CONTINUOUS
 10
11.3457906608
 20
77.2525273169
 11
82.1373352841
 21
76.194286415
  0
LINE
  5
26B
100
AcDbEntity
  8
0
100
AcDbLine
 62
7
  6
CONTINUOUS
 10
11.3457906608
 20
77.2525273169
 11
11.2794306088
 21
77.2544314238
  0
LINE
  5
26C
100
AcDbEntity
  8
0
100
AcDbLine
 62
7
  6
CONTINUOUS
 10
11.1027322453
 20
77.2595015309
 11
11.0363721932
 21
77.2614056378
  0
LINE
  5
26D
100
AcDbEntity
  8
0
100
AcDbLine
 62
7
  6
CONTINUOUS
 10
75.4044834479
 20
52.9928163053
 11
76.4879101231
 21
51.8764975987
  0
LINE
  5
26E
100
AcDbEntity
  8
0
100
AcDbLine
 62
7
  6
CONTINUOUS
 10
76.5271764261
 20
51.8753709082
 11
75.4437497509
 21
52.9916896148
  0
LINE
  5
26F
100
AcDbEntity
  8
0
100
AcDbLine
 62
7
  6
CONTINUOUS
 10
63.8775911147
 20
95.9720095244
 11
63.8815802183
 21
96.3338216996
  0
LINE
  5
270
100
AcDbEntity
  8
0
100
AcDbLine
 62
7
  6
CONTINUOUS
 10
65.5813771937
 20
96.3084119604
 11
65.5773880901
 21
95.9465997852
  0
LINE
  5
271
100
AcDbEntity
  8
0
100
AcDbLine
 62
7
  6
CONTINUOUS
 10
64.5853397794
 20
90.6591643578
 11
64.3730890762
 21
76.4607507474
  0
LINE
  5
272
100
AcDbEntity
  8
0
100
AcDbLine
 62
7
  6
CONTINUOUS
 10
64.4284285259
 20
75.458845689
 11
63.7318874859
 21
28.8640517281
  0
LINE
  5
273
100
AcDbEntity
  8
0
100
AcDbLine
 62
7
  6
CONTINUOUS
 10
63.7318874859
 20
28.8640517281
 11
63.6686198445
 21
27.1653279105
  0
LINE
  5
274
100
AcDbEntity
  8
0
100
AcDbLine
 62
7
  6
CONTINUOUS
 10
69.328036295
 20
51.982988627
 11
69.2816998739
 21
48.8833349515
  0
LINE
  5
275
100
AcDbEntity
  8
0
100
AcDbLine
 62
7
  6
CONTINUOUS
 10
70.4563046681
 20
53.8663347677
 11
70.444346882
 21
53.0664241418
  0
LINE
  5
276
100
AcDbEntity
  8
0
100
AcDbLine
 62
7
  6
CONTINUOUS
 10
70.444346882
 20
53.0664241418
 11
69.328036295
 21
51.982988627
  0
LINE
  5
277
100
AcDbEntity
  8
0
100
AcDbLine
 62
7
  6
CONTINUOUS
 10
82.2832259352
 20
90.3946041323
 11
11.491681312
 21
91.4528450342
  0
LINE
  5
278
100
AcDbEntity
  8
0
100
AcDbLine
 62
7
  6
CONTINUOUS
 10
11.3351866582
 20
92.2575891622
 11
11.3532491576
 21
92.2570708846
  0
LINE
  5
279
100
AcDbEntity
  8
0
100
AcDbLine
 62
7
  6
CONTINUOUS
 10
11.4238284173
 20
93.4554263199
 11
11.5137225166
 21
93.4528469371
  0
LINE
  5
27A
100
AcDbEntity
  8
0
100
AcDbLine
 62
7
  6
CONTINUOUS
 10
75.4044834479
 20
52.9928163053
 11
75.416441234
 21
53.7927269312
  0
LINE
  5
27B
100
AcDbEntity
  8
0
100
AcDbLine
 62
7
  6
CONTINUOUS
 10
75.4437497509
 20
52.9916896148
 11
75.455707537
 21
53.7916002407
  0
LINE
  5
27C
100
AcDbEntity
  8
0
100
AcDbLine
 62
7
  6
CONTINUOUS
 10
76.441573702
 20
48.7768439232
 11
76.4879101231
 21
51.8764975987
  0
LINE
  5
27D
100
AcDbEntity
  8
0
100
AcDbLine
 62
7
  6
CONTINUOUS
 10
76.480840005
 20
48.7757172327
 11
76.5271764261
 21
51.8753709082
  0
LINE
  5
27E
100
AcDbEntity
  8
0
100
AcDbLine
 62
7
  6
CONTINUOUS
 10
11.5137225166
 20
93.4528469371
 11
82.3052671398
 21
92.3946060353
  0
LINE
  5
27F
100
AcDbEntity
  8
0
100
AcDbLine
 62
7
  6
CONTINUOUS
 10
11.3758767316
 20
93.4571149677
 11
11.3531233373
 21
93.4574551011
  0
LINE
  5
280
100
AcDbEntity
  8
0
100
AcDbLine
 62
7
  6
CONTINUOUS
 10
81.5754772705
 20
95.7074492989
 11
81.5794663741
 21
96.0692614741
  0
LINE
  5
281
100
AcDbEntity
  8
0
100
AcDbLine
 62
7
  6
CONTINUOUS
 10
81.7748998807
 20
96.0663399991
 11
81.771584035
 21
95.8917638168
  0
LINE
  5
282
100
AcDbEntity
  8
0
100
AcDbLine
 62
7
  6
CONTINUOUS
 10
11.4491745585
 20
96.7557457052
 11
82.2407191817
 21
95.6975048034
  0
LINE
  5
283
100
AcDbEntity
  8
0
100
AcDbLine
 62
7
  6
CONTINUOUS
 10
11.9658350778
 20
96.9352683642
 11
12.4655831175
 21
96.9277977854
  0
LINE
  5
284
100
AcDbEntity
  8
0
100
AcDbLine
 62
7
  6
CONTINUOUS
 10
28.483882915
 20
96.6883451768
 11
30.1634692733
 21
96.6632375599
  0
LINE
  5
285
100
AcDbEntity
  8
0
100
AcDbLine
 62
7
  6
CONTINUOUS
 10
46.1817690708
 20
96.4237849513
 11
47.8613554291
 21
96.3986773344
  0
LINE
  5
286
100
AcDbEntity
  8
0
100
AcDbLine
 62
7
  6
CONTINUOUS
 10
63.8796552266
 20
96.1592247259
 11
65.5592415849
 21
96.134117109
  0
LINE
  5
287
100
AcDbEntity
  8
0
100
AcDbLine
 62
7
  6
CONTINUOUS
 10
81.5775413824
 20
95.8946645004
 11
81.771584035
 21
95.8917638168
  0
LINE
  5
288
100
AcDbEntity
  8
0
100
AcDbLine
 62
7
  6
CONTINUOUS
 10
82.1101140368
 20
96.0613289864
 11
11.9894435053
 21
97.1095411989
  0
LINE
  5
289
100
AcDbEntity
  8
0
100
AcDbLine
 62
7
  6
CONTINUOUS
 10
82.1127603361
 20
96.2006541743
 11
11.9920898046
 21
97.2488663869
  0
LINE
  5
28A
100
AcDbEntity
  8
0
100
AcDbLine
 62
7
  6
CONTINUOUS
 10
82.0266205467
 20
98.0404303381
 11
12.0196716948
 21
99.0869425604
  0
LINE
  5
28B
100
AcDbEntity
  8
0
100
AcDbLine
 62
7
  6
CONTINUOUS
 10
82.0266205466
 20
98.0404303381
 11
82.1127603361
 21
96.2006541743
  0
LINE
  5
28C
100
AcDbEntity
  8
0
100
AcDbLine
 62
7
  6
CONTINUOUS
 10
82.2832259352
 20
90.3946041323
 11
82.070975232
 21
76.1961905219
  0
LINE
  5
28D
100
AcDbEntity
  8
0
100
AcDbLine
 62
7
  6
CONTINUOUS
 10
82.1263146817
 20
75.1942854636
 11
81.4297736417
 21
28.5994915027
  0
LINE
  5
28E
100
AcDbEntity
  8
0
100
AcDbLine
 62
7
  6
CONTINUOUS
 10
82.1127603361
 20
96.2006541743
 11
82.1101140368
 21
96.0613289864
  0
LINE
  5
28F
100
AcDbEntity
  8
0
100
AcDbLine
 62
7
  6
CONTINUOUS
 10
81.3665060003
 20
26.900767685
 11
81.4297736417
 21
28.5994915027
  0
LINE
  5
290
100
AcDbEntity
  8
0
100
AcDbLine
 62
7
  6
CONTINUOUS
 10
81.84512196
 20
99.5843521423
 11
12.036177807
 21
100.6279044537
  0
LINE
  5
291
100
AcDbEntity
  8
0
100
AcDbLine
 62
7
  6
CONTINUOUS
 10
81.8443993911
 20
99.5870825701
 11
12.0361825804
 21
100.6306240087
  0
LINE
  5
292
100
AcDbEntity
  8
0
100
AcDbLine
 62
7
  6
CONTINUOUS
 10
25.5331075426
 20
100.6078517862
 11
68.5278933992
 21
99.9651360325
  0
LINE
  5
293
100
AcDbEntity
  8
0
100
AcDbLine
 62
7
  6
CONTINUOUS
 10
81.6722081998
 20
99.8544808506
 11
68.5236565392
 21
100.051034482
  0
LINE
  5
294
100
AcDbEntity
  8
0
100
AcDbLine
 62
7
  6
CONTINUOUS
 10
25.5288706826
 20
100.6937502357
 11
12.0304829366
 21
100.8955334585
  0
LINE
  5
295
100
AcDbEntity
  8
0
100
AcDbLine
 62
7
  6
CONTINUOUS
 10
25.5391387011
 20
101.8361462178
 11
68.5339245576
 21
101.1934304641
  0
LINE
  5
296
100
AcDbEntity
  8
0
100
AcDbLine
 62
7
  6
CONTINUOUS
 10
81.84512196
 20
99.5843521423
 11
82.0266205467
 21
98.0404303381
  0
LINE
  5
297
100
AcDbEntity
  8
0
100
AcDbLine
 62
7
  6
CONTINUOUS
 10
81.8443993911
 20
99.5870825701
 11
81.84512196
 21
99.5843521423
  0
ARC
  5
298
100
AcDbEntity
  8
0
100
AcDbCircle
 62
7
  6
CONTINUOUS
 10
-562.5368493953
 20
100.7685395537
 40
591.707087546
100
AcDbArc
 50
359.2662238032
 51
359.4649808731
  0
ARC
  5
299
100
AcDbEntity
  8
0
100
AcDbCircle
 62
7
  6
CONTINUOUS
 10
-544.8389632311
 20
100.5039793282
 40
591.7070875376
100
AcDbArc
 50
359.2662238032
 51
359.4649808731
  0
ARC
  5
29A
100
AcDbEntity
  8
0
100
AcDbCircle
 62
7
  6
CONTINUOUS
 10
-527.1410770716
 20
100.2394191027
 40
591.707087534
100
AcDbArc
 50
359.2662238032
 51
359.4649808731
  0
ARC
  5
29B
100
AcDbEntity
  8
0
100
AcDbCircle
 62
7
  6
CONTINUOUS
 10
476.6775681106
 20
91.6257399516
 40
464.7456517339
100
AcDbArc
 50
178.9435042357
 51
179.1264510904
  0
ARC
  5
29C
100
AcDbEntity
  8
0
100
AcDbCircle
 62
7
  6
CONTINUOUS
 10
-403.2590539904
 20
97.6977034159
 40
432.4976100878
100
AcDbArc
 50
359.1376222968
 51
359.2702357665
  0
ARC
  5
29D
100
AcDbEntity
  8
0
100
AcDbCircle
 62
7
  6
CONTINUOUS
 10
-385.5611678177
 20
97.4331431902
 40
432.4976100709
100
AcDbArc
 50
359.1376222968
 51
359.2702357665
  0
ARC
  5
29E
100
AcDbEntity
  8
0
100
AcDbCircle
 62
7
  6
CONTINUOUS
 10
-367.8632813266
 20
97.16858296
 40
432.4976097356
100
AcDbArc
 50
359.1376222968
 51
359.2702357669
  0
ARC
  5
29F
100
AcDbEntity
  8
0
100
AcDbCircle
 62
7
  6
CONTINUOUS
 10
-136.2044931986
 20
78.4958780844
 40
200.6559065801
100
AcDbArc
 50
359.1327652102
 51
359.3007221149
  0
ARC
  5
2A0
100
AcDbEntity
  8
0
100
AcDbCircle
 62
7
  6
CONTINUOUS
 10
-153.9023787418
 20
78.7604383014
 40
200.6559059675
100
AcDbArc
 50
359.1327652099
 51
359.300722116
  0
ARC
  5
2A1
100
AcDbEntity
  8
0
100
AcDbCircle
 62
7
  6
CONTINUOUS
 10
-171.6002648879
 20
79.0249985267
 40
200.6559059578
100
AcDbArc
 50
359.1327652099
 51
359.3007221161
  0
ARC
  5
2A2
100
AcDbEntity
  8
0
100
AcDbCircle
 62
7
  6
CONTINUOUS
 10
-39.6063123838
 20
93.2565988623
 40
104.2172085873
100
AcDbArc
 50
359.349418592
 51
359.5238571176
  0
ARC
  5
2A3
100
AcDbEntity
  8
0
100
AcDbCircle
 62
7
  6
CONTINUOUS
 10
-57.3007399014
 20
93.5211282899
 40
104.2137498127
100
AcDbArc
 50
359.3494299942
 51
359.5238582471
  0
ARC
  5
2A4
100
AcDbEntity
  8
0
100
AcDbCircle
 62
7
  6
CONTINUOUS
 10
-74.9986141084
 20
93.785688409
 40
104.2137378633
100
AcDbArc
 50
359.3494300335
 51
359.523858251
  0
ARC
  5
2A5
100
AcDbEntity
  8
0
100
AcDbCircle
 62
7
  6
CONTINUOUS
 10
79.5608524952
 20
95.6597962468
 40
67.6070499932
100
AcDbArc
 50
178.9189957996
 51
179.0714625616
  0
ARC
  5
2A6
100
AcDbEntity
  8
0
100
AcDbCircle
 62
7
  6
CONTINUOUS
 10
53.0842237099
 20
100.7155692753
 40
27.5513267397
100
AcDbArc
 50
180.0721893854
 51
180.2240100191
  0
ARC
  5
2A7
100
AcDbEntity
  8
0
100
AcDbCircle
 62
7
  6
CONTINUOUS
 10
94.0843517582
 20
100.0676976639
 40
25.5566641552
100
AcDbArc
 50
180.0662646854
 51
180.2299347191
  0
ARC
  5
2A8
100
AcDbEntity
  8
0
100
AcDbCircle
 62
7
  6
CONTINUOUS
 10
72.8420002792
 20
48.830646506
 40
3.5999582166
100
AcDbArc
 50
268.9792540998
 51
359.1436675886
  0
ARC
  5
2A9
100
AcDbEntity
  8
0
100
AcDbCircle
 62
7
  6
CONTINUOUS
 10
55.1441141234
 20
49.0952067315
 40
3.5999582166
100
AcDbArc
 50
268.9792541001
 51
359.1436675882
  0
ARC
  5
2AA
100
AcDbEntity
  8
0
100
AcDbCircle
 62
7
  6
CONTINUOUS
 10
37.4462279676
 20
49.3597669569
 40
3.5999582166
100
AcDbArc
 50
268.9792541
 51
359.1436675893
  0
ARC
  5
2AB
100
AcDbEntity
  8
0
100
AcDbCircle
 62
7
  6
CONTINUOUS
 10
19.7483418118
 20
49.6243271824
 40
3.5999582166
100
AcDbArc
 50
268.9792541
 51
359.1436675882
  0
ARC
  5
2AC
100
AcDbEntity
  8
0
100
AcDbCircle
 62
7
  6
CONTINUOUS
 10
72.8812656176
 20
48.8295141846
 40
3.5999501176
100
AcDbArc
 50
179.1433763842
 51
359.1435753081
  0
ARC
  5
2AD
100
AcDbEntity
  8
0
100
AcDbCircle
 62
7
  6
CONTINUOUS
 10
55.1833794618
 20
49.0940744101
 40
3.5999501176
100
AcDbArc
 50
179.1433763842
 51
359.1435753083
  0
ARC
  5
2AE
100
AcDbEntity
  8
0
100
AcDbCircle
 62
7
  6
CONTINUOUS
 10
37.485493306
 20
49.3586346356
 40
3.5999501176
100
AcDbArc
 50
179.1433763842
 51
359.1435753076
  0
ARC
  5
2AF
100
AcDbEntity
  8
0
100
AcDbCircle
 62
7
  6
CONTINUOUS
 10
19.7876071502
 20
49.623194861
 40
3.5999501176
100
AcDbArc
 50
179.1433763842
 51
359.1435753083
  0
SPLINE
  5
2B0
100
AcDbEntity
  8
0
100
AcDbSpline
 62
7
  6
CONTINUOUS
 70
0
 71
3
 72
18
 73
14
 74
0
 42
0.0000001
 43
0.0000001
 44
0.0000000001
 40
0.0
 40
0.0
 40
0.0
 40
0.0
 40
0.2244564975
 40
0.4241730333
 40
0.5968270384
 40
0.7402263141
 40
0.8530798274
 40
0.8977676228
 40
0.9344782559
 40
0.9630992329
 40
0.9835582714
 40
0.9958502971
 40
1.0
 40
1.0
 40
1.0
 40
1.0
 10
12.0110362492
 20
99.168700142
 30
0.0
 10
12.0111572305
 20
99.1796731644
 30
0.0
 10
12.0113784234
 20
99.2004100057
 30
0.0
 10
12.0116616439
 20
99.2295868467
 30
0.0
 10
12.0118782599
 20
99.2548039709
 30
0.0
 10
12.0120176384
 20
99.2757670626
 30
0.0
 10
12.0120927604
 20
99.290493192
 30
0.0
 10
12.0120873266
 20
99.2999697795
 30
0.0
 10
12.012107809
 20
99.3053917571
 30
0.0
 10
12.0119966275
 20
99.3094743118
 30
0.0
 10
12.0121392
 20
99.3127275404
 30
0.0
 10
12.0117553926
 20
99.3140860125
 30
0.0
 10
12.0120416062
 20
99.3153519791
 30
0.0
 10
12.0118387982
 20
99.3153573544
 30
0.0
  0
SPLINE
  5
2B1
100
AcDbEntity
  8
0
100
AcDbSpline
 62
7
  6
CONTINUOUS
 70
0
 71
3
 72
9
 73
5
 74
0
 42
0.0000001
 43
0.0000001
 44
0.0000000001
 40
0.0
 40
0.0
 40
0.0
 40
0.0
 40
0.2502339125
 40
1.0
 40
1.0
 40
1.0
 40
1.0
 10
11.9618000522
 20
97.1094347534
 30
0.0
 10
11.963776341
 20
97.2430338901
 30
0.0
 10
11.9717106145
 20
97.7769303553
 30
0.0
 10
11.9797899904
 20
98.3108246645
 30
0.0
 10
11.9859303485
 20
98.7111192361
 30
0.0
  0
SPLINE
  5
2B2
100
AcDbEntity
  8
0
100
AcDbSpline
 62
7
  6
CONTINUOUS
 70
0
 71
3
 72
9
 73
5
 74
0
 42
0.0000001
 43
0.0000001
 44
0.0000000001
 40
0.0
 40
0.0
 40
0.0
 40
0.0
 40
0.5984731183
 40
1.0
 40
1.0
 40
1.0
 40
1.0
 10
12.0109229616
 20
100.1948525987
 30
0.0
 10
12.0130772021
 20
100.3082713515
 30
0.0
 10
12.0168428868
 20
100.497781324
 30
0.0
 10
12.0210792374
 20
100.6872831447
 30
0.0
 10
12.0231712554
 20
100.7633628885
 30
0.0
  0
SPLINE
  5
2B3
100
AcDbEntity
  8
0
100
AcDbSpline
 62
7
  6
CONTINUOUS
 70
0
 71
3
 72
9
 73
5
 74
0
 42
0.0000001
 43
0.0000001
 44
0.0000000001
 40
0.0
 40
0.0
 40
0.0
 40
0.0
 40
0.6544059949
 40
1.0
 40
1.0
 40
1.0
 40
1.0
 10
12.0231712554
 20
100.7633628885
 30
0.0
 10
12.0237944784
 20
100.7860274387
 30
0.0
 10
12.0249037737
 20
100.8206512128
 30
0.0
 10
12.0260353149
 20
100.8552909572
 30
0.0
 10
12.0268829024
 20
100.8672346697
 30
0.0
  0
SPLINE
  5
2B4
100
AcDbEntity
  8
0
100
AcDbSpline
 62
7
  6
CONTINUOUS
 70
0
 71
3
 72
13
 73
9
 74
0
 42
0.0000001
 43
0.0000001
 44
0.0000000001
 40
0.0
 40
0.0
 40
0.0
 40
0.0
 40
0.062957807
 40
0.1365854178
 40
0.2268051107
 40
0.3368555738
 40
0.622439362
 40
1.0
 40
1.0
 40
1.0
 40
1.0
 10
81.6722083775
 20
99.8544771103
 30
0.0
 10
81.6791354784
 20
99.8543754515
 30
0.0
 10
81.6941838974
 20
99.8507475723
 30
0.0
 10
81.7152689452
 20
99.8368408857
 30
0.0
 10
81.7362771238
 20
99.8150111741
 30
0.0
 10
81.7672824384
 20
99.7712986307
 30
0.0
 10
81.8051776816
 20
99.694692667
 30
0.0
 10
81.830893955
 20
99.6263728028
 30
0.0
 10
81.8443993911
 20
99.5870825701
 30
0.0
  0
SPLINE
  5
2B5
100
AcDbEntity
  8
0
100
AcDbSpline
 62
7
  6
CONTINUOUS
 70
0
 71
3
 72
9
 73
5
 74
0
 42
0.0000001
 43
0.0000001
 44
0.0000000001
 40
0.0
 40
0.0
 40
0.0
 40
0.0
 40
0.4069206903
 40
1.0
 40
1.0
 40
1.0
 40
1.0
 10
68.527704695
 20
100.0381404444
 30
0.0
 10
68.5274998215
 20
100.1948467371
 30
0.0
 10
68.5291338354
 20
100.5799500449
 30
0.0
 10
68.5319993211
 20
100.965041887
 30
0.0
 10
68.5339245576
 20
101.1934304641
 30
0.0
  0
SPLINE
  5
2B6
100
AcDbEntity
  8
0
100
AcDbSpline
 62
7
  6
CONTINUOUS
 70
0
 71
3
 72
9
 73
5
 74
0
 42
0.0000001
 43
0.0000001
 44
0.0000000001
 40
0.0
 40
0.0
 40
0.0
 40
0.0
 40
0.5930793097
 40
1.0
 40
1.0
 40
1.0
 40
1.0
 10
25.5391387011
 20
101.8361462178
 30
0.0
 10
25.5372134645
 20
101.6077576407
 30
0.0
 10
25.5343479789
 20
101.2226657986
 30
0.0
 10
25.532713965
 20
100.8375624908
 30
0.0
 10
25.5329188384
 20
100.6808561981
 30
0.0
  0
SPLINE
  5
2B7
100
AcDbEntity
  8
0
100
AcDbSpline
 62
7
  6
CONTINUOUS
 70
0
 71
3
 72
18
 73
14
 74
0
 42
0.0000001
 43
0.0000001
 44
0.0000000001
 40
0.0
 40
0.0
 40
0.0
 40
0.0
 40
0.0041294449
 40
0.0163897004
 40
0.0368128503
 40
0.0653912853
 40
0.1020425096
 40
0.1466614095
 40
0.2593803973
 40
0.4027004578
 40
0.5753451657
 40
0.7751875417
 40
1.0
 40
1.0
 40
1.0
 40
1.0
 10
12.0118387982
 20
99.3153573544
 30
0.0
 10
12.0116443264
 20
99.3153625088
 30
0.0
 10
12.0118776496
 20
99.3141289724
 30
0.0
 10
12.0114716502
 20
99.3128446463
 30
0.0
 10
12.0115116436
 20
99.3097071168
 30
0.0
 10
12.0112864107
 20
99.3057870438
 30
0.0
 10
12.0111480603
 20
99.300571358
 30
0.0
 10
12.0108677571
 20
99.291456839
 30
0.0
 10
12.0105129989
 20
99.2772840124
 30
0.0
 10
12.0100400748
 20
99.2570996953
 30
0.0
 10
12.0095185588
 20
99.2328033552
 30
0.0
 10
12.0089466569
 20
99.2046707806
 30
0.0
 10
12.0085594878
 20
99.1846686572
 30
0.0
 10
12.0083583615
 20
99.1740795448
 30
0.0
  0
SPLINE
  5
2B8
100
AcDbEntity
  8
0
100
AcDbSpline
 62
7
  6
CONTINUOUS
 70
0
 71
3
 72
14
 73
10
 74
0
 42
0.0000001
 43
0.0000001
 44
0.0000000001
 40
0.0
 40
0.0
 40
0.0
 40
0.0
 40
0.4356828086
 40
0.6070721971
 40
0.7474382379
 40
0.8567556066
 40
0.9350535122
 40
0.9824751656
 40
1.0
 40
1.0
 40
1.0
 40
1.0
 10
25.5331075426
 20
100.6078517862
 30
0.0
 10
25.5328937788
 20
100.6203648291
 30
0.0
 10
25.5325461778
 20
100.6378157485
 30
0.0
 10
25.5318747321
 20
100.6592404843
 30
0.0
 10
25.5313953622
 20
100.6713982864
 30
0.0
 10
25.530833467
 20
100.680618321
 30
0.0
 10
25.5303719985
 20
100.6877737665
 30
0.0
 10
25.5296858791
 20
100.6910961834
 30
0.0
 10
25.5293740285
 20
100.6937431274
 30
0.0
 10
25.5288706842
 20
100.6937503399
 30
0.0
  0
SPLINE
  5
2B9
100
AcDbEntity
  8
0
100
AcDbSpline
 62
7
  6
CONTINUOUS
 70
0
 71
3
 72
18
 73
14
 74
0
 42
0.0000001
 43
0.0000001
 44
0.0000000001
 40
0.0
 40
0.0
 40
0.0
 40
0.0
 40
0.0045304192
 40
0.016490366
 40
0.0361942295
 40
0.0636861746
 40
0.0989762512
 40
0.1420653326
 40
0.2516276494
 40
0.3923337876
 40
0.5640752469
 40
0.7666868934
 40
1.0
 40
1.0
 40
1.0
 40
1.0
 10
12.030482858
 20
100.8955281974
 30
0.0
 10
12.0308833143
 20
100.8955235852
 30
0.0
 10
12.0312505857
 20
100.8935191673
 30
0.0
 10
12.0317821284
 20
100.8908922571
 30
0.0
 10
12.0322438422
 20
100.885384744
 30
0.0
 10
12.0327333268
 20
100.8782401092
 30
0.0
 10
12.0331820428
 20
100.8688409855
 30
0.0
 10
12.0338031956
 20
100.8522627877
 30
0.0
 10
12.0344510851
 20
100.8263218848
 30
0.0
 10
12.0350753961
 20
100.7890287781
 30
0.0
 10
12.0355779723
 20
100.743498299
 30
0.0
 10
12.0359594557
 20
100.6897835824
 30
0.0
 10
12.0361191204
 20
100.6512484728
 30
0.0
 10
12.0361825804
 20
100.6306240087
 30
0.0
  0
SPLINE
  5
2BA
100
AcDbEntity
  8
0
100
AcDbSpline
 62
7
  6
CONTINUOUS
 70
0
 71
3
 72
26
 73
22
 74
0
 42
0.0000001
 43
0.0000001
 44
0.0000000001
 40
0.0
 40
0.0
 40
0.0
 40
0.0
 40
0.1949106383
 40
0.3827008793
 40
0.5555388731
 40
0.6343225834
 40
0.7070177164
 40
0.772939087
 40
0.8314056198
 40
0.8818428107
 40
0.9238128854
 40
0.9414887767
 40
0.9568875606
 40
0.9699709599
 40
0.9807190257
 40
0.9891130166
 40
0.9951344008
 40
0.9972497782
 40
0.9987655575
 40
0.9996805175
 40
1.0
 40
1.0
 40
1.0
 40
1.0
 10
82.1263146817
 20
75.1942854636
 30
0.0
 10
82.1272858984
 20
75.2592545565
 30
0.0
 10
82.1291440715
 20
75.3868200527
 30
0.0
 10
82.1316965867
 20
75.5719996016
 30
0.0
 10
82.1335862252
 20
75.7184719297
 30
0.0
 10
82.1348896476
 20
75.8265799041
 30
0.0
 10
82.1357169375
 20
75.8990487775
 30
0.0
 10
82.1364174345
 20
75.9647455899
 30
0.0
 10
82.1369843779
 20
76.023023423
 30
0.0
 10
82.1374120534
 20
76.0733175138
 30
0.0
 10
82.1376642337
 20
76.1100148334
 30
0.0
 10
82.1377858003
 20
76.1350313282
 30
0.0
 10
82.1378355243
 20
76.1504199099
 30
0.0
 10
82.1378461726
 20
76.1634944543
 30
0.0
 10
82.1378279792
 20
76.1742468822
 30
0.0
 10
82.1377571853
 20
76.1826105936
 30
0.0
 10
82.1377035528
 20
76.1881724036
 30
0.0
 10
82.1375772641
 20
76.1913195716
 30
0.0
 10
82.1375666963
 20
76.1929484388
 30
0.0
 10
82.1373972028
 20
76.1936581424
 30
0.0
 10
82.1374417445
 20
76.1942833603
 30
0.0
 10
82.1373352841
 20
76.194286415
 30
0.0
  0
SPLINE
  5
2BB
100
AcDbEntity
  8
0
100
AcDbSpline
 62
7
  6
CONTINUOUS
 70
0
 71
3
 72
28
 73
24
 74
0
 42
0.0000001
 43
0.0000001
 44
0.0000000001
 40
0.0
 40
0.0
 40
0.0
 40
0.0
 40
0.1950115556
 40
0.3826806701
 40
0.4713672647
 40
0.555513883
 40
0.6343310023
 40
0.7070534042
 40
0.772948037
 40
0.8314087406
 40
0.8818624447
 40
0.9238145851
 40
0.9414848027
 40
0.9568903377
 40
0.9699858413
 40
0.9807374313
 40
0.9891283318
 40
0.9924337751
 40
0.9951433958
 40
0.9972554239
 40
0.9987682989
 40
0.9996812247
 40
1.0
 40
1.0
 40
1.0
 40
1.0
 10
82.2832259352
 20
90.3946041323
 30
0.0
 10
82.2851693745
 20
90.5246096138
 30
0.0
 10
82.2888858966
 20
90.7797271622
 30
0.0
 10
82.2932173144
 20
91.093971933
 30
0.0
 10
82.2963663035
 20
91.334308941
 30
0.0
 10
82.2984816236
 20
91.5020783781
 30
0.0
 10
82.3003759871
 20
91.6592059308
 30
0.0
 10
82.302031655
 20
91.804166306
 30
0.0
 10
82.3034319362
 20
91.9355564585
 30
0.0
 10
82.3045651625
 20
92.0521013393
 30
0.0
 10
82.3054211134
 20
92.1526850066
 30
0.0
 10
82.3059246808
 20
92.2260741611
 30
0.0
 10
82.3061684211
 20
92.2760971894
 30
0.0
 10
82.3062666865
 20
92.3068801503
 30
0.0
 10
82.3062936071
 20
92.3330529753
 30
0.0
 10
82.3062441406
 20
92.3545416868
 30
0.0
 10
82.3061485833
 20
92.3695203479
 30
0.0
 10
82.306010007
 20
92.3791057664
 30
0.0
 10
82.3059229662
 20
92.384562552
 30
0.0
 10
82.3057512905
 20
92.3886827899
 30
0.0
 10
82.3057301428
 20
92.3919360899
 30
0.0
 10
82.3053921743
 20
92.3933527228
 30
0.0
 10
82.3054795894
 20
92.3945999393
 30
0.0
 10
82.3052671398
 20
92.3946060353
 30
0.0
  0
SPLINE
  5
2BC
100
AcDbEntity
  8
0
100
AcDbSpline
 62
7
  6
CONTINUOUS
 70
0
 71
3
 72
29
 73
25
 74
0
 42
0.0000001
 43
0.0000001
 44
0.0000000001
 40
0.0
 40
0.0
 40
0.0
 40
0.0
 40
0.2192298186
 40
0.4167139805
 40
0.5062170994
 40
0.5891244031
 40
0.6651235394
 40
0.7339332294
 40
0.7952973959
 40
0.8489616813
 40
0.89471345
 40
0.914573162
 40
0.9323967925
 40
0.9481653871
 40
0.9618601332
 40
0.9734672736
 40
0.9829799739
 40
0.9903920716
 40
0.9933086035
 40
0.9956979428
 40
0.9975596611
 40
0.9988937949
 40
0.9997020652
 40
1.0
 40
1.0
 40
1.0
 40
1.0
 10
82.2153730405
 20
92.397185418
 30
0.0
 10
82.218357801
 20
92.6383659838
 30
0.0
 10
82.2238798365
 20
93.0968060322
 30
0.0
 10
82.2301340302
 20
93.6537165721
 30
0.0
 10
82.2343741534
 20
94.0606565539
 30
0.0
 10
82.2370554203
 20
94.3339463232
 30
0.0
 10
82.2393342797
 20
94.5844717508
 30
0.0
 10
82.2412028224
 20
94.81129786
 30
0.0
 10
82.2426559055
 20
95.0135534142
 30
0.0
 10
82.2436880278
 20
95.1904426187
 30
0.0
 10
82.2442201677
 20
95.3216701364
 30
0.0
 10
82.2444094145
 20
95.4134662239
 30
0.0
 10
82.2444372929
 20
95.472274565
 30
0.0
 10
82.2443590451
 20
95.5243004584
 30
0.0
 10
82.2441746221
 20
95.5694855262
 30
0.0
 10
82.24388717
 20
95.6077902979
 30
0.0
 10
82.243495027
 20
95.6391726471
 30
0.0
 10
82.2430688805
 20
95.6610133647
 30
0.0
 10
82.2426411088
 20
95.6749768983
 30
0.0
 10
82.2423361666
 20
95.6829042686
 30
0.0
 10
82.2419747588
 20
95.6889170577
 30
0.0
 10
82.2416849722
 20
95.6935896361
 30
0.0
 10
82.2412360845
 20
95.6957529489
 30
0.0
 10
82.2410467338
 20
95.6974863604
 30
0.0
 10
82.2407189791
 20
95.6974912449
 30
0.0
  0
SPLINE
  5
2BD
100
AcDbEntity
  8
0
100
AcDbSpline
 62
7
  6
CONTINUOUS
 70
0
 71
3
 72
17
 73
13
 74
0
 42
0.0000001
 43
0.0000001
 44
0.0000000001
 40
0.0
 40
0.0
 40
0.0
 40
0.0
 40
0.0046457715
 40
0.0166695355
 40
0.0364209832
 40
0.0639487232
 40
0.1423612174
 40
0.2518968771
 40
0.3924985173
 40
0.5640980778
 40
0.766623308
 40
1.0
 40
1.0
 40
1.0
 40
1.0
 10
64.5428328233
 20
95.9620514704
 30
0.0
 10
64.543053191
 20
95.9620481863
 30
0.0
 10
64.5432929733
 20
95.960986638
 30
0.0
 10
64.5435837296
 20
95.9595507421
 30
0.0
 10
64.5438684256
 20
95.956602888
 30
0.0
 10
64.5442997087
 20
95.950744811
 30
0.0
 10
64.5447415192
 20
95.9404645107
 30
0.0
 10
64.5451929495
 20
95.9249169246
 30
0.0
 10
64.5455795447
 20
95.9049009596
 30
0.0
 10
64.545905775
 20
95.8804893373
 30
0.0
 10
64.5461657997
 20
95.8516693969
 30
0.0
 10
64.546286366
 20
95.830991251
 30
0.0
 10
64.5463380505
 20
95.8199201426
 30
0.0
  0
SPLINE
  5
2BE
100
AcDbEntity
  8
0
100
AcDbSpline
 62
7
  6
CONTINUOUS
 70
0
 71
3
 72
9
 73
5
 74
0
 42
0.0000001
 43
0.0000001
 44
0.0000000001
 40
0.0
 40
0.0
 40
0.0
 40
0.0
 40
0.3811316956
 40
1.0
 40
1.0
 40
1.0
 40
1.0
 10
64.5463380505
 20
95.8199201426
 30
0.0
 10
64.5469938321
 20
95.6794478359
 30
0.0
 10
64.5451809578
 20
95.3108731374
 30
0.0
 10
64.5422944469
 20
94.9423171446
 30
0.0
 10
64.5402135949
 20
94.714230137
 30
0.0
  0
LINE
  5
2BF
100
AcDbEntity
  8
0
100
AcDbLine
 62
7
  6
CONTINUOUS
 10
64.4388994877
 20
76.2675119667
 11
64.4378470951
 21
76.1658768735
  0
LINE
  5
2C0
100
AcDbEntity
  8
0
100
AcDbLine
 62
7
  6
CONTINUOUS
 10
64.4378470951
 20
76.1658768735
 11
64.436469243
 21
76.0469934407
  0
SPLINE
  5
2C1
100
AcDbEntity
  8
0
100
AcDbSpline
 62
7
  6
CONTINUOUS
 70
0
 71
3
 72
26
 73
22
 74
0
 42
0.0000001
 43
0.0000001
 44
0.0000000001
 40
0.0
 40
0.0
 40
0.0
 40
0.0
 40
0.1949106383
 40
0.3827008793
 40
0.5555388731
 40
0.6343225834
 40
0.7070177164
 40
0.772939087
 40
0.8314056198
 40
0.8818428107
 40
0.9238128854
 40
0.9414887767
 40
0.9568875606
 40
0.9699709599
 40
0.9807190257
 40
0.9891130166
 40
0.9951344008
 40
0.9972497782
 40
0.9987655575
 40
0.9996805175
 40
1.0
 40
1.0
 40
1.0
 40
1.0
 10
64.4284285259
 20
75.458845689
 30
0.0
 10
64.4293997426
 20
75.5238147819
 30
0.0
 10
64.4312579157
 20
75.6513802782
 30
0.0
 10
64.4338104309
 20
75.836559827
 30
0.0
 10
64.4357000694
 20
75.9830321552
 30
0.0
 10
64.4370034918
 20
76.0911401295
 30
0.0
 10
64.4378307817
 20
76.1636090029
 30
0.0
 10
64.4385312787
 20
76.2293058154
 30
0.0
 10
64.4390982221
 20
76.2875836485
 30
0.0
 10
64.4395258976
 20
76.3378777393
 30
0.0
 10
64.4397780779
 20
76.3745750588
 30
0.0
 10
64.4398996445
 20
76.3995915537
 30
0.0
 10
64.4399493685
 20
76.4149801354
 30
0.0
 10
64.4399600168
 20
76.4280546797
 30
0.0
 10
64.4399418234
 20
76.4388071076
 30
0.0
 10
64.4398710295
 20
76.4471708191
 30
0.0
 10
64.439817397
 20
76.4527326291
 30
0.0
 10
64.4396911083
 20
76.455879797
 30
0.0
 10
64.4396805405
 20
76.4575086643
 30
0.0
 10
64.439511047
 20
76.4582183678
 30
0.0
 10
64.4395555887
 20
76.4588435858
 30
0.0
 10
64.4394491283
 20
76.4588466405
 30
0.0
  0
SPLINE
  5
2C2
100
AcDbEntity
  8
0
100
AcDbSpline
 62
7
  6
CONTINUOUS
 70
0
 71
3
 72
28
 73
24
 74
0
 42
0.0000001
 43
0.0000001
 44
0.0000000001
 40
0.0
 40
0.0
 40
0.0
 40
0.0
 40
0.1950115556
 40
0.3826806701
 40
0.4713672647
 40
0.555513883
 40
0.6343310023
 40
0.7070534042
 40
0.772948037
 40
0.8314087406
 40
0.8818624447
 40
0.9238145851
 40
0.9414848027
 40
0.9568903377
 40
0.9699858413
 40
0.9807374313
 40
0.9891283318
 40
0.9924337751
 40
0.9951433958
 40
0.9972554239
 40
0.9987682989
 40
0.9996812247
 40
1.0
 40
1.0
 40
1.0
 40
1.0
 10
64.5853397794
 20
90.6591643578
 30
0.0
 10
64.5872832187
 20
90.7891698393
 30
0.0
 10
64.5909997407
 20
91.0442873877
 30
0.0
 10
64.5953311586
 20
91.3585321585
 30
0.0
 10
64.5984801477
 20
91.5988691665
 30
0.0
 10
64.6005954678
 20
91.7666386035
 30
0.0
 10
64.6024898313
 20
91.9237661563
 30
0.0
 10
64.6041454992
 20
92.0687265314
 30
0.0
 10
64.6055457804
 20
92.200116684
 30
0.0
 10
64.6066790067
 20
92.3166615647
 30
0.0
 10
64.6075349576
 20
92.417245232
 30
0.0
 10
64.608038525
 20
92.4906343866
 30
0.0
 10
64.6082822653
 20
92.5406574148
 30
0.0
 10
64.6083805307
 20
92.5714403757
 30
0.0
 10
64.6084074513
 20
92.5976132007
 30
0.0
 10
64.6083579848
 20
92.6191019123
 30
0.0
 10
64.6082624275
 20
92.6340805734
 30
0.0
 10
64.6081238512
 20
92.6436659919
 30
0.0
 10
64.6080368104
 20
92.6491227774
 30
0.0
 10
64.6078651347
 20
92.6532430154
 30
0.0
 10
64.607843987
 20
92.6564963153
 30
0.0
 10
64.6075060185
 20
92.6579129483
 30
0.0
 10
64.6075934336
 20
92.6591601648
 30
0.0
 10
64.607380984
 20
92.6591662607
 30
0.0
  0
SPLINE
  5
2C3
100
AcDbEntity
  8
0
100
AcDbSpline
 62
7
  6
CONTINUOUS
 70
0
 71
3
 72
29
 73
25
 74
0
 42
0.0000001
 43
0.0000001
 44
0.0000000001
 40
0.0
 40
0.0
 40
0.0
 40
0.0
 40
0.2192298186
 40
0.4167139805
 40
0.5062170994
 40
0.5891244031
 40
0.6651235394
 40
0.7339332294
 40
0.7952973959
 40
0.8489616813
 40
0.89471345
 40
0.914573162
 40
0.9323967925
 40
0.9481653871
 40
0.9618601332
 40
0.9734672736
 40
0.9829799739
 40
0.9903920716
 40
0.9933086035
 40
0.9956979428
 40
0.9975596611
 40
0.9988937949
 40
0.9997020652
 40
1.0
 40
1.0
 40
1.0
 40
1.0
 10
64.5174868847
 20
92.6617456435
 30
0.0
 10
64.5204716452
 20
92.9029262093
 30
0.0
 10
64.5259936807
 20
93.3613662576
 30
0.0
 10
64.5322478744
 20
93.9182767975
 30
0.0
 10
64.5364879976
 20
94.3252167793
 30
0.0
 10
64.5391692645
 20
94.5985065487
 30
0.0
 10
64.5414481239
 20
94.8490319762
 30
0.0
 10
64.5433166666
 20
95.0758580854
 30
0.0
 10
64.5447697497
 20
95.2781136396
 30
0.0
 10
64.545801872
 20
95.4550028441
 30
0.0
 10
64.5463340119
 20
95.5862303618
 30
0.0
 10
64.5465232587
 20
95.6780264494
 30
0.0
 10
64.5465511371
 20
95.7368347905
 30
0.0
 10
64.5464728893
 20
95.7888606838
 30
0.0
 10
64.5462884663
 20
95.8340457516
 30
0.0
 10
64.5460010142
 20
95.8723505233
 30
0.0
 10
64.5456088712
 20
95.9037328726
 30
0.0
 10
64.5451827247
 20
95.9255735902
 30
0.0
 10
64.544754953
 20
95.9395371237
 30
0.0
 10
64.5444500108
 20
95.947464494
 30
0.0
 10
64.544088603
 20
95.9534772832
 30
0.0
 10
64.5437988164
 20
95.9581498615
 30
0.0
 10
64.5433499287
 20
95.9603131743
 30
0.0
 10
64.543160578
 20
95.9620465859
 30
0.0
 10
64.5428328233
 20
95.9620514704
 30
0.0
  0
SPLINE
  5
2C4
100
AcDbEntity
  8
0
100
AcDbSpline
 62
7
  6
CONTINUOUS
 70
0
 71
3
 72
17
 73
13
 74
0
 42
0.0000001
 43
0.0000001
 44
0.0000000001
 40
0.0
 40
0.0
 40
0.0
 40
0.0
 40
0.0046457715
 40
0.0166695355
 40
0.0364209832
 40
0.0639487232
 40
0.1423612174
 40
0.2518968771
 40
0.3924985173
 40
0.5640980778
 40
0.766623308
 40
1.0
 40
1.0
 40
1.0
 40
1.0
 10
46.8449466675
 20
96.2266116959
 30
0.0
 10
46.8451670352
 20
96.2266084117
 30
0.0
 10
46.8454068175
 20
96.2255468635
 30
0.0
 10
46.8456975738
 20
96.2241109675
 30
0.0
 10
46.8459822698
 20
96.2211631135
 30
0.0
 10
46.8464135529
 20
96.2153050364
 30
0.0
 10
46.8468553634
 20
96.2050247362
 30
0.0
 10
46.8473067937
 20
96.1894771501
 30
0.0
 10
46.8476933889
 20
96.1694611851
 30
0.0
 10
46.8480196192
 20
96.1450495628
 30
0.0
 10
46.8482796439
 20
96.1162296223
 30
0.0
 10
46.8484002102
 20
96.0955514765
 30
0.0
 10
46.8484518946
 20
96.0844803681
 30
0.0
  0
SPLINE
  5
2C5
100
AcDbEntity
  8
0
100
AcDbSpline
 62
7
  6
CONTINUOUS
 70
0
 71
3
 72
9
 73
5
 74
0
 42
0.0000001
 43
0.0000001
 44
0.0000000001
 40
0.0
 40
0.0
 40
0.0
 40
0.0
 40
0.3811316956
 40
1.0
 40
1.0
 40
1.0
 40
1.0
 10
46.8484518946
 20
96.0844803681
 30
0.0
 10
46.8491076763
 20
95.9440080614
 30
0.0
 10
46.847294802
 20
95.5754333629
 30
0.0
 10
46.8444082911
 20
95.2068773701
 30
0.0
 10
46.8423274391
 20
94.9787903624
 30
0.0
  0
LINE
  5
2C6
100
AcDbEntity
  8
0
100
AcDbLine
 62
7
  6
CONTINUOUS
 10
46.7410133319
 20
76.5320721937
 11
46.7399607691
 21
76.430421658
  0
LINE
  5
2C7
100
AcDbEntity
  8
0
100
AcDbLine
 62
7
  6
CONTINUOUS
 10
46.7399607691
 20
76.430421658
 11
46.7385830872
 21
76.3115536691
  0
SPLINE
  5
2C8
100
AcDbEntity
  8
0
100
AcDbSpline
 62
7
  6
CONTINUOUS
 70
0
 71
3
 72
26
 73
22
 74
0
 42
0.0000001
 43
0.0000001
 44
0.0000000001
 40
0.0
 40
0.0
 40
0.0
 40
0.0
 40
0.1949106383
 40
0.3827008793
 40
0.5555388731
 40
0.6343225834
 40
0.7070177164
 40
0.772939087
 40
0.8314056198
 40
0.8818428107
 40
0.9238128854
 40
0.9414887767
 40
0.9568875606
 40
0.9699709599
 40
0.9807190257
 40
0.9891130166
 40
0.9951344008
 40
0.9972497782
 40
0.9987655575
 40
0.9996805175
 40
1.0
 40
1.0
 40
1.0
 40
1.0
 10
46.7305423701
 20
75.7234059145
 30
0.0
 10
46.7315135868
 20
75.7883750074
 30
0.0
 10
46.7333717599
 20
75.9159405036
 30
0.0
 10
46.7359242751
 20
76.1011200525
 30
0.0
 10
46.7378139136
 20
76.2475923806
 30
0.0
 10
46.739117336
 20
76.355700355
 30
0.0
 10
46.7399446258
 20
76.4281692284
 30
0.0
 10
46.7406451229
 20
76.4938660409
 30
0.0
 10
46.7412120662
 20
76.552143874
 30
0.0
 10
46.7416397418
 20
76.6024379647
 30
0.0
 10
46.7418919221
 20
76.6391352843
 30
0.0
 10
46.7420134887
 20
76.6641517791
 30
0.0
 10
46.7420632127
 20
76.6795403608
 30
0.0
 10
46.742073861
 20
76.6926149052
 30
0.0
 10
46.7420556676
 20
76.7033673331
 30
0.0
 10
46.7419848737
 20
76.7117310446
 30
0.0
 10
46.7419312412
 20
76.7172928545
 30
0.0
 10
46.7418049525
 20
76.7204400225
 30
0.0
 10
46.7417943847
 20
76.7220688897
 30
0.0
 10
46.7416248912
 20
76.7227785933
 30
0.0
 10
46.7416694329
 20
76.7234038112
 30
0.0
 10
46.7415629725
 20
76.7234068659
 30
0.0
  0
SPLINE
  5
2C9
100
AcDbEntity
  8
0
100
AcDbSpline
 62
7
  6
CONTINUOUS
 70
0
 71
3
 72
28
 73
24
 74
0
 42
0.0000001
 43
0.0000001
 44
0.0000000001
 40
0.0
 40
0.0
 40
0.0
 40
0.0
 40
0.1950115556
 40
0.3826806701
 40
0.4713672647
 40
0.555513883
 40
0.6343310023
 40
0.7070534042
 40
0.772948037
 40
0.8314087406
 40
0.8818624447
 40
0.9238145851
 40
0.9414848027
 40
0.9568903377
 40
0.9699858413
 40
0.9807374313
 40
0.9891283318
 40
0.9924337751
 40
0.9951433958
 40
0.9972554239
 40
0.9987682989
 40
0.9996812247
 40
1.0
 40
1.0
 40
1.0
 40
1.0
 10
46.8874536236
 20
90.9237245832
 30
0.0
 10
46.8893970629
 20
91.0537300647
 30
0.0
 10
46.8931135849
 20
91.3088476131
 30
0.0
 10
46.8974450028
 20
91.623092384
 30
0.0
 10
46.9005939919
 20
91.8634293919
 30
0.0
 10
46.9027093119
 20
92.031198829
 30
0.0
 10
46.9046036755
 20
92.1883263817
 30
0.0
 10
46.9062593434
 20
92.3332867569
 30
0.0
 10
46.9076596246
 20
92.4646769094
 30
0.0
 10
46.9087928508
 20
92.5812217902
 30
0.0
 10
46.9096488018
 20
92.6818054575
 30
0.0
 10
46.9101523692
 20
92.755194612
 30
0.0
 10
46.9103961095
 20
92.8052176403
 30
0.0
 10
46.9104943749
 20
92.8360006012
 30
0.0
 10
46.9105212955
 20
92.8621734262
 30
0.0
 10
46.910471829
 20
92.8836621377
 30
0.0
 10
46.9103762717
 20
92.8986407989
 30
0.0
 10
46.9102376954
 20
92.9082262173
 30
0.0
 10
46.9101506546
 20
92.9136830029
 30
0.0
 10
46.9099789789
 20
92.9178032409
 30
0.0
 10
46.9099578312
 20
92.9210565408
 30
0.0
 10
46.9096198627
 20
92.9224731737
 30
0.0
 10
46.9097072777
 20
92.9237203902
 30
0.0
 10
46.9094948282
 20
92.9237264862
 30
0.0
  0
SPLINE
  5
2CA
100
AcDbEntity
  8
0
100
AcDbSpline
 62
7
  6
CONTINUOUS
 70
0
 71
3
 72
29
 73
25
 74
0
 42
0.0000001
 43
0.0000001
 44
0.0000000001
 40
0.0
 40
0.0
 40
0.0
 40
0.0
 40
0.2192298186
 40
0.4167139805
 40
0.5062170994
 40
0.5891244031
 40
0.6651235394
 40
0.7339332294
 40
0.7952973959
 40
0.8489616813
 40
0.89471345
 40
0.914573162
 40
0.9323967925
 40
0.9481653871
 40
0.9618601332
 40
0.9734672736
 40
0.9829799739
 40
0.9903920716
 40
0.9933086035
 40
0.9956979428
 40
0.9975596611
 40
0.9988937949
 40
0.9997020652
 40
1.0
 40
1.0
 40
1.0
 40
1.0
 10
46.8196007289
 20
92.9263058689
 30
0.0
 10
46.8225854893
 20
93.1674864347
 30
0.0
 10
46.8281075249
 20
93.6259264831
 30
0.0
 10
46.8343617186
 20
94.182837023
 30
0.0
 10
46.8386018418
 20
94.5897770048
 30
0.0
 10
46.8412831087
 20
94.8630667741
 30
0.0
 10
46.8435619681
 20
95.1135922017
 30
0.0
 10
46.8454305108
 20
95.3404183109
 30
0.0
 10
46.8468835939
 20
95.5426738651
 30
0.0
 10
46.8479157162
 20
95.7195630696
 30
0.0
 10
46.8484478561
 20
95.8507905873
 30
0.0
 10
46.8486371029
 20
95.9425866748
 30
0.0
 10
46.8486649813
 20
96.0013950159
 30
0.0
 10
46.8485867334
 20
96.0534209093
 30
0.0
 10
46.8484023105
 20
96.0986059771
 30
0.0
 10
46.8481148584
 20
96.1369107488
 30
0.0
 10
46.8477227154
 20
96.168293098
 30
0.0
 10
46.8472965689
 20
96.1901338157
 30
0.0
 10
46.8468687972
 20
96.2040973492
 30
0.0
 10
46.846563855
 20
96.2120247195
 30
0.0
 10
46.8462024472
 20
96.2180375087
 30
0.0
 10
46.8459126606
 20
96.222710087
 30
0.0
 10
46.8454637729
 20
96.2248733998
 30
0.0
 10
46.8452744222
 20
96.2266068113
 30
0.0
 10
46.8449466675
 20
96.2266116959
 30
0.0
  0
SPLINE
  5
2CB
100
AcDbEntity
  8
0
100
AcDbSpline
 62
7
  6
CONTINUOUS
 70
0
 71
3
 72
17
 73
13
 74
0
 42
0.0000001
 43
0.0000001
 44
0.0000000001
 40
0.0
 40
0.0
 40
0.0
 40
0.0
 40
0.0046457715
 40
0.0166695355
 40
0.0364209832
 40
0.0639487232
 40
0.1423612174
 40
0.2518968771
 40
0.3924985173
 40
0.5640980778
 40
0.766623308
 40
1.0
 40
1.0
 40
1.0
 40
1.0
 10
29.1470605116
 20
96.4911719213
 30
0.0
 10
29.1472808794
 20
96.4911686372
 30
0.0
 10
29.1475206617
 20
96.4901070889
 30
0.0
 10
29.147811418
 20
96.488671193
 30
0.0
 10
29.148096114
 20
96.4857233389
 30
0.0
 10
29.148527397
 20
96.4798652619
 30
0.0
 10
29.1489692076
 20
96.4695849616
 30
0.0
 10
29.1494206378
 20
96.4540373755
 30
0.0
 10
29.1498072331
 20
96.4340214105
 30
0.0
 10
29.1501334634
 20
96.4096097882
 30
0.0
 10
29.1503934881
 20
96.3807898478
 30
0.0
 10
29.1505140544
 20
96.3601117019
 30
0.0
 10
29.1505657388
 20
96.3490405935
 30
0.0
  0
SPLINE
  5
2CC
100
AcDbEntity
  8
0
100
AcDbSpline
 62
7
  6
CONTINUOUS
 70
0
 71
3
 72
9
 73
5
 74
0
 42
0.0000001
 43
0.0000001
 44
0.0000000001
 40
0.0
 40
0.0
 40
0.0
 40
0.0
 40
0.3811316956
 40
1.0
 40
1.0
 40
1.0
 40
1.0
 10
29.1505657388
 20
96.3490405935
 30
0.0
 10
29.1512215205
 20
96.2085682869
 30
0.0
 10
29.1494086461
 20
95.8399935883
 30
0.0
 10
29.1465221353
 20
95.4714375956
 30
0.0
 10
29.1444412833
 20
95.2433505879
 30
0.0
  0
LINE
  5
2CD
100
AcDbEntity
  8
0
100
AcDbLine
 62
7
  6
CONTINUOUS
 10
29.0431271761
 20
76.7966324191
 11
29.0420746128
 21
76.6949818398
  0
LINE
  5
2CE
100
AcDbEntity
  8
0
100
AcDbLine
 62
7
  6
CONTINUOUS
 10
29.0420746128
 20
76.6949818398
 11
29.0406969314
 21
76.5761138946
  0
SPLINE
  5
2CF
100
AcDbEntity
  8
0
100
AcDbSpline
 62
7
  6
CONTINUOUS
 70
0
 71
3
 72
26
 73
22
 74
0
 42
0.0000001
 43
0.0000001
 44
0.0000000001
 40
0.0
 40
0.0
 40
0.0
 40
0.0
 40
0.1949106383
 40
0.3827008793
 40
0.5555388731
 40
0.6343225834
 40
0.7070177164
 40
0.772939087
 40
0.8314056198
 40
0.8818428107
 40
0.9238128854
 40
0.9414887767
 40
0.9568875606
 40
0.9699709599
 40
0.9807190257
 40
0.9891130166
 40
0.9951344008
 40
0.9972497782
 40
0.9987655575
 40
0.9996805175
 40
1.0
 40
1.0
 40
1.0
 40
1.0
 10
29.0326562143
 20
75.9879661399
 30
0.0
 10
29.033627431
 20
76.0529352328
 30
0.0
 10
29.0354856041
 20
76.1805007291
 30
0.0
 10
29.0380381193
 20
76.365680278
 30
0.0
 10
29.0399277578
 20
76.5121526061
 30
0.0
 10
29.0412311801
 20
76.6202605804
 30
0.0
 10
29.04205847
 20
76.6927294539
 30
0.0
 10
29.0427589671
 20
76.7584262663
 30
0.0
 10
29.0433259104
 20
76.8167040994
 30
0.0
 10
29.043753586
 20
76.8669981902
 30
0.0
 10
29.0440057663
 20
76.9036955098
 30
0.0
 10
29.0441273329
 20
76.9287120046
 30
0.0
 10
29.0441770569
 20
76.9441005863
 30
0.0
 10
29.0441877052
 20
76.9571751307
 30
0.0
 10
29.0441695118
 20
76.9679275585
 30
0.0
 10
29.0440987178
 20
76.97629127
 30
0.0
 10
29.0440450854
 20
76.98185308
 30
0.0
 10
29.0439187967
 20
76.9850002479
 30
0.0
 10
29.0439082289
 20
76.9866291152
 30
0.0
 10
29.0437387354
 20
76.9873388187
 30
0.0
 10
29.0437832771
 20
76.9879640367
 30
0.0
 10
29.0436768166
 20
76.9879670914
 30
0.0
  0
SPLINE
  5
2D0
100
AcDbEntity
  8
0
100
AcDbSpline
 62
7
  6
CONTINUOUS
 70
0
 71
3
 72
28
 73
24
 74
0
 42
0.0000001
 43
0.0000001
 44
0.0000000001
 40
0.0
 40
0.0
 40
0.0
 40
0.0
 40
0.1950115556
 40
0.3826806701
 40
0.4713672647
 40
0.555513883
 40
0.6343310023
 40
0.7070534042
 40
0.772948037
 40
0.8314087406
 40
0.8818624447
 40
0.9238145851
 40
0.9414848027
 40
0.9568903377
 40
0.9699858413
 40
0.9807374313
 40
0.9891283318
 40
0.9924337751
 40
0.9951433958
 40
0.9972554239
 40
0.9987682989
 40
0.9996812247
 40
1.0
 40
1.0
 40
1.0
 40
1.0
 10
29.1895674678
 20
91.1882848087
 30
0.0
 10
29.1915109071
 20
91.3182902902
 30
0.0
 10
29.1952274291
 20
91.5734078386
 30
0.0
 10
29.199558847
 20
91.8876526094
 30
0.0
 10
29.2027078361
 20
92.1279896174
 30
0.0
 10
29.2048231561
 20
92.2957590545
 30
0.0
 10
29.2067175196
 20
92.4528866072
 30
0.0
 10
29.2083731876
 20
92.5978469824
 30
0.0
 10
29.2097734688
 20
92.7292371349
 30
0.0
 10
29.210906695
 20
92.8457820156
 30
0.0
 10
29.211762646
 20
92.946365683
 30
0.0
 10
29.2122662133
 20
93.0197548375
 30
0.0
 10
29.2125099537
 20
93.0697778658
 30
0.0
 10
29.212608219
 20
93.1005608267
 30
0.0
 10
29.2126351397
 20
93.1267336516
 30
0.0
 10
29.2125856732
 20
93.1482223632
 30
0.0
 10
29.2124901159
 20
93.1632010243
 30
0.0
 10
29.2123515396
 20
93.1727864428
 30
0.0
 10
29.2122644988
 20
93.1782432283
 30
0.0
 10
29.2120928231
 20
93.1823634663
 30
0.0
 10
29.2120716754
 20
93.1856167662
 30
0.0
 10
29.2117337069
 20
93.1870333992
 30
0.0
 10
29.2118211219
 20
93.1882806157
 30
0.0
 10
29.2116086724
 20
93.1882867116
 30
0.0
  0
SPLINE
  5
2D1
100
AcDbEntity
  8
0
100
AcDbSpline
 62
7
  6
CONTINUOUS
 70
0
 71
3
 72
29
 73
25
 74
0
 42
0.0000001
 43
0.0000001
 44
0.0000000001
 40
0.0
 40
0.0
 40
0.0
 40
0.0
 40
0.2192298186
 40
0.4167139805
 40
0.5062170994
 40
0.5891244031
 40
0.6651235394
 40
0.7339332294
 40
0.7952973959
 40
0.8489616813
 40
0.89471345
 40
0.914573162
 40
0.9323967925
 40
0.9481653871
 40
0.9618601332
 40
0.9734672736
 40
0.9829799739
 40
0.9903920716
 40
0.9933086035
 40
0.9956979428
 40
0.9975596611
 40
0.9988937949
 40
0.9997020652
 40
1.0
 40
1.0
 40
1.0
 40
1.0
 10
29.1217145731
 20
93.1908660944
 30
0.0
 10
29.1246993335
 20
93.4320466602
 30
0.0
 10
29.1302213691
 20
93.8904867086
 30
0.0
 10
29.1364755628
 20
94.4473972484
 30
0.0
 10
29.1407156859
 20
94.8543372303
 30
0.0
 10
29.1433969529
 20
95.1276269996
 30
0.0
 10
29.1456758123
 20
95.3781524271
 30
0.0
 10
29.147544355
 20
95.6049785363
 30
0.0
 10
29.148997438
 20
95.8072340905
 30
0.0
 10
29.1500295604
 20
95.984123295
 30
0.0
 10
29.1505617003
 20
96.1153508128
 30
0.0
 10
29.1507509471
 20
96.2071469003
 30
0.0
 10
29.1507788255
 20
96.2659552414
 30
0.0
 10
29.1507005776
 20
96.3179811347
 30
0.0
 10
29.1505161547
 20
96.3631662026
 30
0.0
 10
29.1502287026
 20
96.4014709742
 30
0.0
 10
29.1498365596
 20
96.4328533235
 30
0.0
 10
29.1494104131
 20
96.4546940411
 30
0.0
 10
29.1489826414
 20
96.4686575746
 30
0.0
 10
29.1486776992
 20
96.4765849449
 30
0.0
 10
29.1483162914
 20
96.4825977341
 30
0.0
 10
29.1480265048
 20
96.4872703124
 30
0.0
 10
29.1475776171
 20
96.4894336253
 30
0.0
 10
29.1473882664
 20
96.4911670368
 30
0.0
 10
29.1470605116
 20
96.4911719213
 30
0.0
  0
SPLINE
  5
2D2
100
AcDbEntity
  8
0
100
AcDbSpline
 62
7
  6
CONTINUOUS
 70
0
 71
3
 72
29
 73
25
 74
0
 42
0.0000001
 43
0.0000001
 44
0.0000000001
 40
0.0
 40
0.0
 40
0.0
 40
0.0
 40
0.219233148
 40
0.4167186398
 40
0.5062218533
 40
0.589128968
 40
0.665127707
 40
0.733936843
 40
0.7953003783
 40
0.8489640302
 40
0.8947151622
 40
0.9145745701
 40
0.9323979183
 40
0.9481662616
 40
0.961860794
 40
0.9734677415
 40
0.9829802709
 40
0.9903922279
 40
0.9933087032
 40
0.9956979965
 40
0.9975596803
 40
0.9988937925
 40
0.9997020554
 40
1.0
 40
1.0
 40
1.0
 40
1.0
 10
11.3758720585
 20
93.4568023591
 30
0.0
 10
11.3800970546
 20
93.6979198786
 30
0.0
 10
11.3882793205
 20
94.1562337256
 30
0.0
 10
11.3986727548
 20
94.7129763932
 30
0.0
 10
11.406596981
 20
95.1197813886
 30
0.0
 10
11.412084835
 20
95.3929740816
 30
0.0
 10
11.4172945114
 20
95.643404409
 30
0.0
 10
11.422205978
 20
95.8701379892
 30
0.0
 10
11.4267983412
 20
96.0723042216
 30
0.0
 10
11.4310533175
 20
96.2491078303
 30
0.0
 10
11.4344433449
 20
96.3802646872
 30
0.0
 10
11.4369976216
 20
96.4720057428
 30
0.0
 10
11.4387273031
 20
96.5307759781
 30
0.0
 10
11.4403603512
 20
96.5827650777
 30
0.0
 10
11.441895069
 20
96.6279146992
 30
0.0
 10
11.4433271345
 20
96.6661854807
 30
0.0
 10
11.4446569485
 20
96.6975352675
 30
0.0
 10
11.4457355881
 20
96.7193487201
 30
0.0
 10
11.4465804327
 20
96.7332901765
 30
0.0
 10
11.4471221246
 20
96.7412031462
 30
0.0
 10
11.4476630213
 20
96.7472011565
 30
0.0
 10
11.4480923091
 20
96.7518619258
 30
0.0
 10
11.4486055719
 20
96.7540104896
 30
0.0
 10
11.4488466558
 20
96.7557370305
 30
0.0
 10
11.4491743558
 20
96.7557321468
 30
0.0
  0
SPLINE
  5
2D3
100
AcDbEntity
  8
0
100
AcDbSpline
 62
7
  6
CONTINUOUS
 70
0
 71
3
 72
26
 73
22
 74
0
 42
0.0000001
 43
0.0000001
 44
0.0000000001
 40
0.0
 40
0.0
 40
0.0
 40
0.0
 40
0.1949295684
 40
0.3827339082
 40
0.5555805568
 40
0.6343664479
 40
0.7070623008
 40
0.77298293
 40
0.8314472608
 40
0.8818808062
 40
0.9238458308
 40
0.9415186828
 40
0.9569140914
 40
0.9699937879
 40
0.9807378364
 40
0.9891275086
 40
0.9951442865
 40
0.9972572578
 40
0.9987705663
 40
0.9996829992
 40
1.0
 40
1.0
 40
1.0
 40
1.0
 10
11.0174983303
 20
76.2616300244
 30
0.0
 10
11.0184695366
 20
76.3265984252
 30
0.0
 10
11.0204252275
 20
76.4541597241
 30
0.0
 10
11.0234089856
 20
76.6393267622
 30
0.0
 10
11.025898302
 20
76.7857826503
 30
0.0
 10
11.0278268163
 20
76.8938734799
 30
0.0
 10
11.0291659656
 20
76.9663276104
 30
0.0
 10
11.0304294153
 20
77.0320081846
 30
0.0
 10
11.0316045873
 20
77.0902684486
 30
0.0
 10
11.0326803116
 20
77.1405437941
 30
0.0
 10
11.0335250525
 20
77.1772243975
 30
0.0
 10
11.0341512141
 20
77.202226815
 30
0.0
 10
11.0345614253
 20
77.2176050128
 30
0.0
 10
11.0349414934
 20
77.2306688191
 30
0.0
 10
11.0352810627
 20
77.241411023
 30
0.0
 10
11.0356015738
 20
77.2497629072
 30
0.0
 10
11.0358217144
 20
77.2553178152
 30
0.0
 10
11.0360414773
 20
77.2584542174
 30
0.0
 10
11.0361015396
 20
77.2600827314
 30
0.0
 10
11.0362903801
 20
77.2607788626
 30
0.0
 10
11.0362665712
 20
77.2614086685
 30
0.0
 10
11.0363721932
 20
77.2614056378
 30
0.0
  0
SPLINE
  5
2D4
100
AcDbEntity
  8
0
100
AcDbSpline
 62
7
  6
CONTINUOUS
 70
0
 71
3
 72
28
 73
24
 74
0
 42
0.0000001
 43
0.0000001
 44
0.0000000001
 40
0.0
 40
0.0
 40
0.0
 40
0.0
 40
0.0003187747
 40
0.0012316988
 40
0.0027445713
 40
0.0048565962
 40
0.0075662133
 40
0.0108716526
 40
0.0192625452
 40
0.0300141287
 40
0.0431096262
 40
0.0585151494
 40
0.0761853519
 40
0.1181374655
 40
0.1685911536
 40
0.2270518312
 40
0.292946452
 40
0.3656688485
 40
0.4444859558
 40
0.5286325735
 40
0.617319181
 40
0.8049883888
 40
1.0
 40
1.0
 40
1.0
 40
1.0
 10
11.5137225166
 20
93.4528469371
 30
0.0
 10
11.5139349657
 20
93.4528408412
 30
0.0
 10
11.5138475516
 20
93.4515936272
 30
0.0
 10
11.5141855193
 20
93.4501769965
 30
0.0
 10
11.5142066675
 20
93.446923702
 30
0.0
 10
11.514378343
 20
93.4428034701
 30
0.0
 10
11.514465384
 20
93.4373466918
 30
0.0
 10
11.5146039604
 20
93.4277612836
 30
0.0
 10
11.5146995177
 20
93.4127826347
 30
0.0
 10
11.5147489841
 20
93.3912939369
 30
0.0
 10
11.5147220634
 20
93.3651211283
 30
0.0
 10
11.5146237983
 20
93.3343381893
 30
0.0
 10
11.5143800584
 20
93.2843151968
 30
0.0
 10
11.5138764916
 20
93.2109260808
 30
0.0
 10
11.5130205411
 20
93.1103424594
 30
0.0
 10
11.5118873157
 20
92.9937976146
 30
0.0
 10
11.5104870349
 20
92.8624074911
 30
0.0
 10
11.5088313673
 20
92.7174471355
 30
0.0
 10
11.5069370043
 20
92.5603195947
 30
0.0
 10
11.5048216843
 20
92.3925501575
 30
0.0
 10
11.5016726946
 20
92.1522130791
 30
0.0
 10
11.4973412751
 20
91.8379682004
 30
0.0
 10
11.4936247518
 20
91.5828505527
 30
0.0
 10
11.491681312
 20
91.4528450342
 30
0.0
  0
SPLINE
  5
2D5
100
AcDbEntity
  8
0
100
AcDbSpline
 62
7
  6
CONTINUOUS
 70
0
 71
3
 72
29
 73
25
 74
0
 42
0.0000001
 43
0.0000001
 44
0.0000000001
 40
0.0
 40
0.0
 40
0.0
 40
0.0
 40
0.0002979348
 40
0.0011062051
 40
0.0024403389
 40
0.0043020572
 40
0.0066913965
 40
0.0096079284
 40
0.0170200261
 40
0.0265327264
 40
0.0381398668
 40
0.0518346129
 40
0.0676032075
 40
0.085426838
 40
0.10528655
 40
0.1510383187
 40
0.2047026041
 40
0.2660667706
 40
0.3348764606
 40
0.4108755969
 40
0.4937829006
 40
0.5832860195
 40
0.7807701814
 40
1.0
 40
1.0
 40
1.0
 40
1.0
 10
11.4491743558
 20
96.7557321468
 30
0.0
 10
11.4495021106
 20
96.7557272622
 30
0.0
 10
11.4496914613
 20
96.7539938507
 30
0.0
 10
11.450140349
 20
96.7518305379
 30
0.0
 10
11.4504301356
 20
96.7471579596
 30
0.0
 10
11.4507915434
 20
96.7411451704
 30
0.0
 10
11.4510964856
 20
96.7332178001
 30
0.0
 10
11.4515242572
 20
96.7192542666
 30
0.0
 10
11.4519504038
 20
96.697413549
 30
0.0
 10
11.4523425468
 20
96.6660311997
 30
0.0
 10
11.4526299989
 20
96.627726428
 30
0.0
 10
11.4528144218
 20
96.5825413602
 30
0.0
 10
11.4528926697
 20
96.5305154668
 30
0.0
 10
11.4528647913
 20
96.4717071257
 30
0.0
 10
11.4526755445
 20
96.3799110382
 30
0.0
 10
11.4521434046
 20
96.2486835205
 30
0.0
 10
11.4511112822
 20
96.071794316
 30
0.0
 10
11.4496581992
 20
95.8695387618
 30
0.0
 10
11.4477896565
 20
95.6427126526
 30
0.0
 10
11.4455107971
 20
95.392187225
 30
0.0
 10
11.4428295301
 20
95.1188974557
 30
0.0
 10
11.4385894069
 20
94.7119574739
 30
0.0
 10
11.4323352133
 20
94.155046934
 30
0.0
 10
11.4268131777
 20
93.6966068856
 30
0.0
 10
11.4238284173
 20
93.4554263199
 30
0.0
  0
SPLINE
  5
2D6
100
AcDbEntity
  8
0
100
AcDbSpline
 62
7
  6
CONTINUOUS
 70
0
 71
3
 72
26
 73
22
 74
0
 42
0.0000001
 43
0.0000001
 44
0.0000000001
 40
0.0
 40
0.0
 40
0.0
 40
0.0
 40
0.0003194839
 40
0.001234448
 40
0.0027502337
 40
0.0048656193
 40
0.0108870239
 40
0.0192810376
 40
0.0300291254
 40
0.0431125427
 40
0.0585113416
 40
0.0761872604
 40
0.1181574098
 40
0.16859466
 40
0.2270612137
 40
0.2929826333
 40
0.3656778148
 40
0.444461538
 40
0.6172994735
 40
0.8050894739
 40
1.0
 40
1.0
 40
1.0
 40
1.0
 10
11.3457906608
 20
77.2525273169
 30
0.0
 10
11.3458971217
 20
77.2525242621
 30
0.0
 10
11.3458525789
 20
77.2518990411
 30
0.0
 10
11.3460220734
 20
77.2511893347
 30
0.0
 10
11.3460326406
 20
77.2495604606
 30
0.0
 10
11.3461589295
 20
77.2464132813
 30
0.0
 10
11.3462125616
 20
77.240851454
 30
0.0
 10
11.3462833555
 20
77.2324877209
 30
0.0
 10
11.3463015487
 20
77.221735272
 30
0.0
 10
11.3462909005
 20
77.2086607093
 30
0.0
 10
11.3462411766
 20
77.1932721074
 30
0.0
 10
11.3461196096
 20
77.1682555735
 30
0.0
 10
11.3458674285
 20
77.1315582001
 30
0.0
 10
11.3454397521
 20
77.0812640578
 30
0.0
 10
11.3448728083
 20
77.0229861817
 30
0.0
 10
11.3441723103
 20
76.9572893297
 30
0.0
 10
11.3433450196
 20
76.8848204195
 30
0.0
 10
11.3420415972
 20
76.7767124441
 30
0.0
 10
11.3401519594
 20
76.6302402113
 30
0.0
 10
11.3375994464
 20
76.4450607995
 30
0.0
 10
11.3357412746
 20
76.3174954209
 30
0.0
 10
11.3347700585
 20
76.2525263654
 30
0.0
  0
ELLIPSE
  5
2D7
100
AcDbEntity
  8
0
100
AcDbEllipse
 62
7
  6
CONTINUOUS
 10
81.8113304715
 20
95.5324705699
 30
0.0
 11
-0.0240332639
 21
0.5004109806
 31
0.0
 40
0.0646291644
 41
0.7667779736
 42
1.2018900533
  0
ENDSEC
  0
SECTION
  2
OBJECTS
  0
DICTIONARY
  5
C
100
AcDbDictionary
280
0
281
1
  3
ACAD_GROUP
350
D
  3
ACAD_MLINESTYLE
350
17
  3
ACAD_LAYOUT
350
1A
  3
ACAD_PLOTSETTINGS
350
19
  3
ACAD_PLOTSTYLENAME
350
E
  0
DICTIONARY
  5
D
102
{ACAD_REACTORS
330
C
102
}
100
AcDbDictionary
280
0
281
1
  0
ACDBDICTIONARYWDFLT
  5
E
102
{ACAD_REACTORS
330
C
102
}
100
AcDbDictionary
281
1
  3
Normal
350
F
100
AcDbDictionaryWithDefault
340
F
  0
DICTIONARY
  5
17
102
{ACAD_REACTORS
330
C
102
}
100
AcDbDictionary
280
0
281
1
  3
Standard
350
18
  0
DICTIONARY
  5
19
102
{ACAD_REACTORS
330
C
102
}
100
AcDbDictionary
281
1
  0
DICTIONARY
  5
1A
102
{ACAD_REACTORS
330
C
102
}
100
AcDbDictionary
281
1
  3
Model
350
2D8
  3
Layout1
350
2D9
  0
ACDBPLACEHOLDER
  5
F
102
{ACAD_REACTORS
330
E
102
}
  0
MLINESTYLE
  5
18
102
{ACAD_REACTORS
330
17
102
}
100
AcDbMlineStyle
  2
STANDARD
 70
0
  3

 62
256
 51
90.0
 52
90.0
 71
2
 49
0.5
 62
256
  6
BYLAYER
 49
-0.5
 62
256
  6
BYLAYER
  0
LAYOUT
  5
2D8
102
{ACAD_REACTORS
330
1A
102
}
100
AcDbPlotSettings
  1

  2
none_device
  4

  6

 40
0.0
 41
0.0
 42
0.0
 43
0.0
 44
210.0
 45
297.0
 46
0.0
 47
0.0
 48
0.0
 49
0.0
140
0.0
141
0.0
142
1.0
143
1.0
 70
1024
 72
1
 73
0
 74
0
  7

 75
0
147
1.0
148
0.0
149
0.0
100
AcDbLayout
  1
Model
 70
0
 71
0
 10
0.0
 20
0.0
 11
210.0
 21
297.0
 12
0.0
 22
0.0
 32
0.0
 14
0.0
 24
0.0
 34
0.0
 15
0.0
 25
0.0
 35
0.0
146
0.0
 13
0.0
 23
0.0
 33
0.0
 16
1.0
 26
0.0
 36
0.0
 17
0.0
 27
1.0
 37
0.0
 76
0
330
210
345
0
346
0
  0
LAYOUT
  5
2D9
102
{ACAD_REACTORS
330
1A
102
}
100
AcDbPlotSettings
  1

  2
none_device
  4

  6

 40
0.0
 41
0.0
 42
0.0
 43
0.0
 44
210.0
 45
297.0
 46
0.0
 47
0.0
 48
0.0
 49
0.0
140
0.0
141
0.0
142
1.0
143
1.0
 70
0
 72
1
 73
0
 74
0
  7

 75
0
147
1.0
148
0.0
149
0.0
100
AcDbLayout
  1
Layout1
 70
0
 71
1
 10
0.0
 20
0.0
 11
210.0
 21
297.0
 12
0.0
 22
0.0
 32
0.0
 14
0.0
 24
0.0
 34
0.0
 15
0.0
 25
0.0
 35
0.0
146
0.0
 13
0.0
 23
0.0
 33
0.0
 16
1.0
 26
0.0
 36
0.0
 17
0.0
 27
1.0
 37
0.0
 76
0
330
211
345
0
346
0
  0
ENDSEC
  0
EOF
