999
DXF file: C:\Users\sesa63760\Dev\_Creo\CAD\MCADPD0003997_3D-CAD\drw0001_6.dxf
999
Pro/ENGINEER 2019471 by Parametric Technology Corporation
  0
SECTION
  2
HEADER
  9
$ACADVER
  1
AC1024
  9
$DWGCODEPAGE
  3
ANSI_1252
  9
$EXTMAX
 10
127.2345097809
 20
179.9459495473
 30
0.0
  9
$EXTMIN
 10
0.0
 20
0.0
 30
0.0
  9
$LIMMIN
 10
0.0
 20
0.0
  9
$LIMMAX
 10
127.2345097809
 20
179.9459495473
  9
$VIEWCTR
 10
63.6172548904
 20
89.9729747736
  9
$VIEWSIZE
 40
179.9459495473
  9
$CLAYER
  8
0
  9
$LTSCALE
 40
11.7298100446
  9
$CELTYPE
  6
BYLAYER
  9
$DIMSCALE
 40
1.0
  9
$DIMASZ
 40
1.514696545
  9
$DIMEXO
 40
1.0
  9
$DIMDLI
 40
8.1042323944
  9
$DIMEXE
 40
1.0
  9
$DIMCEN
 40
1.9194234618
  9
$DIMLFAC
 40
1.0
  9
$DIMBLK
  1
_FILLED
  9
$DIMALT
 70
0
  9
$DIMALTF
 40
0.0393700787
  9
$DIMTXT
 40
2.120575163
  9
$DIMTOL
 70
1
  9
$DIMLIM
 70
0
  9
$DIMTFAC
 40
1.0
  9
$DIMTP
 40
0.01
  9
$DIMTM
 40
0.01
  9
$DIMGAP
 40
0.625
  9
$DIMDSEP
 70
46
  9
$AUNITS
 70
0
  9
$PDMODE
 70
3
  9
$PDSIZE
 40
0.3125
  9
$HANDSEED
  5
289
  9
$TILEMODE
 70
1
  9
$MEASUREMENT
 70
1
  9
$INSUNITS
 70
4
  0
ENDSEC
  0
SECTION
  2
CLASSES
  0
CLASS
  1
ACDBDICTIONARYWDFLT
  2
AcDbDictionaryWithDefault
  3
AutoCAD 2000
 90
0
 91
1
280
0
281
0
  0
CLASS
  1
ACDBPLACEHOLDER
  2
AcDbPlaceHolder
  3
AutoCAD 2000
 90
0
 91
1
280
0
281
0
  0
CLASS
  1
LAYOUT
  2
AcDbLayout
  3
AutoCAD 2000
 90
0
 91
0
280
0
281
0
  0
ENDSEC
  0
SECTION
  2
TABLES
  0
TABLE
  2
VPORT
  5
8
100
AcDbSymbolTable
 70
2
  0
VPORT
  5
1F4
100
AcDbSymbolTableRecord
100
AcDbViewportTableRecord
  2
*ACTIVE
 70
0
 10
0.0
 20
0.0
 11
1.0
 21
1.0
 12
63.6172548904
 22
89.9729747736
 13
0.0
 23
0.0
 14
1.0
 24
1.0
 15
0.0
 25
0.0
 16
0.0
 26
0.0
 36
1.0
 17
0.0
 27
0.0
 37
0.0
 40
179.9459495473
 41
0.7070707071
 42
50.0
 43
0.0
 44
0.0
 50
0.0
 51
0.0
 71
0
 72
100
 73
1
 74
1
 75
0
 76
0
 77
0
 78
0
  0
ENDTAB
  0
TABLE
  2
LTYPE
  5
5
100
AcDbSymbolTable
 70
6
  0
LTYPE
  5
14
100
AcDbSymbolTableRecord
100
AcDbLinetypeTableRecord
  2
BYBLOCK
 70
0
  3

 72
65
 73
0
 40
0.0
  0
LTYPE
  5
15
100
AcDbSymbolTableRecord
100
AcDbLinetypeTableRecord
  2
BYLAYER
 70
0
  3

 72
65
 73
0
 40
0.0
  0
LTYPE
  5
16
100
AcDbSymbolTableRecord
100
AcDbLinetypeTableRecord
  2
CONTINUOUS
 70
64
  3
Solid line
 72
65
 73
0
 40
0.0
  0
LTYPE
  5
1F5
100
AcDbSymbolTableRecord
100
AcDbLinetypeTableRecord
  2
CENTER
 70
64
  3
____ _ ____ _ ____ _ ____ _ ____ _ ____ _ ____
 72
65
 73
4
 40
0.6
 49
0.375
 74
0
 49
-0.075
 74
0
 49
0.075
 74
0
 49
-0.075
 74
0
  0
LTYPE
  5
1F6
100
AcDbSymbolTableRecord
100
AcDbLinetypeTableRecord
  2
HIDDEN
 70
64
  3
- - - - - - - - - - - - - - - - - - - -
 72
65
 73
2
 40
0.2
 49
0.1
 74
0
 49
-0.1
 74
0
  0
LTYPE
  5
1F7
100
AcDbSymbolTableRecord
100
AcDbLinetypeTableRecord
  2
PHANTOM
 70
64
  3
_____ _ _ _____ _ _ _____ _ _ _____
 72
65
 73
6
 40
0.8
 49
0.45
 74
0
 49
-0.05
 74
0
 49
0.1
 74
0
 49
-0.05
 74
0
 49
0.1
 74
0
 49
-0.05
 74
0
  0
LTYPE
  5
1F8
100
AcDbSymbolTableRecord
100
AcDbLinetypeTableRecord
  2
DOT
 70
64
  3
. . . . . . . . . . . . . . . . . . . .
 72
65
 73
2
 40
0.2
 49
0.1
 74
0
 49
-0.1
 74
0
  0
LTYPE
  5
1F9
100
AcDbSymbolTableRecord
100
AcDbLinetypeTableRecord
  2
DASHED
 70
64
  3
- - - - - - - - - - - - - - - - - - - -
 72
65
 73
2
 40
0.2
 49
0.1
 74
0
 49
-0.1
 74
0
  0
ENDTAB
  0
TABLE
  2
LAYER
  5
2
100
AcDbSymbolTable
 70
36
  0
LAYER
  5
10
100
AcDbSymbolTableRecord
100
AcDbLayerTableRecord
  2
0
 70
0
 62
7
  6
CONTINUOUS
370
-3
390
F
  0
LAYER
  5
1FA
100
AcDbSymbolTableRecord
100
AcDbLayerTableRecord
  2
DEFAULT_1
 70
0
 62
7
  6
CENTER
370
-3
390
F
  0
LAYER
  5
1FB
100
AcDbSymbolTableRecord
100
AcDbLayerTableRecord
  2
DEFAULT_2
 70
0
 62
7
  6
HIDDEN
370
-3
390
F
  0
LAYER
  5
1FC
100
AcDbSymbolTableRecord
100
AcDbLayerTableRecord
  2
DEFAULT_3
 70
0
 62
7
  6
PHANTOM
370
-3
390
F
  0
LAYER
  5
1FD
100
AcDbSymbolTableRecord
100
AcDbLayerTableRecord
  2
00_COMPONENTS
 70
0
 62
7
  6
CONTINUOUS
370
-3
390
F
  0
LAYER
  5
1FE
100
AcDbSymbolTableRecord
100
AcDbLayerTableRecord
  2
00_COMPONENTS_1
 70
0
 62
7
  6
CONTINUOUS
370
-3
390
F
  0
LAYER
  5
1FF
100
AcDbSymbolTableRecord
100
AcDbLayerTableRecord
  2
01_1_DEFAULT_DATUMS
 70
0
 62
7
  6
CONTINUOUS
370
-3
390
F
  0
LAYER
  5
200
100
AcDbSymbolTableRecord
100
AcDbLayerTableRecord
  2
01_PLANES
 70
0
 62
7
  6
CONTINUOUS
370
-3
390
F
  0
LAYER
  5
201
100
AcDbSymbolTableRecord
100
AcDbLayerTableRecord
  2
02_COORD_SYS
 70
0
 62
7
  6
CONTINUOUS
370
-3
390
F
  0
LAYER
  5
202
100
AcDbSymbolTableRecord
100
AcDbLayerTableRecord
  2
03_AXES
 70
0
 62
7
  6
CONTINUOUS
370
-3
390
F
  0
LAYER
  5
203
100
AcDbSymbolTableRecord
100
AcDbLayerTableRecord
  2
03_AXES_1
 70
0
 62
7
  6
CONTINUOUS
370
-3
390
F
  0
LAYER
  5
204
100
AcDbSymbolTableRecord
100
AcDbLayerTableRecord
  2
04_POINTS
 70
0
 62
7
  6
CONTINUOUS
370
-3
390
F
  0
LAYER
  5
205
100
AcDbSymbolTableRecord
100
AcDbLayerTableRecord
  2
05_CURVES
 70
0
 62
7
  6
CONTINUOUS
370
-3
390
F
  0
LAYER
  5
206
100
AcDbSymbolTableRecord
100
AcDbLayerTableRecord
  2
06_SURFS
 70
0
 62
7
  6
CONTINUOUS
370
-3
390
F
  0
LAYER
  5
207
100
AcDbSymbolTableRecord
100
AcDbLayerTableRecord
  2
07_COSMETICS
 70
0
 62
7
  6
CONTINUOUS
370
-3
390
F
  0
LAYER
  5
208
100
AcDbSymbolTableRecord
100
AcDbLayerTableRecord
  2
10_NOTES
 70
0
 62
7
  6
CONTINUOUS
370
-3
390
F
  0
LAYER
  5
209
100
AcDbSymbolTableRecord
100
AcDbLayerTableRecord
  2
11_NOTES_PUB
 70
0
 62
7
  6
CONTINUOUS
370
-3
390
F
  0
LAYER
  5
20A
100
AcDbSymbolTableRecord
100
AcDbLayerTableRecord
  2
13_REF_GTOL
 70
0
 62
7
  6
CONTINUOUS
370
-3
390
F
  0
LAYER
  5
20B
100
AcDbSymbolTableRecord
100
AcDbLayerTableRecord
  2
16_MISC
 70
0
 62
7
  6
CONTINUOUS
370
-3
390
F
  0
LAYER
  5
20C
100
AcDbSymbolTableRecord
100
AcDbLayerTableRecord
  2
17_NO_PRINT
 70
0
 62
7
  6
CONTINUOUS
370
-3
390
F
  0
LAYER
  5
20D
100
AcDbSymbolTableRecord
100
AcDbLayerTableRecord
  2
18_DATUM_CAMS_JOINTS
 70
0
 62
7
  6
CONTINUOUS
370
-3
390
F
  0
LAYER
  5
20E
100
AcDbSymbolTableRecord
100
AcDbLayerTableRecord
  2
19_DATUM_FUNCTIONAL
 70
0
 62
7
  6
CONTINUOUS
370
-3
390
F
  0
LAYER
  5
20F
100
AcDbSymbolTableRecord
100
AcDbLayerTableRecord
  2
20_DATUM_KINEMATIC_SCHEME
 70
0
 62
7
  6
CONTINUOUS
370
-3
390
F
  0
LAYER
  5
210
100
AcDbSymbolTableRecord
100
AcDbLayerTableRecord
  2
INTFCLR_20
 70
0
 62
7
  6
CONTINUOUS
370
-3
390
F
  0
LAYER
  5
211
100
AcDbSymbolTableRecord
100
AcDbLayerTableRecord
  2
INTFCLR_97
 70
0
 62
7
  6
CONTINUOUS
370
-3
390
F
  0
LAYER
  5
212
100
AcDbSymbolTableRecord
100
AcDbLayerTableRecord
  2
INTF_BLANK
 70
0
 62
7
  6
CONTINUOUS
370
-3
390
F
  0
LAYER
  5
213
100
AcDbSymbolTableRecord
100
AcDbLayerTableRecord
  2
INTF_YELLOW
 70
0
 62
7
  6
CONTINUOUS
370
-3
390
F
  0
LAYER
  5
214
100
AcDbSymbolTableRecord
100
AcDbLayerTableRecord
  2
_BLACK_HOLE
 70
0
 62
7
  6
CONTINUOUS
370
-3
390
F
  0
ENDTAB
  0
TABLE
  2
STYLE
  5
3
100
AcDbSymbolTable
 70
1
  0
STYLE
  5
11
100
AcDbSymbolTableRecord
100
AcDbTextStyleTableRecord
  2
STANDARD
 70
0
 40
0.0
 41
1.0
 50
0.0
 71
0
 42
0.2
  3
ARIAL.TTF
  4

  0
STYLE
  5
215
100
AcDbSymbolTableRecord
100
AcDbTextStyleTableRecord
  2
TEXTSTYLE_1
 70
0
 40
0.0
 41
0.8
 50
0.0
 71
0
 42
0.2
  3
gdt
  4

  0
ENDTAB
  0
TABLE
  2
VIEW
  5
6
100
AcDbSymbolTable
 70
0
  0
ENDTAB
  0
TABLE
  2
UCS
  5
7
100
AcDbSymbolTable
 70
0
  0
ENDTAB
  0
TABLE
  2
APPID
  5
9
100
AcDbSymbolTable
 70
1
  0
APPID
  5
216
100
AcDbSymbolTableRecord
100
AcDbRegAppTableRecord
  2
ACAD
 70
0
  0
ENDTAB
  0
TABLE
  2
BLOCK_RECORD
  5
1
100
AcDbSymbolTable
 70
0
  0
BLOCK_RECORD
  5
217
100
AcDbSymbolTableRecord
100
AcDbBlockTableRecord
  2
*Model_Space
  0
BLOCK_RECORD
  5
218
100
AcDbSymbolTableRecord
100
AcDbBlockTableRecord
  2
*Paper_Space
  0
BLOCK_RECORD
  5
219
100
AcDbSymbolTableRecord
100
AcDbBlockTableRecord
  2
_FILLED
  0
ENDTAB
  0
TABLE
  2
DIMSTYLE
  5
A
100
AcDbSymbolTable
 70
1
100
AcDbDimStyleTable
 71
0
  0
DIMSTYLE
105
21A
100
AcDbSymbolTableRecord
100
AcDbDimStyleTableRecord
  2
STANDARD
 70
0
  3

  4

 40
1.0
 41
1.514696545
 42
1.0
 43
0.38
 44
1.0
 45
0.0
 46
0.0
 47
0.01
 48
0.01
140
2.120575163
141
0.09
142
0.0
143
25.4
144
1.0
145
0.0
146
1.0
147
0.625
 71
1
 72
0
 73
0
 74
0
 75
0
 76
0
 77
1
 78
8
 79
2
170
0
171
1
172
0
173
0
174
0
175
0
176
0
177
0
178
0
270
2
179
2
271
2
272
2
273
2
274
2
275
0
280
0
281
0
282
0
283
1
284
8
285
0
286
0
287
3
288
0
340
11
278
46
341
219
342
219
343
219
344
219
  0
ENDTAB
  0
ENDSEC
  0
SECTION
  2
BLOCKS
  0
BLOCK
  5
20
100
AcDbEntity
  8
0
100
AcDbBlockBegin
  2
*Model_Space
 70
0
 10
0.0
 20
0.0
 30
0.0
  3
*Model_Space
  1

  0
ENDBLK
  5
21
100
AcDbEntity
  8
0
100
AcDbBlockEnd
  0
BLOCK
  5
1C
100
AcDbEntity
  8
0
100
AcDbBlockBegin
  2
*Paper_Space
 70
0
 10
0.0
 20
0.0
 30
0.0
  3
*Paper_Space
  1

  0
ENDBLK
  5
1D
100
AcDbEntity
  8
0
100
AcDbBlockEnd
  0
BLOCK
  5
21B
100
AcDbEntity
  8
0
100
AcDbBlockBegin
  2
_FILLED
 70
64
 10
0.0
 20
0.0
  3
_FILLED
  1

  0
SOLID
  5
21C
100
AcDbEntity
  8
0
  6
BYBLOCK
 62
0
100
AcDbTrace
 10
0.0
 20
0.0
 11
-1.0
 21
0.25
 12
-1.0
 22
-0.25
 13
-1.0
 23
-0.25
  0
ENDBLK
  5
21D
100
AcDbEntity
  8
0
  6
BYBLOCK
 62
0
100
AcDbBlockEnd
  0
ENDSEC
  0
SECTION
  2
ENTITIES
  0
LINE
  5
21E
100
AcDbEntity
  8
00_COMPONENTS_1
100
AcDbLine
 62
7
  6
BYLAYER
 10
101.5931158146
 20
45.4729747736
 11
97.0456019168
 21
45.4729747736
  0
LINE
  5
21F
100
AcDbEntity
  8
00_COMPONENTS_1
100
AcDbLine
 62
7
  6
BYLAYER
 10
83.9456019168
 20
45.4729747736
 11
62.8456019168
 21
45.4729747736
  0
LINE
  5
220
100
AcDbEntity
  8
00_COMPONENTS_1
100
AcDbLine
 62
7
  6
BYLAYER
 10
52.345605029
 20
46.4729747736
 11
103.3456019168
 21
46.4729747736
  0
LINE
  5
221
100
AcDbEntity
  8
00_COMPONENTS_1
100
AcDbLine
 62
7
  6
BYLAYER
 10
29.0556019168
 20
96.3735485584
 11
29.0556019168
 21
94.6848657225
  0
LINE
  5
222
100
AcDbEntity
  8
00_COMPONENTS_1
100
AcDbLine
 62
7
  6
BYLAYER
 10
31.9221304043
 20
103.2649116743
 11
28.0973116583
 21
94.6296489851
  0
LINE
  5
223
100
AcDbEntity
  8
00_COMPONENTS_1
100
AcDbLine
 62
7
  6
BYLAYER
 10
29.0556019168
 20
96.3735485584
 11
29.3744411267
 21
97.0416087011
  0
LINE
  5
224
100
AcDbEntity
  8
00_COMPONENTS_1
100
AcDbLine
 62
7
  6
BYLAYER
 10
52.9088922285
 20
58.4198034795
 11
52.8962204293
 21
58.4229146196
  0
LINE
  5
225
100
AcDbEntity
  8
00_COMPONENTS_1
100
AcDbLine
 62
7
  6
BYLAYER
 10
36.1456019168
 20
68.0729747736
 11
36.1456019168
 21
82.8729747736
  0
LINE
  5
226
100
AcDbEntity
  8
00_COMPONENTS_1
100
AcDbLine
 62
7
  6
BYLAYER
 10
36.160332553
 20
76.2929747736
 11
36.160332553
 21
68.0729747736
  0
LINE
  5
227
100
AcDbEntity
  8
00_COMPONENTS_1
100
AcDbLine
 62
7
  6
BYLAYER
 10
36.1729946513
 20
82.8729747736
 11
36.1729946513
 21
90.4252383893
  0
LINE
  5
228
100
AcDbEntity
  8
00_COMPONENTS_1
100
AcDbLine
 62
7
  6
BYLAYER
 10
36.1729946513
 20
92.4798320432
 11
36.1729946513
 21
92.6012654697
  0
LINE
  5
229
100
AcDbEntity
  8
00_COMPONENTS_1
100
AcDbLine
 62
7
  6
BYLAYER
 10
36.1729946513
 20
111.7229747741
 11
36.1729946513
 21
112.8729747736
  0
LINE
  5
22A
100
AcDbEntity
  8
00_COMPONENTS_1
100
AcDbLine
 62
7
  6
BYLAYER
 10
36.2456019168
 20
76.0229747736
 11
36.2456019168
 21
68.4679747736
  0
LINE
  5
22B
100
AcDbEntity
  8
00_COMPONENTS_1
100
AcDbLine
 62
7
  6
BYLAYER
 10
36.3168815176
 20
112.8729747736
 11
36.3168815176
 21
111.7229747741
  0
LINE
  5
22C
100
AcDbEntity
  8
00_COMPONENTS_1
100
AcDbLine
 62
7
  6
BYLAYER
 10
36.3168815176
 20
92.5370281333
 11
36.3168815176
 21
92.4188290837
  0
LINE
  5
22D
100
AcDbEntity
  8
00_COMPONENTS_1
100
AcDbLine
 62
7
  6
BYLAYER
 10
36.3168815176
 20
90.3672403015
 11
36.3168815176
 21
82.8729747736
  0
LINE
  5
22E
100
AcDbEntity
  8
00_COMPONENTS_1
100
AcDbLine
 62
7
  6
BYLAYER
 10
37.2479616456
 20
82.8729747736
 11
37.2479616456
 21
112.8729747736
  0
LINE
  5
22F
100
AcDbEntity
  8
00_COMPONENTS_1
100
AcDbLine
 62
7
  6
BYLAYER
 10
37.6456019168
 20
112.8729747736
 11
37.6456019168
 21
76.2929747736
  0
LINE
  5
230
100
AcDbEntity
  8
00_COMPONENTS_1
100
AcDbLine
 62
7
  6
BYLAYER
 10
37.7456019168
 20
76.2929747736
 11
37.7456019168
 21
68.0729747736
  0
LINE
  5
231
100
AcDbEntity
  8
00_COMPONENTS_1
100
AcDbLine
 62
7
  6
BYLAYER
 10
40.1756019168
 20
112.9729747736
 11
40.1756019168
 21
67.9729747736
  0
LINE
  5
232
100
AcDbEntity
  8
00_COMPONENTS_1
100
AcDbLine
 62
7
  6
BYLAYER
 10
53.8456019168
 20
67.9729747736
 11
40.1756019168
 21
67.9729747736
  0
LINE
  5
233
100
AcDbEntity
  8
00_COMPONENTS_1
100
AcDbLine
 62
7
  6
BYLAYER
 10
36.160332553
 20
68.0729747736
 11
40.1756019168
 21
68.0729747736
  0
LINE
  5
234
100
AcDbEntity
  8
00_COMPONENTS_1
100
AcDbLine
 62
7
  6
BYLAYER
 10
36.2456019168
 20
68.4679747736
 11
37.7456019168
 21
68.4679747736
  0
LINE
  5
235
100
AcDbEntity
  8
00_COMPONENTS_1
100
AcDbLine
 62
7
  6
BYLAYER
 10
97.8456019168
 20
72.4729747736
 11
99.1456019168
 21
72.4729747736
  0
LINE
  5
236
100
AcDbEntity
  8
00_COMPONENTS_1
100
AcDbLine
 62
7
  6
BYLAYER
 10
52.3456052717
 20
50.9231296988
 11
52.3456098928
 21
50.9229813123
  0
LINE
  5
237
100
AcDbEntity
  8
00_COMPONENTS_1
100
AcDbLine
 62
7
  6
BYLAYER
 10
99.5456019168
 20
73.4729747736
 11
99.8456019168
 21
73.4729747736
  0
LINE
  5
238
100
AcDbEntity
  8
00_COMPONENTS_1
100
AcDbLine
 62
7
  6
BYLAYER
 10
36.2456019168
 20
76.0229747736
 11
37.7456019168
 21
76.0229747736
  0
LINE
  5
239
100
AcDbEntity
  8
00_COMPONENTS_1
100
AcDbLine
 62
7
  6
BYLAYER
 10
36.160332553
 20
76.2929747736
 11
37.7456019168
 21
76.2929747736
  0
LINE
  5
23A
100
AcDbEntity
  8
00_COMPONENTS_1
100
AcDbLine
 62
7
  6
BYLAYER
 10
52.345605024
 20
129.0229065912
 11
52.3461860228
 21
128.9969980427
  0
LINE
  5
23B
100
AcDbEntity
  8
00_COMPONENTS_1
100
AcDbLine
 62
7
  6
BYLAYER
 10
52.3456019168
 20
46.4729747736
 11
52.3456019168
 21
50.9229813123
  0
LINE
  5
23C
100
AcDbEntity
  8
00_COMPONENTS_1
100
AcDbLine
 62
7
  6
BYLAYER
 10
52.3456019168
 20
58.422968235
 11
52.3456019168
 21
67.9729747736
  0
LINE
  5
23D
100
AcDbEntity
  8
00_COMPONENTS_1
100
AcDbLine
 62
7
  6
BYLAYER
 10
52.3456019168
 20
112.9729747736
 11
52.3456019168
 21
121.5229747736
  0
LINE
  5
23E
100
AcDbEntity
  8
00_COMPONENTS_1
100
AcDbLine
 62
7
  6
BYLAYER
 10
52.3456019168
 20
129.0229747736
 11
52.3456019168
 21
133.4729747736
  0
LINE
  5
23F
100
AcDbEntity
  8
00_COMPONENTS_1
100
AcDbLine
 62
7
  6
BYLAYER
 10
53.8456019168
 20
133.4729747736
 11
53.8456019168
 21
112.9729747736
  0
LINE
  5
240
100
AcDbEntity
  8
00_COMPONENTS_1
100
AcDbLine
 62
7
  6
BYLAYER
 10
53.8456019168
 20
67.9729747736
 11
53.8456019168
 21
46.4729747736
  0
LINE
  5
241
100
AcDbEntity
  8
00_COMPONENTS_1
100
AcDbLine
 62
7
  6
BYLAYER
 10
52.3456052717
 20
58.4228198485
 11
52.3456098862
 21
58.422968235
  0
LINE
  5
242
100
AcDbEntity
  8
00_COMPONENTS_1
100
AcDbLine
 62
7
  6
BYLAYER
 10
28.0973116583
 20
94.6296489851
 11
26.1853246444
 21
95.4765258013
  0
LINE
  5
243
100
AcDbEntity
  8
00_COMPONENTS_1
100
AcDbLine
 62
7
  6
BYLAYER
 10
37.2479616456
 20
82.8729747736
 11
36.3168815176
 21
82.8729747736
  0
LINE
  5
244
100
AcDbEntity
  8
00_COMPONENTS_1
100
AcDbLine
 62
7
  6
BYLAYER
 10
36.1729946513
 20
82.8729747736
 11
36.1456357535
 21
82.8729747736
  0
LINE
  5
245
100
AcDbEntity
  8
00_COMPONENTS_1
100
AcDbLine
 62
7
  6
BYLAYER
 10
62.8456019168
 20
134.4729747736
 11
62.8456019168
 21
133.4729747736
  0
LINE
  5
246
100
AcDbEntity
  8
00_COMPONENTS_1
100
AcDbLine
 62
7
  6
BYLAYER
 10
62.8456019168
 20
45.4729747736
 11
62.8456019168
 21
46.4729747736
  0
LINE
  5
247
100
AcDbEntity
  8
00_COMPONENTS_1
100
AcDbLine
 62
7
  6
BYLAYER
 10
34.6544151286
 20
89.4363727606
 11
36.1729946513
 21
89.4363727606
  0
LINE
  5
248
100
AcDbEntity
  8
00_COMPONENTS_1
100
AcDbLine
 62
7
  6
BYLAYER
 10
102.6456019168
 20
89.9729747736
 11
103.3456019168
 21
89.9729747736
  0
LINE
  5
249
100
AcDbEntity
  8
00_COMPONENTS_1
100
AcDbLine
 62
7
  6
BYLAYER
 10
67.8456019168
 20
134.4729747736
 11
67.8456019168
 21
133.4729747736
  0
LINE
  5
24A
100
AcDbEntity
  8
00_COMPONENTS_1
100
AcDbLine
 62
7
  6
BYLAYER
 10
67.8456019168
 20
45.4729747736
 11
67.8456019168
 21
46.4729747736
  0
LINE
  5
24B
100
AcDbEntity
  8
00_COMPONENTS_1
100
AcDbLine
 62
7
  6
BYLAYER
 10
102.6456019168
 20
90.9729747736
 11
103.3456019168
 21
90.9729747736
  0
LINE
  5
24C
100
AcDbEntity
  8
00_COMPONENTS_1
100
AcDbLine
 62
7
  6
BYLAYER
 10
73.7856019168
 20
134.4729747736
 11
73.7856019168
 21
133.4729747736
  0
LINE
  5
24D
100
AcDbEntity
  8
00_COMPONENTS_1
100
AcDbLine
 62
7
  6
BYLAYER
 10
73.7856019168
 20
45.4729747736
 11
73.7856019168
 21
46.4729747736
  0
LINE
  5
24E
100
AcDbEntity
  8
00_COMPONENTS_1
100
AcDbLine
 62
7
  6
BYLAYER
 10
99.8456019168
 20
73.4729747736
 11
103.3456019168
 21
71.0222483899
  0
LINE
  5
24F
100
AcDbEntity
  8
00_COMPONENTS_1
100
AcDbLine
 62
7
  6
BYLAYER
 10
103.3456019168
 20
105.7729747736
 11
99.6860004867
 21
105.7729747736
  0
LINE
  5
250
100
AcDbEntity
  8
00_COMPONENTS_1
100
AcDbLine
 62
7
  6
BYLAYER
 10
97.5856019168
 20
106.6729747736
 11
97.8456019168
 21
106.6729747736
  0
LINE
  5
251
100
AcDbEntity
  8
00_COMPONENTS_1
100
AcDbLine
 62
7
  6
BYLAYER
 10
83.9456019168
 20
134.4729747736
 11
83.9456019168
 21
133.4729747736
  0
LINE
  5
252
100
AcDbEntity
  8
00_COMPONENTS_1
100
AcDbLine
 62
7
  6
BYLAYER
 10
83.9456019168
 20
45.4729747736
 11
83.9456019168
 21
46.4729747736
  0
LINE
  5
253
100
AcDbEntity
  8
00_COMPONENTS_1
100
AcDbLine
 62
7
  6
BYLAYER
 10
99.0456019168
 20
109.8427897159
 11
103.3456019168
 21
109.8427897159
  0
LINE
  5
254
100
AcDbEntity
  8
00_COMPONENTS_1
100
AcDbLine
 62
7
  6
BYLAYER
 10
97.5856019168
 20
109.8724610664
 11
103.3456019168
 21
109.8724610664
  0
LINE
  5
255
100
AcDbEntity
  8
00_COMPONENTS_1
100
AcDbLine
 62
7
  6
BYLAYER
 10
33.7248915412
 20
111.7229747741
 11
37.2479616456
 21
111.7229747741
  0
LINE
  5
256
100
AcDbEntity
  8
00_COMPONENTS_1
100
AcDbLine
 62
7
  6
BYLAYER
 10
40.1756019168
 20
112.8729747736
 11
36.1729946513
 21
112.8729747736
  0
LINE
  5
257
100
AcDbEntity
  8
00_COMPONENTS_1
100
AcDbLine
 62
7
  6
BYLAYER
 10
101.7927547895
 20
83.5573680201
 11
98.2720254804
 21
81.0921268179
  0
LINE
  5
258
100
AcDbEntity
  8
00_COMPONENTS_1
100
AcDbLine
 62
7
  6
BYLAYER
 10
53.8456019168
 20
112.9729747736
 11
40.1756019168
 21
112.9729747736
  0
LINE
  5
259
100
AcDbEntity
  8
00_COMPONENTS_1
100
AcDbLine
 62
7
  6
BYLAYER
 10
98.2720254804
 20
98.8538227293
 11
101.7927547895
 21
96.3885815271
  0
LINE
  5
25A
100
AcDbEntity
  8
00_COMPONENTS_1
100
AcDbLine
 62
7
  6
BYLAYER
 10
97.0456019168
 20
134.4729747736
 11
97.0456019168
 21
133.4729747736
  0
LINE
  5
25B
100
AcDbEntity
  8
00_COMPONENTS_1
100
AcDbLine
 62
7
  6
BYLAYER
 10
97.0456019168
 20
45.4729747736
 11
97.0456019168
 21
46.4729747736
  0
LINE
  5
25C
100
AcDbEntity
  8
00_COMPONENTS_1
100
AcDbLine
 62
7
  6
BYLAYER
 10
97.5856019168
 20
109.8724610664
 11
97.5856019168
 21
106.6729747736
  0
LINE
  5
25D
100
AcDbEntity
  8
00_COMPONENTS_1
100
AcDbLine
 62
7
  6
BYLAYER
 10
97.8456019168
 20
106.6729747736
 11
97.8456019168
 21
99.6729747736
  0
LINE
  5
25E
100
AcDbEntity
  8
00_COMPONENTS_1
100
AcDbLine
 62
7
  6
BYLAYER
 10
97.8456019168
 20
80.2729747736
 11
97.8456019168
 21
72.4729747736
  0
LINE
  5
25F
100
AcDbEntity
  8
00_COMPONENTS_1
100
AcDbLine
 62
7
  6
BYLAYER
 10
99.0456019168
 20
109.8724610664
 11
99.0456019168
 21
109.6729747736
  0
LINE
  5
260
100
AcDbEntity
  8
00_COMPONENTS_1
100
AcDbLine
 62
7
  6
BYLAYER
 10
99.1456019168
 20
72.4729747736
 11
99.1456019168
 21
73.0729747736
  0
LINE
  5
261
100
AcDbEntity
  8
00_COMPONENTS_1
100
AcDbLine
 62
7
  6
BYLAYER
 10
99.1456019168
 20
73.0729747736
 11
99.5456019168
 21
73.4729747736
  0
LINE
  5
262
100
AcDbEntity
  8
00_COMPONENTS_1
100
AcDbLine
 62
7
  6
BYLAYER
 10
52.896220614
 20
50.9222417021
 11
52.911539781
 21
50.9275996737
  0
LINE
  5
263
100
AcDbEntity
  8
00_COMPONENTS_1
100
AcDbLine
 62
7
  6
BYLAYER
 10
101.5931158146
 20
134.4729747736
 11
101.5931158146
 21
133.4729747736
  0
LINE
  5
264
100
AcDbEntity
  8
00_COMPONENTS_1
100
AcDbLine
 62
7
  6
BYLAYER
 10
101.5931158146
 20
45.4729747736
 11
101.5931158146
 21
46.4729747736
  0
LINE
  5
265
100
AcDbEntity
  8
00_COMPONENTS_1
100
AcDbLine
 62
7
  6
BYLAYER
 10
102.6456019168
 20
94.7502774386
 11
102.6456019168
 21
85.1956721087
  0
LINE
  5
266
100
AcDbEntity
  8
00_COMPONENTS_1
100
AcDbLine
 62
7
  6
BYLAYER
 10
103.3456019168
 20
71.0222483899
 11
103.3456019168
 21
46.4729747736
  0
LINE
  5
267
100
AcDbEntity
  8
00_COMPONENTS_1
100
AcDbLine
 62
7
  6
BYLAYER
 10
103.3456019168
 20
89.9729747736
 11
103.3456019168
 21
90.9729747736
  0
LINE
  5
268
100
AcDbEntity
  8
00_COMPONENTS_1
100
AcDbLine
 62
7
  6
BYLAYER
 10
103.3456019168
 20
105.7729747736
 11
103.3456019168
 21
121.5729747736
  0
LINE
  5
269
100
AcDbEntity
  8
00_COMPONENTS_1
100
AcDbLine
 62
7
  6
BYLAYER
 10
99.6860004867
 20
105.7729747736
 11
99.0456019168
 21
109.6729747736
  0
LINE
  5
26A
100
AcDbEntity
  8
00_COMPONENTS_1
100
AcDbLine
 62
7
  6
BYLAYER
 10
101.6731659838
 20
133.4729747736
 11
52.345605029
 21
133.4729747736
  0
LINE
  5
26B
100
AcDbEntity
  8
00_COMPONENTS_1
100
AcDbLine
 62
7
  6
BYLAYER
 10
101.5931158146
 20
134.4729747736
 11
97.0456019168
 21
134.4729747736
  0
LINE
  5
26C
100
AcDbEntity
  8
00_COMPONENTS_1
100
AcDbLine
 62
7
  6
BYLAYER
 10
83.9456019168
 20
134.4729747736
 11
62.8456019168
 21
134.4729747736
  0
LINE
  5
26D
100
AcDbEntity
  8
00_COMPONENTS_1
100
AcDbLine
 62
7
  6
BYLAYER
 10
101.6731659838
 20
133.4729747736
 11
103.3456019168
 21
121.5729747736
  0
ARC
  5
26E
100
AcDbEntity
  8
00_COMPONENTS_1
100
AcDbCircle
 62
7
  6
BYLAYER
 10
-113.5081371182
 20
125.2743924987
 40
165.896159952
100
AcDbArc
 50
358.7042573776
 51
359.9995103584
  0
ARC
  5
26F
100
AcDbEntity
  8
00_COMPONENTS_1
100
AcDbCircle
 62
7
  6
BYLAYER
 10
-17.6534982717
 20
103.0129747736
 40
52.8
100
AcDbArc
 50
346.4883271369
 51
347.3526474149
  0
ARC
  5
270
100
AcDbEntity
  8
00_COMPONENTS_1
100
AcDbCircle
 62
7
  6
BYLAYER
 10
-17.6534982717
 20
103.0129747736
 40
52.8
100
AcDbArc
 50
349.5382396384
 51
349.6066238505
  0
ARC
  5
271
100
AcDbEntity
  8
00_COMPONENTS_1
100
AcDbCircle
 62
7
  6
BYLAYER
 10
-16.1428472636
 20
129.0737276826
 40
52.8
100
AcDbArc
 50
322.5984557345
 51
340.8154036542
  0
ARC
  5
272
100
AcDbEntity
  8
00_COMPONENTS_1
100
AcDbCircle
 62
7
  6
BYLAYER
 10
44.7056019168
 20
112.469510785
 40
23.69
100
AcDbArc
 50
228.6531081905
 51
251.6439676727
  0
ARC
  5
273
100
AcDbEntity
  8
00_COMPONENTS_1
100
AcDbCircle
 62
7
  6
BYLAYER
 10
44.7098378245
 20
112.4755423401
 40
21.7573428742
100
AcDbArc
 50
225.183485682
 51
242.3259318266
  0
ARC
  5
274
100
AcDbEntity
  8
00_COMPONENTS_1
100
AcDbCircle
 62
7
  6
BYLAYER
 10
44.7056019168
 20
112.469510785
 40
21.74
100
AcDbArc
 50
243.1690725088
 51
249.9326625457
  0
ARC
  5
275
100
AcDbEntity
  8
00_COMPONENTS_1
100
AcDbCircle
 62
7
  6
BYLAYER
 10
44.6956019168
 20
112.4729747736
 40
21.68
100
AcDbArc
 50
224.5979180699
 51
249.8968011939
  0
ARC
  5
276
100
AcDbEntity
  8
00_COMPONENTS_1
100
AcDbCircle
 62
7
  6
BYLAYER
 10
44.6956019168
 20
112.4729747438
 40
15.0
100
AcDbArc
 50
217.3824531152
 51
240.1621430939
  0
ARC
  5
277
100
AcDbEntity
  8
00_COMPONENTS_1
100
AcDbCircle
 62
7
  6
BYLAYER
 10
36.5094980825
 20
96.8369443613
 40
4.0991284149
100
AcDbArc
 50
242.3125508089
 51
246.7752333296
  0
ARC
  5
278
100
AcDbEntity
  8
00_COMPONENTS_1
100
AcDbCircle
 62
7
  6
BYLAYER
 10
100.6456019168
 20
94.7502774386
 40
2.0
100
AcDbArc
 50
0.0
 51
55.0000000002
  0
ARC
  5
279
100
AcDbEntity
  8
00_COMPONENTS_1
100
AcDbCircle
 62
7
  6
BYLAYER
 10
100.6456019168
 20
85.1956721087
 40
2.0
100
AcDbArc
 50
304.9999999992
 51
360.0
  0
ARC
  5
27A
100
AcDbEntity
  8
00_COMPONENTS_1
100
AcDbCircle
 62
7
  6
BYLAYER
 10
98.8456019168
 20
99.6729747736
 40
1.0
100
AcDbArc
 50
180.0
 51
235.0000000005
  0
ARC
  5
27B
100
AcDbEntity
  8
00_COMPONENTS_1
100
AcDbCircle
 62
7
  6
BYLAYER
 10
98.8456019168
 20
80.2729747736
 40
1.0
100
AcDbArc
 50
124.9999999998
 51
180.0
  0
ARC
  5
27C
100
AcDbEntity
  8
00_COMPONENTS_1
100
AcDbCircle
 62
7
  6
BYLAYER
 10
32.3792927302
 20
103.0624206677
 40
0.5
100
AcDbArc
 50
37.3824531199
 51
156.1099999996
  0
SPLINE
  5
27D
100
AcDbEntity
  8
00_COMPONENTS_1
100
AcDbSpline
 62
7
  6
BYLAYER
 70
0
 71
3
 72
20
 73
16
 74
0
 42
0.0000001
 43
0.0000001
 44
0.0000000001
 40
0.0
 40
0.0
 40
0.0
 40
0.0
 40
0.0024002079
 40
0.0095589228
 40
0.0214203786
 40
0.0378666388
 40
0.083831983
 40
0.14569106
 40
0.2210831137
 40
0.3071380257
 40
0.4005626518
 40
0.4977848556
 40
0.6887641045
 40
0.8511774666
 40
1.0
 40
1.0
 40
1.0
 40
1.0
 10
52.3456019942
 20
58.4229668868
 30
0.0
 10
52.3459496104
 20
58.4169760741
 30
0.0
 10
52.3459803335
 20
58.3930627801
 30
0.0
 10
52.3476626403
 20
58.3395416281
 30
0.0
 10
52.3493323571
 20
58.2508802825
 30
0.0
 10
52.3534461717
 20
58.065234822
 30
0.0
 10
52.3594960565
 20
57.7545951817
 30
0.0
 10
52.3675342347
 20
57.2965969641
 30
0.0
 10
52.3755137567
 20
56.7383528701
 30
0.0
 10
52.3823191657
 20
56.1011695737
 30
0.0
 10
52.3868939816
 20
55.4093854742
 30
0.0
 10
52.3890937274
 20
54.4552615723
 30
0.0
 10
52.3843324208
 20
53.3286493265
 30
0.0
 10
52.3689959209
 20
52.0731175494
 30
0.0
 10
52.3540218069
 20
51.2951169834
 30
0.0
 10
52.3456052717
 20
50.9231329276
 30
0.0
  0
SPLINE
  5
27E
100
AcDbEntity
  8
00_COMPONENTS_1
100
AcDbSpline
 62
7
  6
BYLAYER
 70
0
 71
3
 72
19
 73
15
 74
0
 42
0.0000001
 43
0.0000001
 44
0.0000000001
 40
0.0
 40
0.0
 40
0.0
 40
0.0
 40
0.0093037474
 40
0.0164878271
 40
0.0257221644
 40
0.050620578
 40
0.0841986579
 40
0.12630058
 40
0.1765931005
 40
0.3000331859
 40
0.4501340718
 40
0.6212400452
 40
0.8069509554
 40
1.0
 40
1.0
 40
1.0
 40
1.0
 10
52.8962247555
 20
121.5229446363
 30
0.0
 10
52.9079985681
 20
121.5229310916
 30
0.0
 10
52.9267010048
 20
121.5383729574
 30
0.0
 10
52.9437412794
 20
121.5652324588
 30
0.0
 10
52.9666428342
 20
121.6127423014
 30
0.0
 10
52.9929697576
 20
121.6943094868
 30
0.0
 10
53.0230879966
 20
121.8180976529
 30
0.0
 10
53.0527232893
 20
121.9747682958
 30
0.0
 10
53.0942754661
 20
122.2447696702
 30
0.0
 10
53.1401644762
 20
122.652142641
 30
0.0
 10
53.1848919248
 20
123.2131187021
 30
0.0
 10
53.2191416513
 20
123.8537726637
 30
0.0
 10
53.240688695
 20
124.5493390753
 30
0.0
 10
53.2455564266
 20
125.0286726941
 30
0.0
 10
53.2455564266
 20
125.2729747688
 30
0.0
  0
SPLINE
  5
27F
100
AcDbEntity
  8
00_COMPONENTS_1
100
AcDbSpline
 62
7
  6
BYLAYER
 70
0
 71
3
 72
29
 73
25
 74
0
 42
0.0000001
 43
0.0000001
 44
0.0000000001
 40
0.0
 40
0.0
 40
0.0
 40
0.0
 40
0.0060418832
 40
0.0159076193
 40
0.0298737414
 40
0.0479395873
 40
0.0699841222
 40
0.0958530355
 40
0.1581567367
 40
0.232724059
 40
0.3169280875
 40
0.4077585835
 40
0.5019357969
 40
0.5960352761
 40
0.6866362029
 40
0.7704687706
 40
0.8445374242
 40
0.9062349068
 40
0.9317685462
 40
0.9534605714
 40
0.9711614248
 40
0.9847569921
 40
0.9942604066
 40
1.0
 40
1.0
 40
1.0
 40
1.0
 10
52.911539781
 20
50.9275996737
 30
0.0
 10
52.9246034482
 20
50.9354386276
 30
0.0
 10
52.9482585726
 20
50.9704239882
 30
0.0
 10
52.9763288774
 20
51.0395122009
 30
0.0
 10
53.0055128056
 20
51.1416220857
 30
0.0
 10
53.0345216383
 20
51.2747392257
 30
0.0
 10
53.0632162099
 20
51.4387147272
 30
0.0
 10
53.1027462196
 20
51.7138148431
 30
0.0
 10
53.1465143806
 20
52.1219704772
 30
0.0
 10
53.1889274464
 20
52.677862976
 30
0.0
 10
53.2211624978
 20
53.3064908909
 30
0.0
 10
53.2412570494
 20
53.9850799979
 30
0.0
 10
53.2478928739
 20
54.6888875692
 30
0.0
 10
53.2406358968
 20
55.3921102196
 30
0.0
 10
53.2199612057
 20
56.0689695418
 30
0.0
 10
53.1872225402
 20
56.6947956795
 30
0.0
 10
53.1444129677
 20
57.2469231302
 30
0.0
 10
53.1003786389
 20
57.6514031997
 30
0.0
 10
53.0606736544
 20
57.9231777
 30
0.0
 10
53.0319090817
 20
58.0844564817
 30
0.0
 10
53.002924118
 20
58.2147443216
 30
0.0
 10
52.9736833443
 20
58.3140363145
 30
0.0
 10
52.9458821132
 20
58.3802616541
 30
0.0
 10
52.9218479251
 20
58.4133526151
 30
0.0
 10
52.9088922285
 20
58.4198034795
 30
0.0
  0
SPLINE
  5
280
100
AcDbEntity
  8
00_COMPONENTS_1
100
AcDbSpline
 62
7
  6
BYLAYER
 70
0
 71
3
 72
15
 73
11
 74
0
 42
0.0000001
 43
0.0000001
 44
0.0000000001
 40
0.0
 40
0.0
 40
0.0
 40
0.0
 40
0.1295090134
 40
0.2566623227
 40
0.3799816848
 40
0.5007208334
 40
0.6225853745
 40
0.7489627711
 40
0.8768165863
 40
1.0
 40
1.0
 40
1.0
 40
1.0
 10
34.6544151286
 20
89.4363727606
 30
0.0
 10
34.576420734
 20
89.4363728254
 30
0.0
 10
34.4212257388
 20
89.4546999133
 30
0.0
 10
34.2045578962
 20
89.5343008956
 30
0.0
 10
34.0159567748
 20
89.6578670073
 30
0.0
 10
33.861460614
 20
89.8174900109
 30
0.0
 10
33.7444085035
 20
90.0084940515
 30
0.0
 10
33.6711647948
 20
90.224929258
 30
0.0
 10
33.6486074271
 20
90.4530451613
 30
0.0
 10
33.6677871947
 20
90.6044627201
 30
0.0
 10
33.6851213024
 20
90.6766000945
 30
0.0
  0
SPLINE
  5
281
100
AcDbEntity
  8
00_COMPONENTS_1
100
AcDbSpline
 62
7
  6
BYLAYER
 70
0
 71
3
 72
19
 73
15
 74
0
 42
0.0000001
 43
0.0000001
 44
0.0000000001
 40
0.0
 40
0.0
 40
0.0
 40
0.0
 40
0.1930742429
 40
0.3787920204
 40
0.5498751945
 40
0.6999661915
 40
0.8234330869
 40
0.8737450884
 40
0.915856479
 40
0.9494209338
 40
0.9742957067
 40
0.9835192288
 40
0.9906959226
 40
1.0
 40
1.0
 40
1.0
 40
1.0
 10
53.2455564266
 20
125.2729747688
 30
0.0
 10
53.2455564267
 20
125.5173034167
 30
0.0
 10
53.2406819968
 20
125.9966670711
 30
0.0
 10
53.219147447
 20
126.692230425
 30
0.0
 10
53.1848901203
 20
127.3328375356
 30
0.0
 10
53.1401479591
 20
127.8937924326
 30
0.0
 10
53.0942721496
 20
128.3012040203
 30
0.0
 10
53.0527284424
 20
128.5712719285
 30
0.0
 10
53.0231013188
 20
128.7279606584
 30
0.0
 10
52.9929807767
 20
128.8517092798
 30
0.0
 10
52.9666431803
 20
128.9332090051
 30
0.0
 10
52.9437394679
 20
128.9806562156
 30
0.0
 10
52.9266840021
 20
129.0074832876
 30
0.0
 10
52.9079981292
 20
129.0229066517
 30
0.0
 10
52.8962241474
 20
129.0229085386
 30
0.0
  0
SPLINE
  5
282
100
AcDbEntity
  8
00_COMPONENTS_1
100
AcDbSpline
 62
7
  6
BYLAYER
 70
0
 71
3
 72
18
 73
14
 74
0
 42
0.0000001
 43
0.0000001
 44
0.0000000001
 40
0.0
 40
0.0
 40
0.0
 40
0.0
 40
0.1950525343
 40
0.3826963636
 40
0.555547196
 40
0.7070888538
 40
0.8314518577
 40
0.8819000903
 40
0.9238713974
 40
0.9569335838
 40
0.9807834305
 40
0.9951909816
 40
1.0
 40
1.0
 40
1.0
 40
1.0
 10
52.3880228278
 20
125.2729747736
 30
0.0
 10
52.3880228278
 20
125.5168066717
 30
0.0
 10
52.3869640514
 20
125.9952096535
 30
0.0
 10
52.3824256192
 20
126.6896769953
 30
0.0
 10
52.3756320243
 20
127.3297306993
 30
0.0
 10
52.3676162915
 20
127.8906559832
 30
0.0
 10
52.3605321981
 20
128.2985638499
 30
0.0
 10
52.3552552748
 20
128.5695079484
 30
0.0
 10
52.3521120788
 20
128.7263407276
 30
0.0
 10
52.3493192992
 20
128.8499175331
 30
0.0
 10
52.3477474714
 20
128.9390692129
 30
0.0
 10
52.3458681604
 20
128.9928611071
 30
0.0
 10
52.3460269147
 20
129.0169097401
 30
0.0
 10
52.345605024
 20
129.0229065912
 30
0.0
  0
SPLINE
  5
283
100
AcDbEntity
  8
00_COMPONENTS_1
100
AcDbSpline
 62
7
  6
BYLAYER
 70
0
 71
3
 72
16
 73
12
 74
0
 42
0.0000001
 43
0.0000001
 44
0.0000000001
 40
0.0
 40
0.0
 40
0.0
 40
0.0
 40
0.0012760286
 40
0.1206978127
 40
0.2509170385
 40
0.3546153594
 40
0.46690927
 40
0.5933663457
 40
0.7256167146
 40
0.8643982808
 40
1.0
 40
1.0
 40
1.0
 40
1.0
 10
26.1853246444
 20
95.4765258013
 30
0.0
 10
26.1846219825
 20
95.4768370303
 30
0.0
 10
26.118190148
 20
95.5063541616
 30
0.0
 10
25.9864185291
 20
95.5831128807
 30
0.0
 10
25.8300568094
 20
95.7304694165
 30
0.0
 10
25.7112697594
 20
95.9032887982
 30
0.0
 10
25.6292155009
 20
96.0940845462
 30
0.0
 10
25.5866525262
 20
96.3154525854
 30
0.0
 10
25.5971201483
 20
96.5569131216
 30
0.0
 10
25.6669610111
 20
96.7942210041
 30
0.0
 10
25.7517724986
 20
96.9382717531
 30
0.0
 10
25.8013803331
 20
97.0031528311
 30
0.0
  0
SPLINE
  5
284
100
AcDbEntity
  8
00_COMPONENTS_1
100
AcDbSpline
 62
7
  6
BYLAYER
 70
0
 71
3
 72
35
 73
31
 74
0
 42
0.0000001
 43
0.0000001
 44
0.0000000001
 40
0.0
 40
0.0
 40
0.0
 40
0.0
 40
0.004573002
 40
0.0080947803
 40
0.0126344671
 40
0.0182478972
 40
0.0249529927
 40
0.0416289105
 40
0.0625970922
 40
0.0877062968
 40
0.1167314032
 40
0.1494251814
 40
0.224551373
 40
0.3102570544
 40
0.4032560218
 40
0.4999857183
 40
0.5967143438
 40
0.6897112682
 40
0.7754186757
 40
0.8505569088
 40
0.8832572867
 40
0.9122855604
 40
0.9373969742
 40
0.958368977
 40
0.9750472705
 40
0.9817534181
 40
0.9873680853
 40
0.9919078203
 40
0.9954283293
 40
1.0
 40
1.0
 40
1.0
 40
1.0
 10
52.8962217166
 20
58.4229509167
 30
0.0
 10
52.8846780179
 20
58.4229143873
 30
0.0
 10
52.8664453216
 20
58.4074701709
 30
0.0
 10
52.8506496304
 20
58.3806054901
 30
0.0
 10
52.8365824633
 20
58.3487198236
 30
0.0
 10
52.8231750444
 20
58.3083897292
 30
0.0
 10
52.8041263782
 20
58.237648521
 30
0.0
 10
52.7823874592
 20
58.1277502311
 30
0.0
 10
52.7591105232
 20
57.9710251763
 30
0.0
 10
52.7375408216
 20
57.7826464233
 30
0.0
 10
52.7177379304
 20
57.5643459584
 30
0.0
 10
52.6928053748
 20
57.2197903912
 30
0.0
 10
52.6681277098
 20
56.7318408125
 30
0.0
 10
52.647630693
 20
56.0913942521
 30
0.0
 10
52.6353052393
 20
55.3961961636
 30
0.0
 10
52.6311851349
 20
54.6730800863
 30
0.0
 10
52.6352997741
 20
53.9499691047
 30
0.0
 10
52.6476278233
 20
53.2547745585
 30
0.0
 10
52.6681238624
 20
52.6142983828
 30
0.0
 10
52.6927984298
 20
52.1262972069
 30
0.0
 10
52.7177284676
 20
51.7816862535
 30
0.0
 10
52.7375339812
 20
51.5633556232
 30
0.0
 10
52.7591088324
 20
51.3749541189
 30
0.0
 10
52.7823854426
 20
51.2182076181
 30
0.0
 10
52.8041272422
 20
51.1082911044
 30
0.0
 10
52.8231767182
 20
51.03753818
 30
0.0
 10
52.8365796505
 20
50.9972001233
 30
0.0
 10
52.8506433893
 20
50.9653136786
 30
0.0
 10
52.8664406284
 20
50.938453466
 30
0.0
 10
52.884681937
 20
50.9230349214
 30
0.0
 10
52.8962222872
 20
50.9230025288
 30
0.0
  0
SPLINE
  5
285
100
AcDbEntity
  8
00_COMPONENTS_1
100
AcDbSpline
 62
7
  6
BYLAYER
 70
0
 71
3
 72
20
 73
16
 74
0
 42
0.0000001
 43
0.0000001
 44
0.0000000001
 40
0.0
 40
0.0
 40
0.0
 40
0.0
 40
0.1934230275
 40
0.3794896711
 40
0.5508806274
 40
0.7011533724
 40
0.7665363872
 40
0.824592568
 40
0.8747907503
 40
0.9167322154
 40
0.9500831453
 40
0.9747124644
 40
0.983805781
 40
0.9908556248
 40
1.0
 40
1.0
 40
1.0
 40
1.0
 10
52.632578986
 20
125.2729747617
 30
0.0
 10
52.632578986
 20
125.0288422924
 30
0.0
 10
52.6353055799
 20
124.5498578775
 30
0.0
 10
52.6476104035
 20
123.854642298
 30
0.0
 10
52.668132959
 20
123.2141075965
 30
0.0
 10
52.6927951464
 20
122.7261607284
 30
0.0
 10
52.7177510237
 20
122.3815785686
 30
0.0
 10
52.7375172052
 20
122.163297016
 30
0.0
 10
52.7591601653
 20
121.9749381701
 30
0.0
 10
52.7823046835
 20
121.8182161255
 30
0.0
 10
52.8071241162
 20
121.6944535907
 30
0.0
 10
52.8298162627
 20
121.612851997
 30
0.0
 10
52.8506365318
 20
121.5652985417
 30
0.0
 10
52.8664108399
 20
121.5383828973
 30
0.0
 10
52.88468302
 20
121.5229579141
 30
0.0
 10
52.8962247555
 20
121.5229446363
 30
0.0
  0
SPLINE
  5
286
100
AcDbEntity
  8
00_COMPONENTS_1
100
AcDbSpline
 62
7
  6
BYLAYER
 70
0
 71
3
 72
21
 73
17
 74
0
 42
0.0000001
 43
0.0000001
 44
0.0000000001
 40
0.0
 40
0.0
 40
0.0
 40
0.0
 40
0.009135827
 40
0.0161786418
 40
0.0252615384
 40
0.0364827615
 40
0.0498800577
 40
0.0832245773
 40
0.12517088
 40
0.1753813017
 40
0.2334517758
 40
0.2988414556
 40
0.4491200603
 40
0.6205058568
 40
0.8065749807
 40
1.0
 40
1.0
 40
1.0
 40
1.0
 10
52.8962241474
 20
129.0229085386
 30
0.0
 10
52.8846932491
 20
129.0229103866
 30
0.0
 10
52.8664091885
 20
129.0075275541
 30
0.0
 10
52.8506556069
 20
128.9806426702
 30
0.0
 10
52.8366110151
 20
128.9487543093
 30
0.0
 10
52.8232051916
 20
128.9084435118
 30
0.0
 10
52.8041382411
 20
128.8377413619
 30
0.0
 10
52.7824000629
 20
128.7278549678
 30
0.0
 10
52.7591337811
 20
128.5711360053
 30
0.0
 10
52.737535859
 20
128.3827323176
 30
0.0
 10
52.7177585736
 20
128.1644113732
 30
0.0
 10
52.6928036112
 20
127.8197965704
 30
0.0
 10
52.6681337018
 20
127.3318433881
 30
0.0
 10
52.6476067162
 20
126.6913077448
 30
0.0
 10
52.6353049147
 20
125.9960963344
 30
0.0
 10
52.632578986
 20
125.5171085736
 30
0.0
 10
52.632578986
 20
125.2729747617
 30
0.0
  0
ENDSEC
  0
SECTION
  2
OBJECTS
  0
DICTIONARY
  5
C
100
AcDbDictionary
280
0
281
1
  3
ACAD_GROUP
350
D
  3
ACAD_MLINESTYLE
350
17
  3
ACAD_LAYOUT
350
1A
  3
ACAD_PLOTSETTINGS
350
19
  3
ACAD_PLOTSTYLENAME
350
E
  0
DICTIONARY
  5
D
102
{ACAD_REACTORS
330
C
102
}
100
AcDbDictionary
280
0
281
1
  0
ACDBDICTIONARYWDFLT
  5
E
102
{ACAD_REACTORS
330
C
102
}
100
AcDbDictionary
281
1
  3
Normal
350
F
100
AcDbDictionaryWithDefault
340
F
  0
DICTIONARY
  5
17
102
{ACAD_REACTORS
330
C
102
}
100
AcDbDictionary
280
0
281
1
  3
Standard
350
18
  0
DICTIONARY
  5
19
102
{ACAD_REACTORS
330
C
102
}
100
AcDbDictionary
281
1
  0
DICTIONARY
  5
1A
102
{ACAD_REACTORS
330
C
102
}
100
AcDbDictionary
281
1
  3
Model
350
287
  3
Layout1
350
288
  0
ACDBPLACEHOLDER
  5
F
102
{ACAD_REACTORS
330
E
102
}
  0
MLINESTYLE
  5
18
102
{ACAD_REACTORS
330
17
102
}
100
AcDbMlineStyle
  2
STANDARD
 70
0
  3

 62
256
 51
90.0
 52
90.0
 71
2
 49
0.5
 62
256
  6
BYLAYER
 49
-0.5
 62
256
  6
BYLAYER
  0
LAYOUT
  5
287
102
{ACAD_REACTORS
330
1A
102
}
100
AcDbPlotSettings
  1

  2
none_device
  4

  6

 40
0.0
 41
0.0
 42
0.0
 43
0.0
 44
210.0
 45
297.0
 46
0.0
 47
0.0
 48
0.0
 49
0.0
140
0.0
141
0.0
142
1.0
143
1.0
 70
1024
 72
1
 73
0
 74
0
  7

 75
0
147
1.0
148
0.0
149
0.0
100
AcDbLayout
  1
Model
 70
0
 71
0
 10
0.0
 20
0.0
 11
210.0
 21
297.0
 12
0.0
 22
0.0
 32
0.0
 14
0.0
 24
0.0
 34
0.0
 15
0.0
 25
0.0
 35
0.0
146
0.0
 13
0.0
 23
0.0
 33
0.0
 16
1.0
 26
0.0
 36
0.0
 17
0.0
 27
1.0
 37
0.0
 76
0
330
217
345
0
346
0
  0
LAYOUT
  5
288
102
{ACAD_REACTORS
330
1A
102
}
100
AcDbPlotSettings
  1

  2
none_device
  4

  6

 40
0.0
 41
0.0
 42
0.0
 43
0.0
 44
210.0
 45
297.0
 46
0.0
 47
0.0
 48
0.0
 49
0.0
140
0.0
141
0.0
142
1.0
143
1.0
 70
0
 72
1
 73
0
 74
0
  7

 75
0
147
1.0
148
0.0
149
0.0
100
AcDbLayout
  1
Layout1
 70
0
 71
1
 10
0.0
 20
0.0
 11
210.0
 21
297.0
 12
0.0
 22
0.0
 32
0.0
 14
0.0
 24
0.0
 34
0.0
 15
0.0
 25
0.0
 35
0.0
146
0.0
 13
0.0
 23
0.0
 33
0.0
 16
1.0
 26
0.0
 36
0.0
 17
0.0
 27
1.0
 37
0.0
 76
0
330
218
345
0
346
0
  0
ENDSEC
  0
EOF
