  0
SECTION
  2
HEADER
  9
$ACADVER
  1
AC1009
  9
$DWGCODEPAGE
  3
ansi_1250
  9
$INSBASE
 10
0.0
 20
0.0
 30
0.0
  9
$EXTMIN
 10
-3.937008
 20
-1.754823
 30
0.0
  9
$EXTMAX
 10
3.937008
 20
1.437008
 30
0.0
  9
$LIMMIN
 10
0.0
 20
0.0
  9
$LIMMAX
 10
0.0
 20
0.0
  9
$ORTHOMODE
 70
     0
  9
$REGENMODE
 70
     1
  9
$FILLMODE
 70
     1
  9
$QTEXTMODE
 70
     0
  9
$MIRRTEXT
 70
     1
  9
$DRAGMODE
 70
     2
  9
$LTSCALE
 40
1.0
  9
$OSMODE
 70
     0
  9
$ATTMODE
 70
     1
  9
$TEXTSIZE
 40
0.2
  9
$TRACEWID
 40
0.05
  9
$TEXTSTYLE
  7
STANDARD
  9
$CLAYER
  8
0
  9
$CELTYPE
  6
CONTINUOUS
  9
$CECOLOR
 62
   256
  9
$DIMSCALE
 40
1.0
  9
$DIMASZ
 40
0.18
  9
$DIMEXO
 40
0.0625
  9
$DIMDLI
 40
0.38
  9
$DIMRND
 40
0.0
  9
$DIMDLE
 40
0.0
  9
$DIMEXE
 40
0.18
  9
$DIMTP
 40
0.0
  9
$DIMTM
 40
0.0
  9
$DIMTXT
 40
0.18
  9
$DIMCEN
 40
0.09
  9
$DIMTSZ
 40
0.0
  9
$DIMTOL
 70
     0
  9
$DIMLIM
 70
     0
  9
$DIMTIH
 70
     1
  9
$DIMTOH
 70
     1
  9
$DIMSE1
 70
     0
  9
$DIMSE2
 70
     0
  9
$DIMTAD
 70
     0
  9
$DIMZIN
 70
     0
  9
$DIMBLK
  1

  9
$DIMASO
 70
     1
  9
$DIMSHO
 70
     1
  9
$DIMPOST
  1

  9
$DIMAPOST
  1

  9
$DIMALT
 70
     0
  9
$DIMALTD
 70
     2
  9
$DIMALTF
 40
25.4
  9
$DIMLFAC
 40
1.0
  9
$DIMTOFL
 70
     0
  9
$DIMTVP
 40
0.0
  9
$DIMTIX
 70
     0
  9
$DIMSOXD
 70
     0
  9
$DIMSAH
 70
     0
  9
$DIMBLK1
  1

  9
$DIMBLK2
  1

  9
$DIMSTYLE
  2
STANDARD
  9
$DIMCLRD
 70
     0
  9
$DIMCLRE
 70
     0
  9
$DIMCLRT
 70
     0
  9
$DIMTFAC
 40
1.0
  9
$DIMGAP
 40
0.09
  9
$LUNITS
 70
     2
  9
$LUPREC
 70
     4
  9
$AXISMODE
 70
     0
  9
$AXISUNIT
 10
0.0
 20
0.0
  9
$SKETCHINC
 40
0.1
  9
$FILLETRAD
 40
0.0
  9
$AUNITS
 70
     0
  9
$AUPREC
 70
     0
  9
$MENU
  1
acad
  9
$ELEVATION
 40
0.0
  9
$PELEVATION
 40
0.0
  9
$THICKNESS
 40
0.0
  9
$LIMCHECK
 70
     0
  9
$BLIPMODE
 70
     1
  9
$CHAMFERA
 40
0.0
  9
$CHAMFERB
 40
0.0
  9
$SKPOLY
 70
     0
  9
$TDCREATE
 40
0.000000000
  9
$TDUPDATE
 40
0.000000000
  9
$TDINDWG
 40
0.0000000000
  9
$TDUSRTIMER
 40
0.0000000000
  9
$USRTIMER
 70
     1
  9
$ANGBASE
 50
0.0
  9
$ANGDIR
 70
     0
  9
$PDMODE
 70
     0
  9
$PDSIZE
 40
0.0
  9
$PLINEWID
 40
0.0
  9
$COORDS
 70
     0
  9
$SPLFRAME
 70
     0
  9
$SPLINETYPE
 70
     6
  9
$SPLINESEGS
 70
     8
  9
$ATTDIA
 70
     0
  9
$ATTREQ
 70
     1
  9
$HANDLING
 70
     1
  9
$HANDSEED
  5
231
  9
$SURFTAB1
 70
     6
  9
$SURFTAB2
 70
     6
  9
$SURFTYPE
 70
     6
  9
$SURFU
 70
     6
  9
$SURFV
 70
     6
  9
$UCSNAME
  2

  9
$UCSORG
 10
0.0
 20
0.0
 30
0.0
  9
$UCSXDIR
 10
1.0
 20
0.0
 30
0.0
  9
$UCSYDIR
 10
0.0
 20
1.0
 30
0.0
  9
$PUCSNAME
  2

  9
$PUCSORG
 10
0.0
 20
0.0
 30
0.0
  9
$PUCSXDIR
 10
1.0
 20
0.0
 30
0.0
  9
$PUCSYDIR
 10
0.0
 20
1.0
 30
0.0
  9
$USERI1
 70
     0
  9
$USERI2
 70
     0
  9
$USERI3
 70
     0
  9
$USERI4
 70
     0
  9
$USERI5
 70
     0
  9
$USERR1
 40
0.0
  9
$USERR2
 40
0.0
  9
$USERR3
 40
0.0
  9
$USERR4
 40
0.0
  9
$USERR5
 40
0.0
  9
$WORLDVIEW
 70
     1
  9
$SHADEDGE
 70
     3
  9
$SHADEDIF
 70
    70
  9
$TILEMODE
 70
     1
  9
$MAXACTVP
 70
    16
  9
$PINSBASE
 10
0.0
 20
0.0
 30
0.0
  9
$PLIMCHECK
 70
     0
  9
$PEXTMIN
 10
1.000000E+20
 20
1.000000E+20
 30
1.000000E+20
  9
$PEXTMAX
 10
-1.000000E+20
 20
-1.000000E+20
 30
-1.000000E+20
  9
$PLIMMIN
 10
0.0
 20
0.0
  9
$PLIMMAX
 10
12.0
 20
9.0
  9
$UNITMODE
 70
     0
  9
$VISRETAIN
 70
     0
  9
$PLINEGEN
 70
     1
  9
$PSLTSCALE
 70
     0
  9
$TREEDEPTH
 70
  3020
  0
ENDSEC
  0
SECTION
  2
TABLES
  0
TABLE
  2
VPORT
 70
     1
  0
VPORT
  2
*ACTIVE
 70
     0
 10
0.0
 20
0.0
 11
1.0
 21
1.0
 12
6.591288
 22
4.579184
 13
0.0
 23
0.0
 14
1.0
 24
1.0
 15
0.0
 25
0.0
 16
0.0
 26
0.0
 36
1.0
 17
0.0
 27
0.0
 37
0.0
 40
9.158369
 41
0.688564
 42
50.0
 43
0.0
 44
0.0
 50
0.0
 51
0.0
 71
     0
 72
   100
 73
     1
 74
     1
 75
     0
 76
     0
 77
     0
 78
     0
  0
ENDTAB
  0
TABLE
  2
LTYPE
 70
     5
  0
LTYPE
  2
CONTINUOUS
 70
    64
  3
Solid line
 72
    65
 73
     0
 40
0.0
  0
LTYPE
  2
CENTER
 70
    64
  3
Center ____ _ ____ _ ____ _ ____ _ ____ _ ____
 72
    65
 73
     4
 40
50.8
 49
31.75
 49
-6.35
 49
6.35
 49
-6.35
  0
LTYPE
  2
HIDDEN
 70
    64
  3
Hidden __ __ __ __ __ __ __ __ __ __ __ __ __ __
 72
    65
 73
     2
 40
9.525
 49
6.35
 49
-3.175
  0
LTYPE
  2
CENTER2
 70
    64
  3
Center (.5x) ___ _ ___ _ ___ _ ___ _ ___ _ ___
 72
    65
 73
     4
 40
28.575
 49
19.05
 49
-3.175
 49
3.175
 49
-3.175
  0
LTYPE
  2
HIDDEN2
 70
    64
  3
Hidden (.5x) _ _ _ _ _ _ _ _ _ _ _ _ _ _ _ _ _
 72
    65
 73
     2
 40
4.7625
 49
3.175
 49
-1.5875
  0
ENDTAB
  0
TABLE
  2
LAYER
 70
     1
  0
LAYER
  2
0
 70
     0
 62
     7
  6
CONTINUOUS
  0
ENDTAB
  0
TABLE
  2
STYLE
 70
     1
  0
STYLE
  2
STANDARD
 70
     0
 40
0.0
 41
1.0
 50
0.0
 71
     0
 42
0.0
  3
txt
  4

  0
ENDTAB
  0
TABLE
  2
VIEW
 70
     0
  0
ENDTAB
  0
TABLE
  2
UCS
 70
     0
  0
ENDTAB
  0
TABLE
  2
APPID
 70
     1
  0
APPID
  2
ACAD
 70
     0
  0
ENDTAB
  0
TABLE
  2
DIMSTYLE
 70
     1
  0
DIMSTYLE
  2
STANDARD
 70
     0
  3

  4

  5

  6

  7

 40
1.0
 41
0.18
 42
0.0625
 43
0.38
 44
0.18
 45
0.0
 46
0.0
 47
0.0
 48
0.0
 71
     0
 72
     0
 73
     1
 74
     1
 75
     0
 76
     0
 77
     0
 78
     0
140
0.18
141
0.09
142
0.0
143
25.4
144
1.0
145
0.0
146
1.0
147
0.09
170
     0
171
     2
172
     0
173
     0
174
     0
175
     0
176
     0
177
     0
178
     0
  0
ENDTAB
  0
ENDSEC
  0
SECTION
  2
BLOCKS
  0
ENDSEC
  0
SECTION
  2
ENTITIES
  0
CIRCLE
  8
0
  6
CONTINUOUS
 62
     7
  5
139
 10
0.0
 20
-1.555906
 30
0.0
 40
0.080888
  0
LINE
  8
0
  6
CONTINUOUS
 62
     7
  5
13A
 10
-0.295276
 20
-1.754823
 30
0.0
 11
-0.295276
 21
-1.437008
 31
0.0
  0
LINE
  8
0
  6
CONTINUOUS
 62
     7
  5
13B
 10
-0.295276
 20
-1.754823
 30
0.0
 11
0.295276
 21
-1.754823
 31
0.0
  0
LINE
  8
0
  6
CONTINUOUS
 62
     7
  5
13C
 10
0.295276
 20
-1.754823
 30
0.0
 11
0.295276
 21
-1.437008
 31
0.0
  0
LINE
  8
0
  6
CONTINUOUS
 62
     7
  5
13D
 10
3.650394
 20
-1.418787
 30
0.0
 11
3.341732
 21
-1.418787
 31
0.0
  0
LINE
  8
0
  6
CONTINUOUS
 62
     7
  5
13E
 10
3.341732
 20
-1.418787
 30
0.0
 11
3.341732
 21
-1.384342
 31
0.0
  0
LINE
  8
0
  6
CONTINUOUS
 62
     7
  5
13F
 10
3.341732
 20
-1.384342
 30
0.0
 11
3.650394
 21
-1.384342
 31
0.0
  0
LINE
  8
0
  6
CONTINUOUS
 62
     7
  5
140
 10
3.650394
 20
-1.384342
 30
0.0
 11
3.650394
 21
-1.418787
 31
0.0
  0
LINE
  8
0
  6
CONTINUOUS
 62
     7
  5
141
 10
3.300787
 20
-1.418787
 30
0.0
 11
2.992126
 21
-1.418787
 31
0.0
  0
LINE
  8
0
  6
CONTINUOUS
 62
     7
  5
142
 10
2.992126
 20
-1.418787
 30
0.0
 11
2.992126
 21
-1.384342
 31
0.0
  0
LINE
  8
0
  6
CONTINUOUS
 62
     7
  5
143
 10
2.992126
 20
-1.384342
 30
0.0
 11
3.300787
 21
-1.384342
 31
0.0
  0
LINE
  8
0
  6
CONTINUOUS
 62
     7
  5
144
 10
3.300787
 20
-1.384342
 30
0.0
 11
3.300787
 21
-1.418787
 31
0.0
  0
LINE
  8
0
  6
CONTINUOUS
 62
     7
  5
145
 10
2.951181
 20
-1.418787
 30
0.0
 11
2.64252
 21
-1.418787
 31
0.0
  0
LINE
  8
0
  6
CONTINUOUS
 62
     7
  5
146
 10
2.64252
 20
-1.418787
 30
0.0
 11
2.64252
 21
-1.384342
 31
0.0
  0
LINE
  8
0
  6
CONTINUOUS
 62
     7
  5
147
 10
2.64252
 20
-1.384342
 30
0.0
 11
2.951181
 21
-1.384342
 31
0.0
  0
LINE
  8
0
  6
CONTINUOUS
 62
     7
  5
148
 10
2.951181
 20
-1.384342
 30
0.0
 11
2.951181
 21
-1.418787
 31
0.0
  0
LINE
  8
0
  6
CONTINUOUS
 62
     7
  5
149
 10
2.601575
 20
-1.418787
 30
0.0
 11
2.292913
 21
-1.418787
 31
0.0
  0
LINE
  8
0
  6
CONTINUOUS
 62
     7
  5
14A
 10
2.292913
 20
-1.418787
 30
0.0
 11
2.292913
 21
-1.384342
 31
0.0
  0
LINE
  8
0
  6
CONTINUOUS
 62
     7
  5
14B
 10
2.292913
 20
-1.384342
 30
0.0
 11
2.601575
 21
-1.384342
 31
0.0
  0
LINE
  8
0
  6
CONTINUOUS
 62
     7
  5
14C
 10
2.601575
 20
-1.384342
 30
0.0
 11
2.601575
 21
-1.418787
 31
0.0
  0
LINE
  8
0
  6
CONTINUOUS
 62
     7
  5
14D
 10
2.251969
 20
-1.418787
 30
0.0
 11
1.943307
 21
-1.418787
 31
0.0
  0
LINE
  8
0
  6
CONTINUOUS
 62
     7
  5
14E
 10
1.943307
 20
-1.418787
 30
0.0
 11
1.943307
 21
-1.384342
 31
0.0
  0
LINE
  8
0
  6
CONTINUOUS
 62
     7
  5
14F
 10
1.943307
 20
-1.384342
 30
0.0
 11
2.251969
 21
-1.384342
 31
0.0
  0
LINE
  8
0
  6
CONTINUOUS
 62
     7
  5
150
 10
2.251969
 20
-1.384342
 30
0.0
 11
2.251969
 21
-1.418787
 31
0.0
  0
LINE
  8
0
  6
CONTINUOUS
 62
     7
  5
151
 10
1.902362
 20
-1.418787
 30
0.0
 11
1.593701
 21
-1.418787
 31
0.0
  0
LINE
  8
0
  6
CONTINUOUS
 62
     7
  5
152
 10
1.593701
 20
-1.418787
 30
0.0
 11
1.593701
 21
-1.384342
 31
0.0
  0
LINE
  8
0
  6
CONTINUOUS
 62
     7
  5
153
 10
1.593701
 20
-1.384342
 30
0.0
 11
1.902362
 21
-1.384342
 31
0.0
  0
LINE
  8
0
  6
CONTINUOUS
 62
     7
  5
154
 10
1.902362
 20
-1.384342
 30
0.0
 11
1.902362
 21
-1.418787
 31
0.0
  0
LINE
  8
0
  6
CONTINUOUS
 62
     7
  5
155
 10
1.552756
 20
-1.418787
 30
0.0
 11
1.244094
 21
-1.418787
 31
0.0
  0
LINE
  8
0
  6
CONTINUOUS
 62
     7
  5
156
 10
1.244094
 20
-1.418787
 30
0.0
 11
1.244094
 21
-1.384342
 31
0.0
  0
LINE
  8
0
  6
CONTINUOUS
 62
     7
  5
157
 10
1.244094
 20
-1.384342
 30
0.0
 11
1.552756
 21
-1.384342
 31
0.0
  0
LINE
  8
0
  6
CONTINUOUS
 62
     7
  5
158
 10
1.552756
 20
-1.384342
 30
0.0
 11
1.552756
 21
-1.418787
 31
0.0
  0
LINE
  8
0
  6
CONTINUOUS
 62
     7
  5
159
 10
1.20315
 20
-1.418787
 30
0.0
 11
0.894488
 21
-1.418787
 31
0.0
  0
LINE
  8
0
  6
CONTINUOUS
 62
     7
  5
15A
 10
0.894488
 20
-1.418787
 30
0.0
 11
0.894488
 21
-1.384342
 31
0.0
  0
LINE
  8
0
  6
CONTINUOUS
 62
     7
  5
15B
 10
0.894488
 20
-1.384342
 30
0.0
 11
1.20315
 21
-1.384342
 31
0.0
  0
LINE
  8
0
  6
CONTINUOUS
 62
     7
  5
15C
 10
1.20315
 20
-1.384342
 30
0.0
 11
1.20315
 21
-1.418787
 31
0.0
  0
LINE
  8
0
  6
CONTINUOUS
 62
     7
  5
15D
 10
0.853543
 20
-1.418787
 30
0.0
 11
0.544882
 21
-1.418787
 31
0.0
  0
LINE
  8
0
  6
CONTINUOUS
 62
     7
  5
15E
 10
0.544882
 20
-1.418787
 30
0.0
 11
0.544882
 21
-1.384342
 31
0.0
  0
LINE
  8
0
  6
CONTINUOUS
 62
     7
  5
15F
 10
0.544882
 20
-1.384342
 30
0.0
 11
0.853543
 21
-1.384342
 31
0.0
  0
LINE
  8
0
  6
CONTINUOUS
 62
     7
  5
160
 10
0.853543
 20
-1.384342
 30
0.0
 11
0.853543
 21
-1.418787
 31
0.0
  0
LINE
  8
0
  6
CONTINUOUS
 62
     7
  5
161
 10
0.503937
 20
-1.418787
 30
0.0
 11
0.195276
 21
-1.418787
 31
0.0
  0
LINE
  8
0
  6
CONTINUOUS
 62
     7
  5
162
 10
0.195276
 20
-1.418787
 30
0.0
 11
0.195276
 21
-1.384342
 31
0.0
  0
LINE
  8
0
  6
CONTINUOUS
 62
     7
  5
163
 10
0.195276
 20
-1.384342
 30
0.0
 11
0.503937
 21
-1.384342
 31
0.0
  0
LINE
  8
0
  6
CONTINUOUS
 62
     7
  5
164
 10
0.503937
 20
-1.384342
 30
0.0
 11
0.503937
 21
-1.418787
 31
0.0
  0
LINE
  8
0
  6
CONTINUOUS
 62
     7
  5
165
 10
0.154331
 20
-1.418787
 30
0.0
 11
-0.154331
 21
-1.418787
 31
0.0
  0
LINE
  8
0
  6
CONTINUOUS
 62
     7
  5
166
 10
-0.154331
 20
-1.418787
 30
0.0
 11
-0.154331
 21
-1.384342
 31
0.0
  0
LINE
  8
0
  6
CONTINUOUS
 62
     7
  5
167
 10
-0.154331
 20
-1.384342
 30
0.0
 11
0.154331
 21
-1.384342
 31
0.0
  0
LINE
  8
0
  6
CONTINUOUS
 62
     7
  5
168
 10
0.154331
 20
-1.384342
 30
0.0
 11
0.154331
 21
-1.418787
 31
0.0
  0
LINE
  8
0
  6
CONTINUOUS
 62
     7
  5
169
 10
-0.195276
 20
-1.418787
 30
0.0
 11
-0.503937
 21
-1.418787
 31
0.0
  0
LINE
  8
0
  6
CONTINUOUS
 62
     7
  5
16A
 10
-0.503937
 20
-1.418787
 30
0.0
 11
-0.503937
 21
-1.384342
 31
0.0
  0
LINE
  8
0
  6
CONTINUOUS
 62
     7
  5
16B
 10
-0.503937
 20
-1.384342
 30
0.0
 11
-0.195276
 21
-1.384342
 31
0.0
  0
LINE
  8
0
  6
CONTINUOUS
 62
     7
  5
16C
 10
-0.195276
 20
-1.384342
 30
0.0
 11
-0.195276
 21
-1.418787
 31
0.0
  0
LINE
  8
0
  6
CONTINUOUS
 62
     7
  5
16D
 10
-0.544882
 20
-1.418787
 30
0.0
 11
-0.853543
 21
-1.418787
 31
0.0
  0
LINE
  8
0
  6
CONTINUOUS
 62
     7
  5
16E
 10
-0.853543
 20
-1.418787
 30
0.0
 11
-0.853543
 21
-1.384342
 31
0.0
  0
LINE
  8
0
  6
CONTINUOUS
 62
     7
  5
16F
 10
-0.853543
 20
-1.384342
 30
0.0
 11
-0.544882
 21
-1.384342
 31
0.0
  0
LINE
  8
0
  6
CONTINUOUS
 62
     7
  5
170
 10
-0.544882
 20
-1.384342
 30
0.0
 11
-0.544882
 21
-1.418787
 31
0.0
  0
LINE
  8
0
  6
CONTINUOUS
 62
     7
  5
171
 10
-0.894488
 20
-1.418787
 30
0.0
 11
-1.20315
 21
-1.418787
 31
0.0
  0
LINE
  8
0
  6
CONTINUOUS
 62
     7
  5
172
 10
-1.20315
 20
-1.418787
 30
0.0
 11
-1.20315
 21
-1.384342
 31
0.0
  0
LINE
  8
0
  6
CONTINUOUS
 62
     7
  5
173
 10
-1.20315
 20
-1.384342
 30
0.0
 11
-0.894488
 21
-1.384342
 31
0.0
  0
LINE
  8
0
  6
CONTINUOUS
 62
     7
  5
174
 10
-0.894488
 20
-1.384342
 30
0.0
 11
-0.894488
 21
-1.418787
 31
0.0
  0
LINE
  8
0
  6
CONTINUOUS
 62
     7
  5
175
 10
-1.244094
 20
-1.418787
 30
0.0
 11
-1.552756
 21
-1.418787
 31
0.0
  0
LINE
  8
0
  6
CONTINUOUS
 62
     7
  5
176
 10
-1.552756
 20
-1.418787
 30
0.0
 11
-1.552756
 21
-1.384342
 31
0.0
  0
LINE
  8
0
  6
CONTINUOUS
 62
     7
  5
177
 10
-1.552756
 20
-1.384342
 30
0.0
 11
-1.244094
 21
-1.384342
 31
0.0
  0
LINE
  8
0
  6
CONTINUOUS
 62
     7
  5
178
 10
-1.244094
 20
-1.384342
 30
0.0
 11
-1.244094
 21
-1.418787
 31
0.0
  0
LINE
  8
0
  6
CONTINUOUS
 62
     7
  5
179
 10
-1.593701
 20
-1.418787
 30
0.0
 11
-1.902362
 21
-1.418787
 31
0.0
  0
LINE
  8
0
  6
CONTINUOUS
 62
     7
  5
17A
 10
-1.902362
 20
-1.418787
 30
0.0
 11
-1.902362
 21
-1.384342
 31
0.0
  0
LINE
  8
0
  6
CONTINUOUS
 62
     7
  5
17B
 10
-1.902362
 20
-1.384342
 30
0.0
 11
-1.593701
 21
-1.384342
 31
0.0
  0
LINE
  8
0
  6
CONTINUOUS
 62
     7
  5
17C
 10
-1.593701
 20
-1.384342
 30
0.0
 11
-1.593701
 21
-1.418787
 31
0.0
  0
LINE
  8
0
  6
CONTINUOUS
 62
     7
  5
17D
 10
-1.943307
 20
-1.418787
 30
0.0
 11
-2.251969
 21
-1.418787
 31
0.0
  0
LINE
  8
0
  6
CONTINUOUS
 62
     7
  5
17E
 10
-2.251969
 20
-1.418787
 30
0.0
 11
-2.251969
 21
-1.384342
 31
0.0
  0
LINE
  8
0
  6
CONTINUOUS
 62
     7
  5
17F
 10
-2.251969
 20
-1.384342
 30
0.0
 11
-1.943307
 21
-1.384342
 31
0.0
  0
LINE
  8
0
  6
CONTINUOUS
 62
     7
  5
180
 10
-1.943307
 20
-1.384342
 30
0.0
 11
-1.943307
 21
-1.418787
 31
0.0
  0
LINE
  8
0
  6
CONTINUOUS
 62
     7
  5
181
 10
-2.292913
 20
-1.418787
 30
0.0
 11
-2.601575
 21
-1.418787
 31
0.0
  0
LINE
  8
0
  6
CONTINUOUS
 62
     7
  5
182
 10
-2.601575
 20
-1.418787
 30
0.0
 11
-2.601575
 21
-1.384342
 31
0.0
  0
LINE
  8
0
  6
CONTINUOUS
 62
     7
  5
183
 10
-2.601575
 20
-1.384342
 30
0.0
 11
-2.292913
 21
-1.384342
 31
0.0
  0
LINE
  8
0
  6
CONTINUOUS
 62
     7
  5
184
 10
-2.292913
 20
-1.384342
 30
0.0
 11
-2.292913
 21
-1.418787
 31
0.0
  0
LINE
  8
0
  6
CONTINUOUS
 62
     7
  5
185
 10
-2.64252
 20
-1.418787
 30
0.0
 11
-2.951181
 21
-1.418787
 31
0.0
  0
LINE
  8
0
  6
CONTINUOUS
 62
     7
  5
186
 10
-2.951181
 20
-1.418787
 30
0.0
 11
-2.951181
 21
-1.384342
 31
0.0
  0
LINE
  8
0
  6
CONTINUOUS
 62
     7
  5
187
 10
-2.951181
 20
-1.384342
 30
0.0
 11
-2.64252
 21
-1.384342
 31
0.0
  0
LINE
  8
0
  6
CONTINUOUS
 62
     7
  5
188
 10
-2.64252
 20
-1.384342
 30
0.0
 11
-2.64252
 21
-1.418787
 31
0.0
  0
LINE
  8
0
  6
CONTINUOUS
 62
     7
  5
189
 10
-2.992126
 20
-1.418787
 30
0.0
 11
-3.300787
 21
-1.418787
 31
0.0
  0
LINE
  8
0
  6
CONTINUOUS
 62
     7
  5
18A
 10
-3.300787
 20
-1.418787
 30
0.0
 11
-3.300787
 21
-1.384342
 31
0.0
  0
LINE
  8
0
  6
CONTINUOUS
 62
     7
  5
18B
 10
-3.300787
 20
-1.384342
 30
0.0
 11
-2.992126
 21
-1.384342
 31
0.0
  0
LINE
  8
0
  6
CONTINUOUS
 62
     7
  5
18C
 10
-2.992126
 20
-1.384342
 30
0.0
 11
-2.992126
 21
-1.418787
 31
0.0
  0
LINE
  8
0
  6
CONTINUOUS
 62
     7
  5
18D
 10
-3.341732
 20
-1.418787
 30
0.0
 11
-3.650394
 21
-1.418787
 31
0.0
  0
LINE
  8
0
  6
CONTINUOUS
 62
     7
  5
18E
 10
-3.650394
 20
-1.418787
 30
0.0
 11
-3.650394
 21
-1.384342
 31
0.0
  0
LINE
  8
0
  6
CONTINUOUS
 62
     7
  5
18F
 10
-3.650394
 20
-1.384342
 30
0.0
 11
-3.341732
 21
-1.384342
 31
0.0
  0
LINE
  8
0
  6
CONTINUOUS
 62
     7
  5
190
 10
-3.341732
 20
-1.384342
 30
0.0
 11
-3.341732
 21
-1.418787
 31
0.0
  0
LINE
  8
0
  6
CONTINUOUS
 62
     7
  5
191
 10
3.341732
 20
1.418787
 30
0.0
 11
3.650394
 21
1.418787
 31
0.0
  0
LINE
  8
0
  6
CONTINUOUS
 62
     7
  5
192
 10
3.650394
 20
1.418787
 30
0.0
 11
3.650394
 21
1.384342
 31
0.0
  0
LINE
  8
0
  6
CONTINUOUS
 62
     7
  5
193
 10
3.650394
 20
1.384342
 30
0.0
 11
3.341732
 21
1.384342
 31
0.0
  0
LINE
  8
0
  6
CONTINUOUS
 62
     7
  5
194
 10
3.341732
 20
1.384342
 30
0.0
 11
3.341732
 21
1.418787
 31
0.0
  0
LINE
  8
0
  6
CONTINUOUS
 62
     7
  5
195
 10
2.992126
 20
1.418787
 30
0.0
 11
3.300787
 21
1.418787
 31
0.0
  0
LINE
  8
0
  6
CONTINUOUS
 62
     7
  5
196
 10
3.300787
 20
1.418787
 30
0.0
 11
3.300787
 21
1.384342
 31
0.0
  0
LINE
  8
0
  6
CONTINUOUS
 62
     7
  5
197
 10
3.300787
 20
1.384342
 30
0.0
 11
2.992126
 21
1.384342
 31
0.0
  0
LINE
  8
0
  6
CONTINUOUS
 62
     7
  5
198
 10
2.992126
 20
1.384342
 30
0.0
 11
2.992126
 21
1.418787
 31
0.0
  0
LINE
  8
0
  6
CONTINUOUS
 62
     7
  5
199
 10
2.64252
 20
1.418787
 30
0.0
 11
2.951181
 21
1.418787
 31
0.0
  0
LINE
  8
0
  6
CONTINUOUS
 62
     7
  5
19A
 10
2.951181
 20
1.418787
 30
0.0
 11
2.951181
 21
1.384342
 31
0.0
  0
LINE
  8
0
  6
CONTINUOUS
 62
     7
  5
19B
 10
2.951181
 20
1.384342
 30
0.0
 11
2.64252
 21
1.384342
 31
0.0
  0
LINE
  8
0
  6
CONTINUOUS
 62
     7
  5
19C
 10
2.64252
 20
1.384342
 30
0.0
 11
2.64252
 21
1.418787
 31
0.0
  0
LINE
  8
0
  6
CONTINUOUS
 62
     7
  5
19D
 10
2.292913
 20
1.418787
 30
0.0
 11
2.601575
 21
1.418787
 31
0.0
  0
LINE
  8
0
  6
CONTINUOUS
 62
     7
  5
19E
 10
2.601575
 20
1.418787
 30
0.0
 11
2.601575
 21
1.384342
 31
0.0
  0
LINE
  8
0
  6
CONTINUOUS
 62
     7
  5
19F
 10
2.601575
 20
1.384342
 30
0.0
 11
2.292913
 21
1.384342
 31
0.0
  0
LINE
  8
0
  6
CONTINUOUS
 62
     7
  5
1A0
 10
2.292913
 20
1.384342
 30
0.0
 11
2.292913
 21
1.418787
 31
0.0
  0
LINE
  8
0
  6
CONTINUOUS
 62
     7
  5
1A1
 10
1.943307
 20
1.418787
 30
0.0
 11
2.251969
 21
1.418787
 31
0.0
  0
LINE
  8
0
  6
CONTINUOUS
 62
     7
  5
1A2
 10
2.251969
 20
1.418787
 30
0.0
 11
2.251969
 21
1.384342
 31
0.0
  0
LINE
  8
0
  6
CONTINUOUS
 62
     7
  5
1A3
 10
2.251969
 20
1.384342
 30
0.0
 11
1.943307
 21
1.384342
 31
0.0
  0
LINE
  8
0
  6
CONTINUOUS
 62
     7
  5
1A4
 10
1.943307
 20
1.384342
 30
0.0
 11
1.943307
 21
1.418787
 31
0.0
  0
LINE
  8
0
  6
CONTINUOUS
 62
     7
  5
1A5
 10
1.593701
 20
1.418787
 30
0.0
 11
1.902362
 21
1.418787
 31
0.0
  0
LINE
  8
0
  6
CONTINUOUS
 62
     7
  5
1A6
 10
1.902362
 20
1.418787
 30
0.0
 11
1.902362
 21
1.384342
 31
0.0
  0
LINE
  8
0
  6
CONTINUOUS
 62
     7
  5
1A7
 10
1.902362
 20
1.384342
 30
0.0
 11
1.593701
 21
1.384342
 31
0.0
  0
LINE
  8
0
  6
CONTINUOUS
 62
     7
  5
1A8
 10
1.593701
 20
1.384342
 30
0.0
 11
1.593701
 21
1.418787
 31
0.0
  0
LINE
  8
0
  6
CONTINUOUS
 62
     7
  5
1A9
 10
1.244094
 20
1.418787
 30
0.0
 11
1.552756
 21
1.418787
 31
0.0
  0
LINE
  8
0
  6
CONTINUOUS
 62
     7
  5
1AA
 10
1.552756
 20
1.418787
 30
0.0
 11
1.552756
 21
1.384342
 31
0.0
  0
LINE
  8
0
  6
CONTINUOUS
 62
     7
  5
1AB
 10
1.552756
 20
1.384342
 30
0.0
 11
1.244094
 21
1.384342
 31
0.0
  0
LINE
  8
0
  6
CONTINUOUS
 62
     7
  5
1AC
 10
1.244094
 20
1.384342
 30
0.0
 11
1.244094
 21
1.418787
 31
0.0
  0
LINE
  8
0
  6
CONTINUOUS
 62
     7
  5
1AD
 10
0.894488
 20
1.418787
 30
0.0
 11
1.20315
 21
1.418787
 31
0.0
  0
LINE
  8
0
  6
CONTINUOUS
 62
     7
  5
1AE
 10
1.20315
 20
1.418787
 30
0.0
 11
1.20315
 21
1.384342
 31
0.0
  0
LINE
  8
0
  6
CONTINUOUS
 62
     7
  5
1AF
 10
1.20315
 20
1.384342
 30
0.0
 11
0.894488
 21
1.384342
 31
0.0
  0
LINE
  8
0
  6
CONTINUOUS
 62
     7
  5
1B0
 10
0.894488
 20
1.384342
 30
0.0
 11
0.894488
 21
1.418787
 31
0.0
  0
LINE
  8
0
  6
CONTINUOUS
 62
     7
  5
1B1
 10
0.544882
 20
1.418787
 30
0.0
 11
0.853543
 21
1.418787
 31
0.0
  0
LINE
  8
0
  6
CONTINUOUS
 62
     7
  5
1B2
 10
0.853543
 20
1.418787
 30
0.0
 11
0.853543
 21
1.384342
 31
0.0
  0
LINE
  8
0
  6
CONTINUOUS
 62
     7
  5
1B3
 10
0.853543
 20
1.384342
 30
0.0
 11
0.544882
 21
1.384342
 31
0.0
  0
LINE
  8
0
  6
CONTINUOUS
 62
     7
  5
1B4
 10
0.544882
 20
1.384342
 30
0.0
 11
0.544882
 21
1.418787
 31
0.0
  0
LINE
  8
0
  6
CONTINUOUS
 62
     7
  5
1B5
 10
0.195276
 20
1.418787
 30
0.0
 11
0.503937
 21
1.418787
 31
0.0
  0
LINE
  8
0
  6
CONTINUOUS
 62
     7
  5
1B6
 10
0.503937
 20
1.418787
 30
0.0
 11
0.503937
 21
1.384342
 31
0.0
  0
LINE
  8
0
  6
CONTINUOUS
 62
     7
  5
1B7
 10
0.503937
 20
1.384342
 30
0.0
 11
0.195276
 21
1.384342
 31
0.0
  0
LINE
  8
0
  6
CONTINUOUS
 62
     7
  5
1B8
 10
0.195276
 20
1.384342
 30
0.0
 11
0.195276
 21
1.418787
 31
0.0
  0
LINE
  8
0
  6
CONTINUOUS
 62
     7
  5
1B9
 10
-0.154331
 20
1.418787
 30
0.0
 11
0.154331
 21
1.418787
 31
0.0
  0
LINE
  8
0
  6
CONTINUOUS
 62
     7
  5
1BA
 10
0.154331
 20
1.418787
 30
0.0
 11
0.154331
 21
1.384342
 31
0.0
  0
LINE
  8
0
  6
CONTINUOUS
 62
     7
  5
1BB
 10
0.154331
 20
1.384342
 30
0.0
 11
-0.154331
 21
1.384342
 31
0.0
  0
LINE
  8
0
  6
CONTINUOUS
 62
     7
  5
1BC
 10
-0.154331
 20
1.384342
 30
0.0
 11
-0.154331
 21
1.418787
 31
0.0
  0
LINE
  8
0
  6
CONTINUOUS
 62
     7
  5
1BD
 10
-0.503937
 20
1.418787
 30
0.0
 11
-0.195276
 21
1.418787
 31
0.0
  0
LINE
  8
0
  6
CONTINUOUS
 62
     7
  5
1BE
 10
-0.195276
 20
1.418787
 30
0.0
 11
-0.195276
 21
1.384342
 31
0.0
  0
LINE
  8
0
  6
CONTINUOUS
 62
     7
  5
1BF
 10
-0.195276
 20
1.384342
 30
0.0
 11
-0.503937
 21
1.384342
 31
0.0
  0
LINE
  8
0
  6
CONTINUOUS
 62
     7
  5
1C0
 10
-0.503937
 20
1.384342
 30
0.0
 11
-0.503937
 21
1.418787
 31
0.0
  0
LINE
  8
0
  6
CONTINUOUS
 62
     7
  5
1C1
 10
-0.853543
 20
1.418787
 30
0.0
 11
-0.544882
 21
1.418787
 31
0.0
  0
LINE
  8
0
  6
CONTINUOUS
 62
     7
  5
1C2
 10
-0.544882
 20
1.418787
 30
0.0
 11
-0.544882
 21
1.384342
 31
0.0
  0
LINE
  8
0
  6
CONTINUOUS
 62
     7
  5
1C3
 10
-0.544882
 20
1.384342
 30
0.0
 11
-0.853543
 21
1.384342
 31
0.0
  0
LINE
  8
0
  6
CONTINUOUS
 62
     7
  5
1C4
 10
-0.853543
 20
1.384342
 30
0.0
 11
-0.853543
 21
1.418787
 31
0.0
  0
LINE
  8
0
  6
CONTINUOUS
 62
     7
  5
1C5
 10
-1.20315
 20
1.418787
 30
0.0
 11
-0.894488
 21
1.418787
 31
0.0
  0
LINE
  8
0
  6
CONTINUOUS
 62
     7
  5
1C6
 10
-0.894488
 20
1.418787
 30
0.0
 11
-0.894488
 21
1.384342
 31
0.0
  0
LINE
  8
0
  6
CONTINUOUS
 62
     7
  5
1C7
 10
-0.894488
 20
1.384342
 30
0.0
 11
-1.20315
 21
1.384342
 31
0.0
  0
LINE
  8
0
  6
CONTINUOUS
 62
     7
  5
1C8
 10
-1.20315
 20
1.384342
 30
0.0
 11
-1.20315
 21
1.418787
 31
0.0
  0
LINE
  8
0
  6
CONTINUOUS
 62
     7
  5
1C9
 10
-1.552756
 20
1.418787
 30
0.0
 11
-1.244094
 21
1.418787
 31
0.0
  0
LINE
  8
0
  6
CONTINUOUS
 62
     7
  5
1CA
 10
-1.244094
 20
1.418787
 30
0.0
 11
-1.244094
 21
1.384342
 31
0.0
  0
LINE
  8
0
  6
CONTINUOUS
 62
     7
  5
1CB
 10
-1.244094
 20
1.384342
 30
0.0
 11
-1.552756
 21
1.384342
 31
0.0
  0
LINE
  8
0
  6
CONTINUOUS
 62
     7
  5
1CC
 10
-1.552756
 20
1.384342
 30
0.0
 11
-1.552756
 21
1.418787
 31
0.0
  0
LINE
  8
0
  6
CONTINUOUS
 62
     7
  5
1CD
 10
-1.902362
 20
1.418787
 30
0.0
 11
-1.593701
 21
1.418787
 31
0.0
  0
LINE
  8
0
  6
CONTINUOUS
 62
     7
  5
1CE
 10
-1.593701
 20
1.418787
 30
0.0
 11
-1.593701
 21
1.384342
 31
0.0
  0
LINE
  8
0
  6
CONTINUOUS
 62
     7
  5
1CF
 10
-1.593701
 20
1.384342
 30
0.0
 11
-1.902362
 21
1.384342
 31
0.0
  0
LINE
  8
0
  6
CONTINUOUS
 62
     7
  5
1D0
 10
-1.902362
 20
1.384342
 30
0.0
 11
-1.902362
 21
1.418787
 31
0.0
  0
LINE
  8
0
  6
CONTINUOUS
 62
     7
  5
1D1
 10
-2.251969
 20
1.418787
 30
0.0
 11
-1.943307
 21
1.418787
 31
0.0
  0
LINE
  8
0
  6
CONTINUOUS
 62
     7
  5
1D2
 10
-1.943307
 20
1.418787
 30
0.0
 11
-1.943307
 21
1.384342
 31
0.0
  0
LINE
  8
0
  6
CONTINUOUS
 62
     7
  5
1D3
 10
-1.943307
 20
1.384342
 30
0.0
 11
-2.251969
 21
1.384342
 31
0.0
  0
LINE
  8
0
  6
CONTINUOUS
 62
     7
  5
1D4
 10
-2.251969
 20
1.384342
 30
0.0
 11
-2.251969
 21
1.418787
 31
0.0
  0
LINE
  8
0
  6
CONTINUOUS
 62
     7
  5
1D5
 10
-2.601575
 20
1.418787
 30
0.0
 11
-2.292913
 21
1.418787
 31
0.0
  0
LINE
  8
0
  6
CONTINUOUS
 62
     7
  5
1D6
 10
-2.292913
 20
1.418787
 30
0.0
 11
-2.292913
 21
1.384342
 31
0.0
  0
LINE
  8
0
  6
CONTINUOUS
 62
     7
  5
1D7
 10
-2.292913
 20
1.384342
 30
0.0
 11
-2.601575
 21
1.384342
 31
0.0
  0
LINE
  8
0
  6
CONTINUOUS
 62
     7
  5
1D8
 10
-2.601575
 20
1.384342
 30
0.0
 11
-2.601575
 21
1.418787
 31
0.0
  0
LINE
  8
0
  6
CONTINUOUS
 62
     7
  5
1D9
 10
-2.951181
 20
1.418787
 30
0.0
 11
-2.64252
 21
1.418787
 31
0.0
  0
LINE
  8
0
  6
CONTINUOUS
 62
     7
  5
1DA
 10
-2.64252
 20
1.418787
 30
0.0
 11
-2.64252
 21
1.384342
 31
0.0
  0
LINE
  8
0
  6
CONTINUOUS
 62
     7
  5
1DB
 10
-2.64252
 20
1.384342
 30
0.0
 11
-2.951181
 21
1.384342
 31
0.0
  0
LINE
  8
0
  6
CONTINUOUS
 62
     7
  5
1DC
 10
-2.951181
 20
1.384342
 30
0.0
 11
-2.951181
 21
1.418787
 31
0.0
  0
LINE
  8
0
  6
CONTINUOUS
 62
     7
  5
1DD
 10
-3.300787
 20
1.418787
 30
0.0
 11
-2.992126
 21
1.418787
 31
0.0
  0
LINE
  8
0
  6
CONTINUOUS
 62
     7
  5
1DE
 10
-2.992126
 20
1.418787
 30
0.0
 11
-2.992126
 21
1.384342
 31
0.0
  0
LINE
  8
0
  6
CONTINUOUS
 62
     7
  5
1DF
 10
-2.992126
 20
1.384342
 30
0.0
 11
-3.300787
 21
1.384342
 31
0.0
  0
LINE
  8
0
  6
CONTINUOUS
 62
     7
  5
1E0
 10
-3.300787
 20
1.384342
 30
0.0
 11
-3.300787
 21
1.418787
 31
0.0
  0
LINE
  8
0
  6
CONTINUOUS
 62
     7
  5
1E1
 10
-3.650394
 20
1.418787
 30
0.0
 11
-3.341732
 21
1.418787
 31
0.0
  0
LINE
  8
0
  6
CONTINUOUS
 62
     7
  5
1E2
 10
-3.341732
 20
1.418787
 30
0.0
 11
-3.341732
 21
1.384342
 31
0.0
  0
LINE
  8
0
  6
CONTINUOUS
 62
     7
  5
1E3
 10
-3.341732
 20
1.384342
 30
0.0
 11
-3.650394
 21
1.384342
 31
0.0
  0
LINE
  8
0
  6
CONTINUOUS
 62
     7
  5
1E4
 10
-3.650394
 20
1.384342
 30
0.0
 11
-3.650394
 21
1.418787
 31
0.0
  0
CIRCLE
  8
0
  6
CONTINUOUS
 62
     7
  5
1E5
 10
3.79626
 20
-0.940551
 30
0.0
 40
0.090945
  0
CIRCLE
  8
0
  6
CONTINUOUS
 62
     7
  5
1E6
 10
3.79626
 20
0.940551
 30
0.0
 40
0.090945
  0
CIRCLE
  8
0
  6
CONTINUOUS
 62
     7
  5
1E7
 10
-3.79626
 20
-0.940551
 30
0.0
 40
0.090945
  0
CIRCLE
  8
0
  6
CONTINUOUS
 62
     7
  5
1E8
 10
-3.79626
 20
0.940551
 30
0.0
 40
0.090945
  0
CIRCLE
  8
0
  6
CONTINUOUS
 62
     7
  5
1E9
 10
3.496063
 20
1.040945
 30
0.0
 40
0.108858
  0
CIRCLE
  8
0
  6
CONTINUOUS
 62
     7
  5
1EA
 10
3.146457
 20
1.040945
 30
0.0
 40
0.108858
  0
CIRCLE
  8
0
  6
CONTINUOUS
 62
     7
  5
1EB
 10
2.79685
 20
1.040945
 30
0.0
 40
0.108858
  0
CIRCLE
  8
0
  6
CONTINUOUS
 62
     7
  5
1EC
 10
2.447244
 20
1.040945
 30
0.0
 40
0.108858
  0
CIRCLE
  8
0
  6
CONTINUOUS
 62
     7
  5
1ED
 10
2.097638
 20
1.040945
 30
0.0
 40
0.108858
  0
CIRCLE
  8
0
  6
CONTINUOUS
 62
     7
  5
1EE
 10
1.748031
 20
1.040945
 30
0.0
 40
0.108858
  0
CIRCLE
  8
0
  6
CONTINUOUS
 62
     7
  5
1EF
 10
1.398425
 20
1.040945
 30
0.0
 40
0.108858
  0
CIRCLE
  8
0
  6
CONTINUOUS
 62
     7
  5
1F0
 10
1.048819
 20
1.040945
 30
0.0
 40
0.108858
  0
CIRCLE
  8
0
  6
CONTINUOUS
 62
     7
  5
1F1
 10
0.699213
 20
1.040945
 30
0.0
 40
0.108858
  0
CIRCLE
  8
0
  6
CONTINUOUS
 62
     7
  5
1F2
 10
0.349606
 20
1.040945
 30
0.0
 40
0.108858
  0
CIRCLE
  8
0
  6
CONTINUOUS
 62
     7
  5
1F3
 10
0.0
 20
1.040945
 30
0.0
 40
0.108858
  0
CIRCLE
  8
0
  6
CONTINUOUS
 62
     7
  5
1F4
 10
-0.349606
 20
1.040945
 30
0.0
 40
0.108858
  0
CIRCLE
  8
0
  6
CONTINUOUS
 62
     7
  5
1F5
 10
-0.699213
 20
1.040945
 30
0.0
 40
0.108858
  0
CIRCLE
  8
0
  6
CONTINUOUS
 62
     7
  5
1F6
 10
-1.048819
 20
1.040945
 30
0.0
 40
0.108858
  0
CIRCLE
  8
0
  6
CONTINUOUS
 62
     7
  5
1F7
 10
-1.398425
 20
1.040945
 30
0.0
 40
0.108858
  0
CIRCLE
  8
0
  6
CONTINUOUS
 62
     7
  5
1F8
 10
-1.748031
 20
1.040945
 30
0.0
 40
0.108858
  0
CIRCLE
  8
0
  6
CONTINUOUS
 62
     7
  5
1F9
 10
-2.097638
 20
1.040945
 30
0.0
 40
0.108858
  0
CIRCLE
  8
0
  6
CONTINUOUS
 62
     7
  5
1FA
 10
-2.447244
 20
1.040945
 30
0.0
 40
0.108858
  0
CIRCLE
  8
0
  6
CONTINUOUS
 62
     7
  5
1FB
 10
-2.79685
 20
1.040945
 30
0.0
 40
0.108858
  0
CIRCLE
  8
0
  6
CONTINUOUS
 62
     7
  5
1FC
 10
-3.146457
 20
1.040945
 30
0.0
 40
0.108858
  0
CIRCLE
  8
0
  6
CONTINUOUS
 62
     7
  5
1FD
 10
-3.496063
 20
1.040945
 30
0.0
 40
0.108858
  0
CIRCLE
  8
0
  6
CONTINUOUS
 62
     7
  5
1FE
 10
3.496063
 20
-1.040945
 30
0.0
 40
0.108858
  0
CIRCLE
  8
0
  6
CONTINUOUS
 62
     7
  5
1FF
 10
3.146457
 20
-1.040945
 30
0.0
 40
0.108858
  0
CIRCLE
  8
0
  6
CONTINUOUS
 62
     7
  5
200
 10
2.79685
 20
-1.040945
 30
0.0
 40
0.108858
  0
CIRCLE
  8
0
  6
CONTINUOUS
 62
     7
  5
201
 10
2.447244
 20
-1.040945
 30
0.0
 40
0.108858
  0
CIRCLE
  8
0
  6
CONTINUOUS
 62
     7
  5
202
 10
2.097638
 20
-1.040945
 30
0.0
 40
0.108858
  0
CIRCLE
  8
0
  6
CONTINUOUS
 62
     7
  5
203
 10
1.748031
 20
-1.040945
 30
0.0
 40
0.108858
  0
CIRCLE
  8
0
  6
CONTINUOUS
 62
     7
  5
204
 10
1.398425
 20
-1.040945
 30
0.0
 40
0.108858
  0
CIRCLE
  8
0
  6
CONTINUOUS
 62
     7
  5
205
 10
1.048819
 20
-1.040945
 30
0.0
 40
0.108858
  0
CIRCLE
  8
0
  6
CONTINUOUS
 62
     7
  5
206
 10
0.699213
 20
-1.040945
 30
0.0
 40
0.108858
  0
CIRCLE
  8
0
  6
CONTINUOUS
 62
     7
  5
207
 10
0.349606
 20
-1.040945
 30
0.0
 40
0.108858
  0
CIRCLE
  8
0
  6
CONTINUOUS
 62
     7
  5
208
 10
0.0
 20
-1.040945
 30
0.0
 40
0.108858
  0
CIRCLE
  8
0
  6
CONTINUOUS
 62
     7
  5
209
 10
-0.349606
 20
-1.040945
 30
0.0
 40
0.108858
  0
CIRCLE
  8
0
  6
CONTINUOUS
 62
     7
  5
20A
 10
-0.699213
 20
-1.040945
 30
0.0
 40
0.108858
  0
CIRCLE
  8
0
  6
CONTINUOUS
 62
     7
  5
20B
 10
-1.048819
 20
-1.040945
 30
0.0
 40
0.108858
  0
CIRCLE
  8
0
  6
CONTINUOUS
 62
     7
  5
20C
 10
-1.398425
 20
-1.040945
 30
0.0
 40
0.108858
  0
CIRCLE
  8
0
  6
CONTINUOUS
 62
     7
  5
20D
 10
-1.748031
 20
-1.040945
 30
0.0
 40
0.108858
  0
CIRCLE
  8
0
  6
CONTINUOUS
 62
     7
  5
20E
 10
-2.097638
 20
-1.040945
 30
0.0
 40
0.108858
  0
CIRCLE
  8
0
  6
CONTINUOUS
 62
     7
  5
20F
 10
-2.447244
 20
-1.040945
 30
0.0
 40
0.108858
  0
CIRCLE
  8
0
  6
CONTINUOUS
 62
     7
  5
210
 10
-2.79685
 20
-1.040945
 30
0.0
 40
0.108858
  0
CIRCLE
  8
0
  6
CONTINUOUS
 62
     7
  5
211
 10
-3.146457
 20
-1.040945
 30
0.0
 40
0.108858
  0
CIRCLE
  8
0
  6
CONTINUOUS
 62
     7
  5
212
 10
-3.496063
 20
-1.040945
 30
0.0
 40
0.108858
  0
LINE
  8
0
  6
CONTINUOUS
 62
     7
  5
213
 10
-3.936008
 20
1.376304
 30
0.0
 11
3.936008
 21
1.376304
 31
0.0
  0
LINE
  8
0
  6
CONTINUOUS
 62
     7
  5
214
 10
-3.936008
 20
1.376304
 30
0.0
 11
-3.936008
 21
1.371374
 31
0.0
  0
LINE
  8
0
  6
CONTINUOUS
 62
     7
  5
215
 10
3.936008
 20
1.371374
 30
0.0
 11
-3.936008
 21
1.371374
 31
0.0
  0
LINE
  8
0
  6
CONTINUOUS
 62
     7
  5
216
 10
3.936008
 20
1.371374
 30
0.0
 11
3.936008
 21
1.376304
 31
0.0
  0
LINE
  8
0
  6
CONTINUOUS
 62
     7
  5
217
 10
-3.936008
 20
1.371374
 30
0.0
 11
-3.936008
 21
0.668701
 31
0.0
  0
LINE
  8
0
  6
CONTINUOUS
 62
     7
  5
218
 10
3.936008
 20
0.668701
 30
0.0
 11
3.936008
 21
1.371374
 31
0.0
  0
LINE
  8
0
  6
CONTINUOUS
 62
     7
  5
219
 10
3.937008
 20
1.377304
 30
0.0
 11
3.937008
 21
0.668701
 31
0.0
  0
LINE
  8
0
  6
CONTINUOUS
 62
     7
  5
21A
 10
-3.937008
 20
1.377304
 30
0.0
 11
3.937008
 21
1.377304
 31
0.0
  0
LINE
  8
0
  6
CONTINUOUS
 62
     7
  5
21B
 10
-3.937008
 20
0.668701
 30
0.0
 11
-3.937008
 21
1.377304
 31
0.0
  0
LINE
  8
0
  6
CONTINUOUS
 62
     7
  5
21C
 10
3.936008
 20
-1.371374
 30
0.0
 11
3.936008
 21
-0.668701
 31
0.0
  0
LINE
  8
0
  6
CONTINUOUS
 62
     7
  5
21D
 10
3.936008
 20
-1.376304
 30
0.0
 11
3.936008
 21
-1.371374
 31
0.0
  0
LINE
  8
0
  6
CONTINUOUS
 62
     7
  5
21E
 10
3.936008
 20
-1.376304
 30
0.0
 11
-3.936008
 21
-1.376304
 31
0.0
  0
LINE
  8
0
  6
CONTINUOUS
 62
     7
  5
21F
 10
-3.936008
 20
-1.371374
 30
0.0
 11
3.936008
 21
-1.371374
 31
0.0
  0
LINE
  8
0
  6
CONTINUOUS
 62
     7
  5
220
 10
-3.936008
 20
-1.371374
 30
0.0
 11
-3.936008
 21
-1.376304
 31
0.0
  0
LINE
  8
0
  6
CONTINUOUS
 62
     7
  5
221
 10
-3.936008
 20
-0.668701
 30
0.0
 11
-3.936008
 21
-1.371374
 31
0.0
  0
LINE
  8
0
  6
CONTINUOUS
 62
     7
  5
222
 10
-3.937008
 20
-1.377304
 30
0.0
 11
-3.937008
 21
-0.668701
 31
0.0
  0
LINE
  8
0
  6
CONTINUOUS
 62
     7
  5
223
 10
3.937008
 20
-1.377304
 30
0.0
 11
-3.937008
 21
-1.377304
 31
0.0
  0
LINE
  8
0
  6
CONTINUOUS
 62
     7
  5
224
 10
3.937008
 20
-0.668701
 30
0.0
 11
3.937008
 21
-1.377304
 31
0.0
  0
LINE
  8
0
  6
CONTINUOUS
 62
     7
  5
225
 10
-3.937008
 20
-0.668701
 30
0.0
 11
3.937008
 21
-0.668701
 31
0.0
  0
LINE
  8
0
  6
CONTINUOUS
 62
     7
  5
226
 10
-3.937008
 20
-0.668701
 30
0.0
 11
-3.937008
 21
0.668701
 31
0.0
  0
LINE
  8
0
  6
CONTINUOUS
 62
     7
  5
227
 10
-3.937008
 20
1.377304
 30
0.0
 11
-3.937008
 21
1.437008
 31
0.0
  0
LINE
  8
0
  6
CONTINUOUS
 62
     7
  5
228
 10
-3.937008
 20
-1.377304
 30
0.0
 11
-3.937008
 21
-1.437008
 31
0.0
  0
LINE
  8
0
  6
CONTINUOUS
 62
     7
  5
229
 10
3.937008
 20
-1.437008
 30
0.0
 11
3.937008
 21
-1.377304
 31
0.0
  0
LINE
  8
0
  6
CONTINUOUS
 62
     7
  5
22A
 10
3.937008
 20
1.377304
 30
0.0
 11
3.937008
 21
1.437008
 31
0.0
  0
LINE
  8
0
  6
CONTINUOUS
 62
     7
  5
22B
 10
3.937008
 20
-0.668701
 30
0.0
 11
3.937008
 21
0.668701
 31
0.0
  0
LINE
  8
0
  6
CONTINUOUS
 62
     7
  5
22C
 10
3.937008
 20
0.668701
 30
0.0
 11
-3.937008
 21
0.668701
 31
0.0
  0
LINE
  8
0
  6
CONTINUOUS
 62
     7
  5
22D
 10
-3.937008
 20
1.437008
 30
0.0
 11
3.937008
 21
1.437008
 31
0.0
  0
LINE
  8
0
  6
CONTINUOUS
 62
     7
  5
22E
 10
-3.937008
 20
-1.437008
 30
0.0
 11
3.937008
 21
-1.437008
 31
0.0
  0
ENDSEC
  0
EOF
