999
DXF file: C:\Users\sesa63760\Dev\_Creo\CAD\MCADPD0005304_3D-CAD\drw0001_7.dxf
999
Pro/ENGINEER 2019471 by Parametric Technology Corporation
  0
SECTION
  2
HEADER
  9
$ACADVER
  1
AC1024
  9
$DWGCODEPAGE
  3
ANSI_1252
  9
$EXTMAX
 10
75.8437769379
 20
107.2647702407
 30
0.0
  9
$EXTMIN
 10
0.0
 20
0.0
 30
0.0
  9
$LIMMIN
 10
0.0
 20
0.0
  9
$LIMMAX
 10
75.8437769379
 20
107.2647702407
  9
$VIEWCTR
 10
37.9218884689
 20
53.6323851204
  9
$VIEWSIZE
 40
107.2647702407
  9
$CLAYER
  8
0
  9
$LTSCALE
 40
6.992073912
  9
$CELTYPE
  6
BYLAYER
  9
$DIMSCALE
 40
1.0
  9
$DIMASZ
 40
0.9029021064
  9
$DIMEXO
 40
1.0
  9
$DIMDLI
 40
4.8308874301
  9
$DIMEXE
 40
1.0
  9
$DIMCEN
 40
1.1441575492
  9
$DIMLFAC
 40
1.0
  9
$DIMBLK
  1
_FILLED
  9
$DIMALT
 70
0
  9
$DIMALTF
 40
0.0393700787
  9
$DIMTXT
 40
1.264062949
  9
$DIMTOL
 70
1
  9
$DIMLIM
 70
0
  9
$DIMTFAC
 40
1.0
  9
$DIMTP
 40
0.01
  9
$DIMTM
 40
0.01
  9
$DIMGAP
 40
0.625
  9
$DIMDSEP
 70
46
  9
$AUNITS
 70
0
  9
$PDMODE
 70
3
  9
$PDSIZE
 40
0.3125
  9
$HANDSEED
  5
29F
  9
$TILEMODE
 70
1
  9
$MEASUREMENT
 70
1
  9
$INSUNITS
 70
4
  0
ENDSEC
  0
SECTION
  2
CLASSES
  0
CLASS
  1
ACDBDICTIONARYWDFLT
  2
AcDbDictionaryWithDefault
  3
AutoCAD 2000
 90
0
 91
1
280
0
281
0
  0
CLASS
  1
ACDBPLACEHOLDER
  2
AcDbPlaceHolder
  3
AutoCAD 2000
 90
0
 91
1
280
0
281
0
  0
CLASS
  1
LAYOUT
  2
AcDbLayout
  3
AutoCAD 2000
 90
0
 91
0
280
0
281
0
  0
ENDSEC
  0
SECTION
  2
TABLES
  0
TABLE
  2
VPORT
  5
8
100
AcDbSymbolTable
 70
2
  0
VPORT
  5
1F4
100
AcDbSymbolTableRecord
100
AcDbViewportTableRecord
  2
*ACTIVE
 70
0
 10
0.0
 20
0.0
 11
1.0
 21
1.0
 12
37.9218884689
 22
53.6323851204
 13
0.0
 23
0.0
 14
1.0
 24
1.0
 15
0.0
 25
0.0
 16
0.0
 26
0.0
 36
1.0
 17
0.0
 27
0.0
 37
0.0
 40
107.2647702407
 41
0.7070707071
 42
50.0
 43
0.0
 44
0.0
 50
0.0
 51
0.0
 71
0
 72
100
 73
1
 74
1
 75
0
 76
0
 77
0
 78
0
  0
ENDTAB
  0
TABLE
  2
LTYPE
  5
5
100
AcDbSymbolTable
 70
6
  0
LTYPE
  5
14
100
AcDbSymbolTableRecord
100
AcDbLinetypeTableRecord
  2
BYBLOCK
 70
0
  3

 72
65
 73
0
 40
0.0
  0
LTYPE
  5
15
100
AcDbSymbolTableRecord
100
AcDbLinetypeTableRecord
  2
BYLAYER
 70
0
  3

 72
65
 73
0
 40
0.0
  0
LTYPE
  5
16
100
AcDbSymbolTableRecord
100
AcDbLinetypeTableRecord
  2
CONTINUOUS
 70
64
  3
Solid line
 72
65
 73
0
 40
0.0
  0
LTYPE
  5
1F5
100
AcDbSymbolTableRecord
100
AcDbLinetypeTableRecord
  2
CENTER
 70
64
  3
____ _ ____ _ ____ _ ____ _ ____ _ ____ _ ____
 72
65
 73
4
 40
0.6
 49
0.375
 74
0
 49
-0.075
 74
0
 49
0.075
 74
0
 49
-0.075
 74
0
  0
LTYPE
  5
1F6
100
AcDbSymbolTableRecord
100
AcDbLinetypeTableRecord
  2
HIDDEN
 70
64
  3
- - - - - - - - - - - - - - - - - - - -
 72
65
 73
2
 40
0.2
 49
0.1
 74
0
 49
-0.1
 74
0
  0
LTYPE
  5
1F7
100
AcDbSymbolTableRecord
100
AcDbLinetypeTableRecord
  2
PHANTOM
 70
64
  3
_____ _ _ _____ _ _ _____ _ _ _____
 72
65
 73
6
 40
0.8
 49
0.45
 74
0
 49
-0.05
 74
0
 49
0.1
 74
0
 49
-0.05
 74
0
 49
0.1
 74
0
 49
-0.05
 74
0
  0
LTYPE
  5
1F8
100
AcDbSymbolTableRecord
100
AcDbLinetypeTableRecord
  2
DOT
 70
64
  3
. . . . . . . . . . . . . . . . . . . .
 72
65
 73
2
 40
0.2
 49
0.1
 74
0
 49
-0.1
 74
0
  0
LTYPE
  5
1F9
100
AcDbSymbolTableRecord
100
AcDbLinetypeTableRecord
  2
DASHED
 70
64
  3
- - - - - - - - - - - - - - - - - - - -
 72
65
 73
2
 40
0.2
 49
0.1
 74
0
 49
-0.1
 74
0
  0
ENDTAB
  0
TABLE
  2
LAYER
  5
2
100
AcDbSymbolTable
 70
36
  0
LAYER
  5
10
100
AcDbSymbolTableRecord
100
AcDbLayerTableRecord
  2
0
 70
0
 62
7
  6
CONTINUOUS
370
-3
390
F
  0
LAYER
  5
1FA
100
AcDbSymbolTableRecord
100
AcDbLayerTableRecord
  2
DEFAULT_1
 70
0
 62
7
  6
CENTER
370
-3
390
F
  0
LAYER
  5
1FB
100
AcDbSymbolTableRecord
100
AcDbLayerTableRecord
  2
DEFAULT_2
 70
0
 62
7
  6
HIDDEN
370
-3
390
F
  0
LAYER
  5
1FC
100
AcDbSymbolTableRecord
100
AcDbLayerTableRecord
  2
DEFAULT_3
 70
0
 62
7
  6
PHANTOM
370
-3
390
F
  0
LAYER
  5
1FD
100
AcDbSymbolTableRecord
100
AcDbLayerTableRecord
  2
00_COMPONENTS
 70
0
 62
7
  6
CONTINUOUS
370
-3
390
F
  0
LAYER
  5
1FE
100
AcDbSymbolTableRecord
100
AcDbLayerTableRecord
  2
01_1_DEFAULT_DATUMS
 70
0
 62
7
  6
CONTINUOUS
370
-3
390
F
  0
LAYER
  5
1FF
100
AcDbSymbolTableRecord
100
AcDbLayerTableRecord
  2
01_PLANES
 70
0
 62
7
  6
CONTINUOUS
370
-3
390
F
  0
LAYER
  5
200
100
AcDbSymbolTableRecord
100
AcDbLayerTableRecord
  2
02_COORD_SYS
 70
0
 62
7
  6
CONTINUOUS
370
-3
390
F
  0
LAYER
  5
201
100
AcDbSymbolTableRecord
100
AcDbLayerTableRecord
  2
03_AXES
 70
0
 62
7
  6
CONTINUOUS
370
-3
390
F
  0
LAYER
  5
202
100
AcDbSymbolTableRecord
100
AcDbLayerTableRecord
  2
04_POINTS
 70
0
 62
7
  6
CONTINUOUS
370
-3
390
F
  0
LAYER
  5
203
100
AcDbSymbolTableRecord
100
AcDbLayerTableRecord
  2
05_CURVES
 70
0
 62
7
  6
CONTINUOUS
370
-3
390
F
  0
LAYER
  5
204
100
AcDbSymbolTableRecord
100
AcDbLayerTableRecord
  2
06_SURFS
 70
0
 62
7
  6
CONTINUOUS
370
-3
390
F
  0
LAYER
  5
205
100
AcDbSymbolTableRecord
100
AcDbLayerTableRecord
  2
07_COSMETICS
 70
0
 62
7
  6
CONTINUOUS
370
-3
390
F
  0
LAYER
  5
206
100
AcDbSymbolTableRecord
100
AcDbLayerTableRecord
  2
10_NOTES
 70
0
 62
7
  6
CONTINUOUS
370
-3
390
F
  0
LAYER
  5
207
100
AcDbSymbolTableRecord
100
AcDbLayerTableRecord
  2
11_NOTES_PUB
 70
0
 62
7
  6
CONTINUOUS
370
-3
390
F
  0
LAYER
  5
208
100
AcDbSymbolTableRecord
100
AcDbLayerTableRecord
  2
13_REF_GTOL
 70
0
 62
7
  6
CONTINUOUS
370
-3
390
F
  0
LAYER
  5
209
100
AcDbSymbolTableRecord
100
AcDbLayerTableRecord
  2
16_MISC
 70
0
 62
7
  6
CONTINUOUS
370
-3
390
F
  0
LAYER
  5
20A
100
AcDbSymbolTableRecord
100
AcDbLayerTableRecord
  2
17_NO_PRINT
 70
0
 62
7
  6
CONTINUOUS
370
-3
390
F
  0
LAYER
  5
20B
100
AcDbSymbolTableRecord
100
AcDbLayerTableRecord
  2
18_DATUM_CAMS_JOINTS
 70
0
 62
7
  6
CONTINUOUS
370
-3
390
F
  0
LAYER
  5
20C
100
AcDbSymbolTableRecord
100
AcDbLayerTableRecord
  2
19_DATUM_FUNCTIONAL
 70
0
 62
7
  6
CONTINUOUS
370
-3
390
F
  0
LAYER
  5
20D
100
AcDbSymbolTableRecord
100
AcDbLayerTableRecord
  2
20_DATUM_KINEMATIC_SCHEME
 70
0
 62
7
  6
CONTINUOUS
370
-3
390
F
  0
ENDTAB
  0
TABLE
  2
STYLE
  5
3
100
AcDbSymbolTable
 70
1
  0
STYLE
  5
11
100
AcDbSymbolTableRecord
100
AcDbTextStyleTableRecord
  2
STANDARD
 70
0
 40
0.0
 41
1.0
 50
0.0
 71
0
 42
0.2
  3
ARIAL.TTF
  4

  0
STYLE
  5
20E
100
AcDbSymbolTableRecord
100
AcDbTextStyleTableRecord
  2
TEXTSTYLE_1
 70
0
 40
0.0
 41
0.8
 50
0.0
 71
0
 42
0.2
  3
gdt
  4

  0
ENDTAB
  0
TABLE
  2
VIEW
  5
6
100
AcDbSymbolTable
 70
0
  0
ENDTAB
  0
TABLE
  2
UCS
  5
7
100
AcDbSymbolTable
 70
0
  0
ENDTAB
  0
TABLE
  2
APPID
  5
9
100
AcDbSymbolTable
 70
1
  0
APPID
  5
20F
100
AcDbSymbolTableRecord
100
AcDbRegAppTableRecord
  2
ACAD
 70
0
  0
ENDTAB
  0
TABLE
  2
BLOCK_RECORD
  5
1
100
AcDbSymbolTable
 70
0
  0
BLOCK_RECORD
  5
210
100
AcDbSymbolTableRecord
100
AcDbBlockTableRecord
  2
*Model_Space
  0
BLOCK_RECORD
  5
211
100
AcDbSymbolTableRecord
100
AcDbBlockTableRecord
  2
*Paper_Space
  0
BLOCK_RECORD
  5
212
100
AcDbSymbolTableRecord
100
AcDbBlockTableRecord
  2
_FILLED
  0
ENDTAB
  0
TABLE
  2
DIMSTYLE
  5
A
100
AcDbSymbolTable
 70
1
100
AcDbDimStyleTable
 71
0
  0
DIMSTYLE
105
213
100
AcDbSymbolTableRecord
100
AcDbDimStyleTableRecord
  2
STANDARD
 70
0
  3

  4

 40
1.0
 41
0.9029021064
 42
1.0
 43
0.38
 44
1.0
 45
0.0
 46
0.0
 47
0.01
 48
0.01
140
1.264062949
141
0.09
142
0.0
143
25.4
144
1.0
145
0.0
146
1.0
147
0.625
 71
1
 72
0
 73
0
 74
0
 75
0
 76
0
 77
1
 78
8
 79
2
170
0
171
1
172
0
173
0
174
0
175
0
176
0
177
0
178
0
270
2
179
2
271
2
272
2
273
2
274
2
275
0
280
0
281
0
282
0
283
1
284
8
285
0
286
0
287
3
288
0
340
11
278
46
341
212
342
212
343
212
344
212
  0
ENDTAB
  0
ENDSEC
  0
SECTION
  2
BLOCKS
  0
BLOCK
  5
20
100
AcDbEntity
  8
0
100
AcDbBlockBegin
  2
*Model_Space
 70
0
 10
0.0
 20
0.0
 30
0.0
  3
*Model_Space
  1

  0
ENDBLK
  5
21
100
AcDbEntity
  8
0
100
AcDbBlockEnd
  0
BLOCK
  5
1C
100
AcDbEntity
  8
0
100
AcDbBlockBegin
  2
*Paper_Space
 70
0
 10
0.0
 20
0.0
 30
0.0
  3
*Paper_Space
  1

  0
ENDBLK
  5
1D
100
AcDbEntity
  8
0
100
AcDbBlockEnd
  0
BLOCK
  5
214
100
AcDbEntity
  8
0
100
AcDbBlockBegin
  2
_FILLED
 70
64
 10
0.0
 20
0.0
  3
_FILLED
  1

  0
SOLID
  5
215
100
AcDbEntity
  8
0
  6
BYBLOCK
 62
0
100
AcDbTrace
 10
0.0
 20
0.0
 11
-1.0
 21
0.25
 12
-1.0
 22
-0.25
 13
-1.0
 23
-0.25
  0
ENDBLK
  5
216
100
AcDbEntity
  8
0
  6
BYBLOCK
 62
0
100
AcDbBlockEnd
  0
ENDSEC
  0
SECTION
  2
ENTITIES
  0
LINE
  5
217
100
AcDbEntity
  8
0
100
AcDbLine
 62
7
  6
BYLAYER
 10
51.0531794974
 20
16.8199671772
 11
40.0531794974
 21
16.8199671772
  0
LINE
  5
218
100
AcDbEntity
  8
0
100
AcDbLine
 62
7
  6
BYLAYER
 10
60.5031794974
 20
18.0699671772
 11
15.6031794974
 21
18.0699671772
  0
LINE
  5
219
100
AcDbEntity
  8
0
100
AcDbLine
 62
7
  6
BYLAYER
 10
15.6031794974
 20
19.0699671772
 11
60.5031794974
 21
19.0699671772
  0
LINE
  5
21A
100
AcDbEntity
  8
0
100
AcDbLine
 62
7
  6
BYLAYER
 10
8.0531794974
 20
27.519967182
 11
8.0531794974
 21
81.5199671726
  0
LINE
  5
21B
100
AcDbEntity
  8
0
100
AcDbLine
 62
7
  6
BYLAYER
 10
9.0531794974
 20
81.5199671772
 11
9.0531794974
 21
27.5199671772
  0
LINE
  5
21C
100
AcDbEntity
  8
0
100
AcDbLine
 62
7
  6
BYLAYER
 10
65.0531794927
 20
24.5199671772
 11
11.053179502
 21
24.5199671772
  0
LINE
  5
21D
100
AcDbEntity
  8
0
100
AcDbLine
 62
7
  6
BYLAYER
 10
11.0531794974
 20
25.5199671772
 11
65.0531794974
 21
25.5199671772
  0
LINE
  5
21E
100
AcDbEntity
  8
0
100
AcDbLine
 62
7
  6
BYLAYER
 10
11.0531794974
 20
84.5199671772
 11
11.0531794974
 21
83.5199671772
  0
LINE
  5
21F
100
AcDbEntity
  8
0
100
AcDbLine
 62
7
  6
BYLAYER
 10
11.0531794974
 20
25.5199671772
 11
11.0531794974
 21
24.5199671772
  0
LINE
  5
220
100
AcDbEntity
  8
0
100
AcDbLine
 62
7
  6
BYLAYER
 10
8.0531794974
 20
27.5199671772
 11
9.0531794974
 21
27.5199671772
  0
LINE
  5
221
100
AcDbEntity
  8
0
100
AcDbLine
 62
7
  6
BYLAYER
 10
67.0531794974
 20
27.5199671772
 11
68.0531794974
 21
27.5199671772
  0
LINE
  5
222
100
AcDbEntity
  8
0
100
AcDbLine
 62
7
  6
BYLAYER
 10
15.6031794974
 20
90.9699671772
 11
15.6031794974
 21
84.5199671772
  0
LINE
  5
223
100
AcDbEntity
  8
0
100
AcDbLine
 62
7
  6
BYLAYER
 10
15.6031794974
 20
18.0699671772
 11
15.6031794974
 21
24.5199671772
  0
LINE
  5
224
100
AcDbEntity
  8
0
100
AcDbLine
 62
7
  6
BYLAYER
 10
15.7958189864
 20
57.8186534979
 11
15.8016534078
 21
57.856050386
  0
LINE
  5
225
100
AcDbEntity
  8
0
100
AcDbLine
 62
7
  6
BYLAYER
 10
15.8016534078
 20
57.856050386
 11
15.8508381613
 21
58.1563531314
  0
LINE
  5
226
100
AcDbEntity
  8
0
100
AcDbLine
 62
7
  6
BYLAYER
 10
15.8508649048
 20
50.883200879
 11
15.8016186032
 21
51.1838476047
  0
LINE
  5
227
100
AcDbEntity
  8
0
100
AcDbLine
 62
7
  6
BYLAYER
 10
15.8016186032
 20
51.1838476047
 11
15.7957789995
 21
51.221275113
  0
LINE
  5
228
100
AcDbEntity
  8
0
100
AcDbLine
 62
7
  6
BYLAYER
 10
18.2693682565
 20
59.9511569767
 11
18.2693682565
 21
57.9523753233
  0
LINE
  5
229
100
AcDbEntity
  8
0
100
AcDbLine
 62
7
  6
BYLAYER
 10
18.2693680334
 20
51.0875590312
 11
18.2693680334
 21
49.0887773782
  0
LINE
  5
22A
100
AcDbEntity
  8
0
100
AcDbLine
 62
7
  6
BYLAYER
 10
18.2693680335
 20
59.951156976
 11
18.362081581
 21
60.5199671772
  0
LINE
  5
22B
100
AcDbEntity
  8
0
100
AcDbLine
 62
7
  6
BYLAYER
 10
18.362081581
 20
48.5199671772
 11
18.269368033
 21
49.0887773792
  0
LINE
  5
22C
100
AcDbEntity
  8
0
100
AcDbLine
 62
7
  6
BYLAYER
 10
22.5381794974
 20
86.128903917
 11
22.5381794974
 21
84.5199671772
  0
LINE
  5
22D
100
AcDbEntity
  8
0
100
AcDbLine
 62
7
  6
BYLAYER
 10
22.5381794974
 20
24.5199671772
 11
22.5381794974
 21
22.9110304374
  0
LINE
  5
22E
100
AcDbEntity
  8
0
100
AcDbLine
 62
7
  6
BYLAYER
 10
46.7860546992
 20
36.527277253
 11
29.3203042956
 21
36.527277253
  0
LINE
  5
22F
100
AcDbEntity
  8
0
100
AcDbLine
 62
7
  6
BYLAYER
 10
23.3531794974
 20
56.2840626763
 11
23.3531794974
 21
52.7467307033
  0
LINE
  5
230
100
AcDbEntity
  8
0
100
AcDbLine
 62
7
  6
BYLAYER
 10
23.5681794974
 20
22.9110304374
 11
23.5681794974
 21
24.5199671772
  0
LINE
  5
231
100
AcDbEntity
  8
0
100
AcDbLine
 62
7
  6
BYLAYER
 10
23.5681794974
 20
84.5199671772
 11
23.5681794974
 21
86.128903917
  0
LINE
  5
232
100
AcDbEntity
  8
0
100
AcDbLine
 62
7
  6
BYLAYER
 10
24.1531794974
 20
49.0863399426
 11
24.1531794974
 21
52.8199671772
  0
LINE
  5
233
100
AcDbEntity
  8
0
100
AcDbLine
 62
7
  6
BYLAYER
 10
24.1531794974
 20
56.2199671772
 11
24.1531794974
 21
59.9511569774
  0
LINE
  5
234
100
AcDbEntity
  8
0
100
AcDbLine
 62
7
  6
BYLAYER
 10
24.5531794974
 20
49.0887773771
 11
24.5531794974
 21
52.6199671772
  0
LINE
  5
235
100
AcDbEntity
  8
0
100
AcDbLine
 62
7
  6
BYLAYER
 10
24.5531794974
 20
56.4199671772
 11
24.5531794974
 21
59.9511569774
  0
LINE
  5
236
100
AcDbEntity
  8
0
100
AcDbLine
 62
7
  6
BYLAYER
 10
22.6191999872
 20
56.7259377591
 11
19.2859448588
 21
54.960928976
  0
LINE
  5
237
100
AcDbEntity
  8
0
100
AcDbLine
 62
7
  6
BYLAYER
 10
19.2851885876
 20
54.0775800968
 11
22.618443716
 21
52.3052569068
  0
LINE
  5
238
100
AcDbEntity
  8
0
100
AcDbLine
 62
7
  6
BYLAYER
 10
18.362081581
 20
48.5199671772
 11
57.7442774138
 21
48.5199671772
  0
LINE
  5
239
100
AcDbEntity
  8
0
100
AcDbLine
 62
7
  6
BYLAYER
 10
57.8369909612
 20
49.0887773785
 11
18.269368033
 21
49.0887773792
  0
LINE
  5
23A
100
AcDbEntity
  8
0
100
AcDbLine
 62
7
  6
BYLAYER
 10
18.2693130371
 20
51.0875590312
 11
24.1531794974
 21
51.0875590312
  0
LINE
  5
23B
100
AcDbEntity
  8
0
100
AcDbLine
 62
7
  6
BYLAYER
 10
24.5531794974
 20
51.0875590312
 11
57.8370602413
 21
51.0875590312
  0
LINE
  5
23C
100
AcDbEntity
  8
0
100
AcDbLine
 62
7
  6
BYLAYER
 10
37.5381794974
 20
23.1244505835
 11
37.5381794974
 21
24.5199671772
  0
LINE
  5
23D
100
AcDbEntity
  8
0
100
AcDbLine
 62
7
  6
BYLAYER
 10
37.5381794974
 20
84.5199671772
 11
37.5381794974
 21
85.915483771
  0
LINE
  5
23E
100
AcDbEntity
  8
0
100
AcDbLine
 62
7
  6
BYLAYER
 10
29.3203041673
 20
36.5272773152
 11
28.2286947511
 21
34.2781910825
  0
LINE
  5
23F
100
AcDbEntity
  8
0
100
AcDbLine
 62
7
  6
BYLAYER
 10
46.7860547542
 20
72.5126570748
 11
47.8776641614
 21
74.7617433119
  0
LINE
  5
240
100
AcDbEntity
  8
0
100
AcDbLine
 62
7
  6
BYLAYER
 10
54.7531794974
 20
52.6199671772
 11
24.5531794974
 21
52.6199671772
  0
LINE
  5
241
100
AcDbEntity
  8
0
100
AcDbLine
 62
7
  6
BYLAYER
 10
24.1531794974
 20
52.8199671772
 11
54.7531794974
 21
52.8199671772
  0
LINE
  5
242
100
AcDbEntity
  8
0
100
AcDbLine
 62
7
  6
BYLAYER
 10
28.2286948958
 20
74.7617433422
 11
29.3203042959
 21
72.5126571017
  0
LINE
  5
243
100
AcDbEntity
  8
0
100
AcDbLine
 62
7
  6
BYLAYER
 10
47.8776640997
 20
34.2781910126
 11
46.7860546994
 21
36.5272772531
  0
LINE
  5
244
100
AcDbEntity
  8
0
100
AcDbLine
 62
7
  6
BYLAYER
 10
38.5681794974
 20
85.915483771
 11
38.5681794974
 21
84.5199671772
  0
LINE
  5
245
100
AcDbEntity
  8
0
100
AcDbLine
 62
7
  6
BYLAYER
 10
38.5681794974
 20
24.5199671772
 11
38.5681794974
 21
23.1244505835
  0
LINE
  5
246
100
AcDbEntity
  8
0
100
AcDbLine
 62
7
  6
BYLAYER
 10
40.0531794974
 20
16.8199671772
 11
40.0531794974
 21
18.0699671772
  0
LINE
  5
247
100
AcDbEntity
  8
0
100
AcDbLine
 62
7
  6
BYLAYER
 10
15.7963039518
 20
51.2213529517
 11
17.7746926857
 21
51.5145630706
  0
LINE
  5
248
100
AcDbEntity
  8
0
100
AcDbLine
 62
7
  6
BYLAYER
 10
60.3100550543
 20
57.8185814044
 11
58.331666188
 21
57.525371266
  0
LINE
  5
249
100
AcDbEntity
  8
0
100
AcDbLine
 62
7
  6
BYLAYER
 10
54.7531794974
 20
56.2199671772
 11
24.1531794974
 21
56.2199671772
  0
LINE
  5
24A
100
AcDbEntity
  8
0
100
AcDbLine
 62
7
  6
BYLAYER
 10
24.5531794974
 20
56.4199671772
 11
54.7531794974
 21
56.4199671772
  0
LINE
  5
24B
100
AcDbEntity
  8
0
100
AcDbLine
 62
7
  6
BYLAYER
 10
58.3316686723
 20
51.5145627214
 11
60.3100588635
 21
51.2213523843
  0
LINE
  5
24C
100
AcDbEntity
  8
0
100
AcDbLine
 62
7
  6
BYLAYER
 10
17.7746903969
 20
57.5253716221
 11
15.7963001887
 21
57.8185819617
  0
LINE
  5
24D
100
AcDbEntity
  8
0
100
AcDbLine
 62
7
  6
BYLAYER
 10
57.8370453482
 20
57.9523753233
 11
24.5531794974
 21
57.9523753233
  0
LINE
  5
24E
100
AcDbEntity
  8
0
100
AcDbLine
 62
7
  6
BYLAYER
 10
24.1531794974
 20
57.9523753233
 11
18.2692994315
 21
57.9523753233
  0
LINE
  5
24F
100
AcDbEntity
  8
0
100
AcDbLine
 62
7
  6
BYLAYER
 10
18.2693680335
 20
59.951156976
 11
57.8369909618
 21
59.9511569753
  0
LINE
  5
250
100
AcDbEntity
  8
0
100
AcDbLine
 62
7
  6
BYLAYER
 10
57.7442774138
 20
60.5199671772
 11
18.362081581
 21
60.5199671772
  0
LINE
  5
251
100
AcDbEntity
  8
0
100
AcDbLine
 62
7
  6
BYLAYER
 10
51.0531794974
 20
18.0699671772
 11
51.0531794974
 21
16.8199671772
  0
LINE
  5
252
100
AcDbEntity
  8
0
100
AcDbLine
 62
7
  6
BYLAYER
 10
52.5381794974
 20
23.1244505835
 11
52.5381794974
 21
24.5199671772
  0
LINE
  5
253
100
AcDbEntity
  8
0
100
AcDbLine
 62
7
  6
BYLAYER
 10
52.5381794974
 20
84.5199671772
 11
52.5381794974
 21
85.915483771
  0
LINE
  5
254
100
AcDbEntity
  8
0
100
AcDbLine
 62
7
  6
BYLAYER
 10
53.5681794974
 20
85.915483771
 11
53.5681794974
 21
84.5199671772
  0
LINE
  5
255
100
AcDbEntity
  8
0
100
AcDbLine
 62
7
  6
BYLAYER
 10
53.5681794974
 20
24.5199671772
 11
53.5681794974
 21
23.1244505835
  0
LINE
  5
256
100
AcDbEntity
  8
0
100
AcDbLine
 62
7
  6
BYLAYER
 10
29.3203042956
 20
72.5126571015
 11
46.7860546992
 21
72.5126571015
  0
LINE
  5
257
100
AcDbEntity
  8
0
100
AcDbLine
 62
7
  6
BYLAYER
 10
57.8369907383
 20
49.0887773778
 11
57.8369907383
 21
51.0875590312
  0
LINE
  5
258
100
AcDbEntity
  8
0
100
AcDbLine
 62
7
  6
BYLAYER
 10
57.8369909613
 20
57.9523753233
 11
57.8369909613
 21
59.9511569763
  0
LINE
  5
259
100
AcDbEntity
  8
0
100
AcDbLine
 62
7
  6
BYLAYER
 10
60.5031794974
 20
18.0699671772
 11
60.5031794974
 21
24.5199671772
  0
LINE
  5
25A
100
AcDbEntity
  8
0
100
AcDbLine
 62
7
  6
BYLAYER
 10
60.5031794974
 20
84.5199671772
 11
60.5031794974
 21
90.9699671772
  0
LINE
  5
25B
100
AcDbEntity
  8
0
100
AcDbLine
 62
7
  6
BYLAYER
 10
60.3105389714
 20
51.2212810104
 11
60.3047051409
 21
51.1838877086
  0
LINE
  5
25C
100
AcDbEntity
  8
0
100
AcDbLine
 62
7
  6
BYLAYER
 10
57.8369909612
 20
49.0887773785
 11
57.7442774138
 21
48.5199671772
  0
LINE
  5
25D
100
AcDbEntity
  8
0
100
AcDbLine
 62
7
  6
BYLAYER
 10
60.3047051409
 20
51.1838877086
 11
60.2555259117
 21
50.8836157711
  0
LINE
  5
25E
100
AcDbEntity
  8
0
100
AcDbLine
 62
7
  6
BYLAYER
 10
60.2554966543
 20
58.1567187629
 11
60.3047406122
 21
57.856085094
  0
LINE
  5
25F
100
AcDbEntity
  8
0
100
AcDbLine
 62
7
  6
BYLAYER
 10
57.7442774138
 20
60.5199671772
 11
57.8369909618
 21
59.9511569753
  0
LINE
  5
260
100
AcDbEntity
  8
0
100
AcDbLine
 62
7
  6
BYLAYER
 10
60.3047406122
 20
57.856085094
 11
60.3105799461
 21
57.8186592342
  0
LINE
  5
261
100
AcDbEntity
  8
0
100
AcDbLine
 62
7
  6
BYLAYER
 10
65.0531794974
 20
24.5199671772
 11
65.0531794974
 21
25.5199671772
  0
LINE
  5
262
100
AcDbEntity
  8
0
100
AcDbLine
 62
7
  6
BYLAYER
 10
65.0531794974
 20
83.5199671772
 11
65.0531794974
 21
84.5199671772
  0
LINE
  5
263
100
AcDbEntity
  8
0
100
AcDbLine
 62
7
  6
BYLAYER
 10
67.0531794974
 20
27.5199671772
 11
67.0531794974
 21
81.5199671772
  0
LINE
  5
264
100
AcDbEntity
  8
0
100
AcDbLine
 62
7
  6
BYLAYER
 10
68.0531794974
 20
81.5199671772
 11
67.0531794974
 21
81.5199671772
  0
LINE
  5
265
100
AcDbEntity
  8
0
100
AcDbLine
 62
7
  6
BYLAYER
 10
9.0531794974
 20
81.5199671772
 11
8.0531794974
 21
81.5199671772
  0
LINE
  5
266
100
AcDbEntity
  8
0
100
AcDbLine
 62
7
  6
BYLAYER
 10
68.0531794974
 20
81.5199671725
 11
68.0531794974
 21
27.5199671819
  0
LINE
  5
267
100
AcDbEntity
  8
0
100
AcDbLine
 62
7
  6
BYLAYER
 10
65.0531794974
 20
83.5199671772
 11
11.0531794974
 21
83.5199671772
  0
LINE
  5
268
100
AcDbEntity
  8
0
100
AcDbLine
 62
7
  6
BYLAYER
 10
11.0531795021
 20
84.5199671772
 11
65.0531794928
 21
84.5199671772
  0
LINE
  5
269
100
AcDbEntity
  8
0
100
AcDbLine
 62
7
  6
BYLAYER
 10
60.5031794974
 20
89.9699671772
 11
15.6031794974
 21
89.9699671772
  0
LINE
  5
26A
100
AcDbEntity
  8
0
100
AcDbLine
 62
7
  6
BYLAYER
 10
15.6031794974
 20
90.9699671772
 11
60.5031794974
 21
90.9699671772
  0
ARC
  5
26B
100
AcDbEntity
  8
0
100
AcDbCircle
 62
7
  6
BYLAYER
 10
23.0531794974
 20
26.1199671772
 40
4.25
100
AcDbArc
 50
202.6073614359
 51
337.3923533973
  0
ARC
  5
26C
100
AcDbEntity
  8
0
100
AcDbCircle
 62
7
  6
BYLAYER
 10
23.0531794974
 20
26.1199671772
 40
3.25
100
AcDbArc
 50
209.5384615428
 51
330.4615384658
  0
ARC
  5
26D
100
AcDbEntity
  8
0
100
AcDbCircle
 62
7
  6
BYLAYER
 10
11.0531794974
 20
27.5199671772
 40
3.0
100
AcDbArc
 50
179.9999999548
 51
270.0
  0
ARC
  5
26E
100
AcDbEntity
  8
0
100
AcDbCircle
 62
7
  6
BYLAYER
 10
18.3614536907
 20
51.019644758
 40
2.4996575412
100
AcDbArc
 50
190.1127024287
 51
270.0143903783
  0
ARC
  5
26F
100
AcDbEntity
  8
0
100
AcDbCircle
 62
7
  6
BYLAYER
 10
18.2676889971
 20
51.58821166
 40
2.4990139174
100
AcDbArc
 50
189.3243668454
 51
270.0384917532
  0
ARC
  5
270
100
AcDbEntity
  8
0
100
AcDbCircle
 62
7
  6
BYLAYER
 10
11.0531794974
 20
27.5199671772
 40
2.0
100
AcDbArc
 50
180.0
 51
270.0
  0
ARC
  5
271
100
AcDbEntity
  8
0
100
AcDbCircle
 62
7
  6
BYLAYER
 10
18.2695092082
 20
51.5877484833
 40
0.5001984176
100
AcDbArc
 50
188.4062914363
 51
269.977528962
  0
ARC
  5
272
100
AcDbEntity
  8
0
100
AcDbCircle
 62
7
  6
BYLAYER
 10
19.519924369
 20
54.5190538932
 40
0.5
100
AcDbArc
 50
117.901893488
 51
241.9999999997
  0
ARC
  5
273
100
AcDbEntity
  8
0
100
AcDbCircle
 62
7
  6
BYLAYER
 10
22.8531794974
 20
52.7467307033
 40
0.5
100
AcDbArc
 50
241.9999999998
 51
360.0
  0
ARC
  5
274
100
AcDbEntity
  8
0
100
AcDbCircle
 62
7
  6
BYLAYER
 10
23.0531794974
 20
82.9199671772
 40
4.25
100
AcDbArc
 50
22.6073614359
 51
157.3923533973
  0
ARC
  5
275
100
AcDbEntity
  8
0
100
AcDbCircle
 62
7
  6
BYLAYER
 10
23.0531794974
 20
82.9199671772
 40
3.25
100
AcDbArc
 50
29.5384615428
 51
150.4615384658
  0
ARC
  5
276
100
AcDbEntity
  8
0
100
AcDbCircle
 62
7
  6
BYLAYER
 10
11.0531794974
 20
81.5199671772
 40
3.0
100
AcDbArc
 50
89.9999999548
 51
180.0
  0
ARC
  5
277
100
AcDbEntity
  8
0
100
AcDbCircle
 62
7
  6
BYLAYER
 10
18.3614536007
 20
58.0202893326
 40
2.4996577661
100
AcDbArc
 50
89.9856072201
 51
169.8872912656
  0
ARC
  5
278
100
AcDbEntity
  8
0
100
AcDbCircle
 62
7
  6
BYLAYER
 10
18.267760214
 20
57.4517244313
 40
2.4990431984
100
AcDbArc
 50
89.9631405561
 51
170.676574631
  0
ARC
  5
279
100
AcDbEntity
  8
0
100
AcDbCircle
 62
7
  6
BYLAYER
 10
11.0531794974
 20
81.5199671772
 40
2.0
100
AcDbArc
 50
90.0
 51
180.0
  0
ARC
  5
27A
100
AcDbEntity
  8
0
100
AcDbCircle
 62
7
  6
BYLAYER
 10
18.2695257087
 20
57.4521669408
 40
0.5002206444
100
AcDbArc
 50
90.025918645
 51
171.5906603457
  0
ARC
  5
27B
100
AcDbEntity
  8
0
100
AcDbCircle
 62
7
  6
BYLAYER
 10
22.8531794974
 20
56.2840626763
 40
0.5
100
AcDbArc
 50
0.0
 51
117.9018934883
  0
ARC
  5
27C
100
AcDbEntity
  8
0
100
AcDbCircle
 62
7
  6
BYLAYER
 10
38.0531794974
 20
26.1199671772
 40
4.25
100
AcDbArc
 50
202.6073614359
 51
337.3923533973
  0
ARC
  5
27D
100
AcDbEntity
  8
0
100
AcDbCircle
 62
7
  6
BYLAYER
 10
53.0531794974
 20
26.1199671772
 40
4.25
100
AcDbArc
 50
202.6073614359
 51
337.3923533973
  0
ARC
  5
27E
100
AcDbEntity
  8
0
100
AcDbCircle
 62
7
  6
BYLAYER
 10
53.0531794974
 20
26.1199671772
 40
3.25
100
AcDbArc
 50
209.5384615428
 51
330.4615384658
  0
ARC
  5
27F
100
AcDbEntity
  8
0
100
AcDbCircle
 62
7
  6
BYLAYER
 10
38.0531794974
 20
26.1199671772
 40
3.25
100
AcDbArc
 50
209.5384615428
 51
330.4615384658
  0
ARC
  5
280
100
AcDbEntity
  8
0
100
AcDbCircle
 62
7
  6
BYLAYER
 10
53.0531794974
 20
26.1199671772
 40
3.0394645356
100
AcDbArc
 50
260.2448703421
 51
279.7551296579
  0
ARC
  5
281
100
AcDbEntity
  8
0
100
AcDbCircle
 62
7
  6
BYLAYER
 10
38.0531794974
 20
26.1199671772
 40
3.0394645356
100
AcDbArc
 50
260.2448703421
 51
279.7551296579
  0
ARC
  5
282
100
AcDbEntity
  8
0
100
AcDbCircle
 62
7
  6
BYLAYER
 10
65.0531794974
 20
27.5199671772
 40
3.0
100
AcDbArc
 50
269.9999999548
 51
360.0
  0
ARC
  5
283
100
AcDbEntity
  8
0
100
AcDbCircle
 62
7
  6
BYLAYER
 10
57.7449053036
 20
51.0196447578
 40
2.4996575416
100
AcDbArc
 50
269.9856092877
 51
349.8872975885
  0
ARC
  5
284
100
AcDbEntity
  8
0
100
AcDbCircle
 62
7
  6
BYLAYER
 10
57.8385971996
 20
51.5882099126
 40
2.4990437098
100
AcDbArc
 50
269.9631768071
 51
350.6766663345
  0
ARC
  5
285
100
AcDbEntity
  8
0
100
AcDbCircle
 62
7
  6
BYLAYER
 10
65.0531794974
 20
27.5199671772
 40
2.0
100
AcDbArc
 50
270.0
 51
360.0
  0
ARC
  5
286
100
AcDbEntity
  8
0
100
AcDbCircle
 62
7
  6
BYLAYER
 10
57.8368333136
 20
51.5877673335
 40
0.5002206944
100
AcDbArc
 50
270.0259931704
 51
351.5906266574
  0
CIRCLE
  5
287
100
AcDbEntity
  8
0
100
AcDbCircle
 62
7
  6
BYLAYER
 10
38.0531794974
 20
54.5199671772
 40
22.5
  0
ARC
  5
288
100
AcDbEntity
  8
0
100
AcDbCircle
 62
7
  6
BYLAYER
 10
38.0531794974
 20
54.5199671772
 40
20.5
100
AcDbArc
 50
171.5698999228
 51
188.4300712951
  0
ARC
  5
289
100
AcDbEntity
  8
0
100
AcDbCircle
 62
7
  6
BYLAYER
 10
38.0531794974
 20
54.5199671772
 40
20.5
100
AcDbArc
 50
351.5698988902
 51
8.430069645
  0
ARC
  5
28A
100
AcDbEntity
  8
0
100
AcDbCircle
 62
7
  6
BYLAYER
 10
38.0531794974
 20
54.5199671772
 40
20.0
100
AcDbArc
 50
244.110064909
 51
295.889935091
  0
ARC
  5
28B
100
AcDbEntity
  8
0
100
AcDbCircle
 62
7
  6
BYLAYER
 10
38.0531794974
 20
54.5199671772
 40
20.0
100
AcDbArc
 50
64.110064909
 51
115.889935091
  0
ARC
  5
28C
100
AcDbEntity
  8
0
100
AcDbCircle
 62
7
  6
BYLAYER
 10
38.0531794974
 20
82.9199671772
 40
4.25
100
AcDbArc
 50
22.6073614359
 51
157.3923533973
  0
ARC
  5
28D
100
AcDbEntity
  8
0
100
AcDbCircle
 62
7
  6
BYLAYER
 10
38.0531794974
 20
82.9199671772
 40
3.25
100
AcDbArc
 50
29.5384615428
 51
150.4615384658
  0
ARC
  5
28E
100
AcDbEntity
  8
0
100
AcDbCircle
 62
7
  6
BYLAYER
 10
38.0531794974
 20
82.9199671772
 40
3.0394645356
100
AcDbArc
 50
80.2448703421
 51
99.7551296579
  0
ARC
  5
28F
100
AcDbEntity
  8
0
100
AcDbCircle
 62
7
  6
BYLAYER
 10
57.7449053814
 20
58.0202894578
 40
2.4996576536
100
AcDbArc
 50
10.1127058706
 51
90.0143921485
  0
ARC
  5
290
100
AcDbEntity
  8
0
100
AcDbCircle
 62
7
  6
BYLAYER
 10
57.8387814505
 20
57.4518699774
 40
2.4988450198
100
AcDbArc
 50
9.3243276439
 51
90.0410494674
  0
ARC
  5
291
100
AcDbEntity
  8
0
100
AcDbCircle
 62
7
  6
BYLAYER
 10
54.7531794974
 20
54.5199671772
 40
1.9
100
AcDbArc
 50
270.0
 51
90.0
  0
ARC
  5
292
100
AcDbEntity
  8
0
100
AcDbCircle
 62
7
  6
BYLAYER
 10
54.7531794974
 20
54.5199671772
 40
1.7
100
AcDbArc
 50
270.0
 51
90.0
  0
ARC
  5
293
100
AcDbEntity
  8
0
100
AcDbCircle
 62
7
  6
BYLAYER
 10
57.8368497288
 20
57.452185787
 40
0.5001983676
100
AcDbArc
 50
8.4062323791
 51
89.977592154
  0
ARC
  5
294
100
AcDbEntity
  8
0
100
AcDbCircle
 62
7
  6
BYLAYER
 10
53.0531794974
 20
82.9199671772
 40
4.25
100
AcDbArc
 50
22.6073614359
 51
157.3923533973
  0
ARC
  5
295
100
AcDbEntity
  8
0
100
AcDbCircle
 62
7
  6
BYLAYER
 10
53.0531794974
 20
82.9199671772
 40
3.25
100
AcDbArc
 50
29.5384615428
 51
150.4615384658
  0
ARC
  5
296
100
AcDbEntity
  8
0
100
AcDbCircle
 62
7
  6
BYLAYER
 10
53.0531794974
 20
82.9199671772
 40
3.0394645356
100
AcDbArc
 50
80.2448703421
 51
99.7551296579
  0
ARC
  5
297
100
AcDbEntity
  8
0
100
AcDbCircle
 62
7
  6
BYLAYER
 10
65.0531794974
 20
81.5199671772
 40
3.0
100
AcDbArc
 50
0.0
 51
90.0
  0
ARC
  5
298
100
AcDbEntity
  8
0
100
AcDbCircle
 62
7
  6
BYLAYER
 10
65.0531794974
 20
81.5199671772
 40
2.0
100
AcDbArc
 50
0.0
 51
90.0
  0
SPLINE
  5
299
100
AcDbEntity
  8
0
100
AcDbSpline
 62
7
  6
BYLAYER
 70
0
 71
3
 72
17
 73
13
 74
0
 42
0.0000001
 43
0.0000001
 44
0.0000000001
 40
0.0
 40
0.0
 40
0.0
 40
0.0
 40
0.1791795113
 40
0.354037078
 40
0.4389649998
 40
0.5213299247
 40
0.6003085384
 40
0.6748756355
 40
0.7439237766
 40
0.8064310083
 40
0.9079491035
 40
1.0
 40
1.0
 40
1.0
 40
1.0
 10
29.3203038691
 20
36.5272761913
 30
0.0
 10
28.3836934547
 20
36.9034919305
 30
0.0
 10
26.5815439983
 20
37.775315794
 30
0.0
 10
24.527251692
 20
39.1694316372
 30
0.0
 10
23.0680496874
 20
40.431195629
 30
0.0
 10
22.0909762203
 20
41.4181370358
 30
0.0
 10
21.2337755465
 20
42.435420869
 30
0.0
 10
20.5011313807
 20
43.454568025
 30
0.0
 10
19.8979367829
 20
44.4480290563
 30
0.0
 10
19.2976021938
 20
45.6167030498
 30
0.0
 10
18.759705728
 20
46.9589230944
 30
0.0
 10
18.4710345593
 20
48.0130065473
 30
0.0
 10
18.362080434
 20
48.5199671769
 30
0.0
  0
SPLINE
  5
29A
100
AcDbEntity
  8
0
100
AcDbSpline
 62
7
  6
BYLAYER
 70
0
 71
3
 72
17
 73
13
 74
0
 42
0.0000001
 43
0.0000001
 44
0.0000000001
 40
0.0
 40
0.0
 40
0.0
 40
0.0
 40
0.0920409572
 40
0.1935524762
 40
0.2560575968
 40
0.3251043862
 40
0.3996703403
 40
0.4786489861
 40
0.5610159464
 40
0.6459464315
 40
0.820809
 40
1.0
 40
1.0
 40
1.0
 40
1.0
 10
57.7442778112
 20
48.5199671771
 30
0.0
 10
57.6353548287
 20
48.0130571536
 30
0.0
 10
57.3466876662
 20
46.9590681831
 30
0.0
 10
56.8088605534
 20
45.6169360858
 30
0.0
 10
56.2085703169
 20
44.4483025721
 30
0.0
 10
55.6054132121
 20
43.4548495853
 30
0.0
 10
54.8728018653
 20
42.4356958625
 30
0.0
 10
54.0156178661
 20
41.4183910089
 30
0.0
 10
53.0385411585
 20
40.4314161647
 30
0.0
 10
51.5793214375
 20
39.1695901174
 30
0.0
 10
49.5249564918
 20
37.7753877486
 30
0.0
 10
47.7227250928
 20
36.9035171452
 30
0.0
 10
46.786054847
 20
36.5272768851
 30
0.0
  0
SPLINE
  5
29B
100
AcDbEntity
  8
0
100
AcDbSpline
 62
7
  6
BYLAYER
 70
0
 71
3
 72
17
 73
13
 74
0
 42
0.0000001
 43
0.0000001
 44
0.0000000001
 40
0.0
 40
0.0
 40
0.0
 40
0.0
 40
0.1791796228
 40
0.3540373755
 40
0.4389653898
 40
0.5213300065
 40
0.6003078373
 40
0.6748742241
 40
0.7439222699
 40
0.8064298721
 40
0.9079489679
 40
1.0
 40
1.0
 40
1.0
 40
1.0
 10
46.7860549171
 20
72.5126576439
 30
0.0
 10
47.7226660949
 20
72.1364420869
 30
0.0
 10
49.5248158111
 20
71.2646149623
 30
0.0
 10
51.5791117318
 20
69.8705007494
 30
0.0
 10
53.0383137903
 20
68.6087369082
 30
0.0
 10
54.0153831293
 20
67.6217993692
 30
0.0
 10
54.872578275
 20
66.6045241521
 30
0.0
 10
55.6052173367
 20
65.5853843005
 30
0.0
 10
56.2084105299
 20
64.5919252947
 30
0.0
 10
56.8087494584
 20
63.4232454389
 30
0.0
 10
57.3466511408
 20
62.0810184231
 30
0.0
 10
57.635325939
 20
61.0269290382
 30
0.0
 10
57.7442779998
 20
60.5199671774
 30
0.0
  0
SPLINE
  5
29C
100
AcDbEntity
  8
0
100
AcDbSpline
 62
7
  6
BYLAYER
 70
0
 71
3
 72
17
 73
13
 74
0
 42
0.0000001
 43
0.0000001
 44
0.0000000001
 40
0.0
 40
0.0
 40
0.0
 40
0.0
 40
0.0920421958
 40
0.1935565676
 40
0.2560627965
 40
0.3251099651
 40
0.3996754479
 40
0.4786532584
 40
0.5610195422
 40
0.645949627
 40
0.8208113809
 40
1.0
 40
1.0
 40
1.0
 40
1.0
 10
18.3620815834
 20
60.5199671772
 30
0.0
 10
18.4710071179
 20
61.0268837646
 30
0.0
 10
18.7596787613
 20
62.0808954046
 30
0.0
 10
19.2975233091
 20
63.423052468
 30
0.0
 10
19.8978309775
 20
64.5917044178
 30
0.0
 10
20.500996548
 20
65.5851589088
 30
0.0
 10
21.2336098844
 20
66.6043046804
 30
0.0
 10
22.0907918292
 20
67.6215965192
 30
0.0
 10
23.0678641701
 20
68.6085603557
 30
0.0
 10
24.5270797407
 20
69.8703747779
 30
0.0
 10
26.5814311355
 20
71.2645604008
 30
0.0
 10
28.3836464547
 20
72.136422065
 30
0.0
 10
29.3203042965
 20
72.5126570992
 30
0.0
  0
ENDSEC
  0
SECTION
  2
OBJECTS
  0
DICTIONARY
  5
C
100
AcDbDictionary
280
0
281
1
  3
ACAD_GROUP
350
D
  3
ACAD_MLINESTYLE
350
17
  3
ACAD_LAYOUT
350
1A
  3
ACAD_PLOTSETTINGS
350
19
  3
ACAD_PLOTSTYLENAME
350
E
  0
DICTIONARY
  5
D
102
{ACAD_REACTORS
330
C
102
}
100
AcDbDictionary
280
0
281
1
  0
ACDBDICTIONARYWDFLT
  5
E
102
{ACAD_REACTORS
330
C
102
}
100
AcDbDictionary
281
1
  3
Normal
350
F
100
AcDbDictionaryWithDefault
340
F
  0
DICTIONARY
  5
17
102
{ACAD_REACTORS
330
C
102
}
100
AcDbDictionary
280
0
281
1
  3
Standard
350
18
  0
DICTIONARY
  5
19
102
{ACAD_REACTORS
330
C
102
}
100
AcDbDictionary
281
1
  0
DICTIONARY
  5
1A
102
{ACAD_REACTORS
330
C
102
}
100
AcDbDictionary
281
1
  3
Model
350
29D
  3
Layout1
350
29E
  0
ACDBPLACEHOLDER
  5
F
102
{ACAD_REACTORS
330
E
102
}
  0
MLINESTYLE
  5
18
102
{ACAD_REACTORS
330
17
102
}
100
AcDbMlineStyle
  2
STANDARD
 70
0
  3

 62
256
 51
90.0
 52
90.0
 71
2
 49
0.5
 62
256
  6
BYLAYER
 49
-0.5
 62
256
  6
BYLAYER
  0
LAYOUT
  5
29D
102
{ACAD_REACTORS
330
1A
102
}
100
AcDbPlotSettings
  1

  2
none_device
  4

  6

 40
0.0
 41
0.0
 42
0.0
 43
0.0
 44
210.0
 45
297.0
 46
0.0
 47
0.0
 48
0.0
 49
0.0
140
0.0
141
0.0
142
1.0
143
1.0
 70
1024
 72
1
 73
0
 74
0
  7

 75
0
147
1.0
148
0.0
149
0.0
100
AcDbLayout
  1
Model
 70
0
 71
0
 10
0.0
 20
0.0
 11
210.0
 21
297.0
 12
0.0
 22
0.0
 32
0.0
 14
0.0
 24
0.0
 34
0.0
 15
0.0
 25
0.0
 35
0.0
146
0.0
 13
0.0
 23
0.0
 33
0.0
 16
1.0
 26
0.0
 36
0.0
 17
0.0
 27
1.0
 37
0.0
 76
0
330
210
345
0
346
0
  0
LAYOUT
  5
29E
102
{ACAD_REACTORS
330
1A
102
}
100
AcDbPlotSettings
  1

  2
none_device
  4

  6

 40
0.0
 41
0.0
 42
0.0
 43
0.0
 44
210.0
 45
297.0
 46
0.0
 47
0.0
 48
0.0
 49
0.0
140
0.0
141
0.0
142
1.0
143
1.0
 70
0
 72
1
 73
0
 74
0
  7

 75
0
147
1.0
148
0.0
149
0.0
100
AcDbLayout
  1
Layout1
 70
0
 71
1
 10
0.0
 20
0.0
 11
210.0
 21
297.0
 12
0.0
 22
0.0
 32
0.0
 14
0.0
 24
0.0
 34
0.0
 15
0.0
 25
0.0
 35
0.0
146
0.0
 13
0.0
 23
0.0
 33
0.0
 16
1.0
 26
0.0
 36
0.0
 17
0.0
 27
1.0
 37
0.0
 76
0
330
211
345
0
346
0
  0
ENDSEC
  0
EOF
