999
DXF file: C:\Users\sesa63760\Dev\_Creo\CAD\MCADID0002244_3D-CAD\drw0001_2.dxf
999
Pro/ENGINEER 2019471 by Parametric Technology Corporation
  0
SECTION
  2
HEADER
  9
$ACADVER
  1
AC1024
  9
$DWGCODEPAGE
  3
ANSI_1252
  9
$EXTMAX
 10
95.8683930474
 20
135.5852987385
 30
0.0
  9
$EXTMIN
 10
0.0
 20
0.0
 30
0.0
  9
$LIMMIN
 10
0.0
 20
0.0
  9
$LIMMAX
 10
95.8683930474
 20
135.5852987385
  9
$VIEWCTR
 10
47.9341965237
 20
67.7926493693
  9
$VIEWSIZE
 40
135.5852987385
  9
$CLAYER
  8
0
  9
$LTSCALE
 40
8.8381528067
  9
$CELTYPE
  6
BYLAYER
  9
$DIMSCALE
 40
1.0
  9
$DIMASZ
 40
1.1412903934
  9
$DIMEXO
 40
1.0
  9
$DIMDLI
 40
6.106360121
  9
$DIMEXE
 40
1.0
  9
$DIMCEN
 40
1.4462431865
  9
$DIMLFAC
 40
1.0
  9
$DIMBLK
  1
_FILLED
  9
$DIMALT
 70
0
  9
$DIMALTF
 40
0.0393700787
  9
$DIMTXT
 40
1.5978065508
  9
$DIMTOL
 70
1
  9
$DIMLIM
 70
0
  9
$DIMTFAC
 40
1.0
  9
$DIMTP
 40
0.01
  9
$DIMTM
 40
0.01
  9
$DIMGAP
 40
0.625
  9
$DIMDSEP
 70
46
  9
$AUNITS
 70
0
  9
$PDMODE
 70
3
  9
$PDSIZE
 40
0.3125
  9
$HANDSEED
  5
256
  9
$TILEMODE
 70
1
  9
$MEASUREMENT
 70
1
  9
$INSUNITS
 70
4
  0
ENDSEC
  0
SECTION
  2
CLASSES
  0
CLASS
  1
ACDBDICTIONARYWDFLT
  2
AcDbDictionaryWithDefault
  3
AutoCAD 2000
 90
0
 91
1
280
0
281
0
  0
CLASS
  1
ACDBPLACEHOLDER
  2
AcDbPlaceHolder
  3
AutoCAD 2000
 90
0
 91
1
280
0
281
0
  0
CLASS
  1
LAYOUT
  2
AcDbLayout
  3
AutoCAD 2000
 90
0
 91
0
280
0
281
0
  0
ENDSEC
  0
SECTION
  2
TABLES
  0
TABLE
  2
VPORT
  5
8
100
AcDbSymbolTable
 70
2
  0
VPORT
  5
1F4
100
AcDbSymbolTableRecord
100
AcDbViewportTableRecord
  2
*ACTIVE
 70
0
 10
0.0
 20
0.0
 11
1.0
 21
1.0
 12
47.9341965237
 22
67.7926493693
 13
0.0
 23
0.0
 14
1.0
 24
1.0
 15
0.0
 25
0.0
 16
0.0
 26
0.0
 36
1.0
 17
0.0
 27
0.0
 37
0.0
 40
135.5852987385
 41
0.7070707071
 42
50.0
 43
0.0
 44
0.0
 50
0.0
 51
0.0
 71
0
 72
100
 73
1
 74
1
 75
0
 76
0
 77
0
 78
0
  0
ENDTAB
  0
TABLE
  2
LTYPE
  5
5
100
AcDbSymbolTable
 70
6
  0
LTYPE
  5
14
100
AcDbSymbolTableRecord
100
AcDbLinetypeTableRecord
  2
BYBLOCK
 70
0
  3

 72
65
 73
0
 40
0.0
  0
LTYPE
  5
15
100
AcDbSymbolTableRecord
100
AcDbLinetypeTableRecord
  2
BYLAYER
 70
0
  3

 72
65
 73
0
 40
0.0
  0
LTYPE
  5
16
100
AcDbSymbolTableRecord
100
AcDbLinetypeTableRecord
  2
CONTINUOUS
 70
64
  3
Solid line
 72
65
 73
0
 40
0.0
  0
LTYPE
  5
1F5
100
AcDbSymbolTableRecord
100
AcDbLinetypeTableRecord
  2
CENTER
 70
64
  3
____ _ ____ _ ____ _ ____ _ ____ _ ____ _ ____
 72
65
 73
4
 40
0.6
 49
0.375
 74
0
 49
-0.075
 74
0
 49
0.075
 74
0
 49
-0.075
 74
0
  0
LTYPE
  5
1F6
100
AcDbSymbolTableRecord
100
AcDbLinetypeTableRecord
  2
HIDDEN
 70
64
  3
- - - - - - - - - - - - - - - - - - - -
 72
65
 73
2
 40
0.2
 49
0.1
 74
0
 49
-0.1
 74
0
  0
LTYPE
  5
1F7
100
AcDbSymbolTableRecord
100
AcDbLinetypeTableRecord
  2
PHANTOM
 70
64
  3
_____ _ _ _____ _ _ _____ _ _ _____
 72
65
 73
6
 40
0.8
 49
0.45
 74
0
 49
-0.05
 74
0
 49
0.1
 74
0
 49
-0.05
 74
0
 49
0.1
 74
0
 49
-0.05
 74
0
  0
LTYPE
  5
1F8
100
AcDbSymbolTableRecord
100
AcDbLinetypeTableRecord
  2
DOT
 70
64
  3
. . . . . . . . . . . . . . . . . . . .
 72
65
 73
2
 40
0.2
 49
0.1
 74
0
 49
-0.1
 74
0
  0
LTYPE
  5
1F9
100
AcDbSymbolTableRecord
100
AcDbLinetypeTableRecord
  2
DASHED
 70
64
  3
- - - - - - - - - - - - - - - - - - - -
 72
65
 73
2
 40
0.2
 49
0.1
 74
0
 49
-0.1
 74
0
  0
ENDTAB
  0
TABLE
  2
LAYER
  5
2
100
AcDbSymbolTable
 70
36
  0
LAYER
  5
10
100
AcDbSymbolTableRecord
100
AcDbLayerTableRecord
  2
0
 70
0
 62
7
  6
CONTINUOUS
370
-3
390
F
  0
LAYER
  5
1FA
100
AcDbSymbolTableRecord
100
AcDbLayerTableRecord
  2
DEFAULT_1
 70
0
 62
7
  6
CENTER
370
-3
390
F
  0
LAYER
  5
1FB
100
AcDbSymbolTableRecord
100
AcDbLayerTableRecord
  2
DEFAULT_2
 70
0
 62
8
  6
HIDDEN
370
-3
390
F
  0
LAYER
  5
1FC
100
AcDbSymbolTableRecord
100
AcDbLayerTableRecord
  2
DEFAULT_3
 70
0
 62
7
  6
PHANTOM
370
-3
390
F
  0
LAYER
  5
1FD
100
AcDbSymbolTableRecord
100
AcDbLayerTableRecord
  2
00_COMPONENTS
 70
0
 62
7
  6
CONTINUOUS
370
-3
390
F
  0
LAYER
  5
1FE
100
AcDbSymbolTableRecord
100
AcDbLayerTableRecord
  2
01_1_DEFAULT_DATUMS
 70
0
 62
7
  6
CONTINUOUS
370
-3
390
F
  0
LAYER
  5
1FF
100
AcDbSymbolTableRecord
100
AcDbLayerTableRecord
  2
01_PLANES
 70
0
 62
7
  6
CONTINUOUS
370
-3
390
F
  0
LAYER
  5
200
100
AcDbSymbolTableRecord
100
AcDbLayerTableRecord
  2
02_COORD_SYS
 70
0
 62
7
  6
CONTINUOUS
370
-3
390
F
  0
LAYER
  5
201
100
AcDbSymbolTableRecord
100
AcDbLayerTableRecord
  2
03_AXES
 70
0
 62
7
  6
CONTINUOUS
370
-3
390
F
  0
LAYER
  5
202
100
AcDbSymbolTableRecord
100
AcDbLayerTableRecord
  2
04_POINTS
 70
0
 62
7
  6
CONTINUOUS
370
-3
390
F
  0
LAYER
  5
203
100
AcDbSymbolTableRecord
100
AcDbLayerTableRecord
  2
05_CURVES
 70
0
 62
7
  6
CONTINUOUS
370
-3
390
F
  0
LAYER
  5
204
100
AcDbSymbolTableRecord
100
AcDbLayerTableRecord
  2
06_SURFS
 70
0
 62
7
  6
CONTINUOUS
370
-3
390
F
  0
LAYER
  5
205
100
AcDbSymbolTableRecord
100
AcDbLayerTableRecord
  2
07_COSMETICS
 70
0
 62
7
  6
CONTINUOUS
370
-3
390
F
  0
LAYER
  5
206
100
AcDbSymbolTableRecord
100
AcDbLayerTableRecord
  2
10_NOTES
 70
0
 62
7
  6
CONTINUOUS
370
-3
390
F
  0
LAYER
  5
207
100
AcDbSymbolTableRecord
100
AcDbLayerTableRecord
  2
11_NOTES_PUB
 70
0
 62
7
  6
CONTINUOUS
370
-3
390
F
  0
LAYER
  5
208
100
AcDbSymbolTableRecord
100
AcDbLayerTableRecord
  2
13_REF_GTOL
 70
0
 62
7
  6
CONTINUOUS
370
-3
390
F
  0
LAYER
  5
209
100
AcDbSymbolTableRecord
100
AcDbLayerTableRecord
  2
16_MISC
 70
0
 62
7
  6
CONTINUOUS
370
-3
390
F
  0
LAYER
  5
20A
100
AcDbSymbolTableRecord
100
AcDbLayerTableRecord
  2
17_NO_PRINT
 70
0
 62
7
  6
CONTINUOUS
370
-3
390
F
  0
LAYER
  5
20B
100
AcDbSymbolTableRecord
100
AcDbLayerTableRecord
  2
18_DATUM_CAMS_JOINTS
 70
0
 62
7
  6
CONTINUOUS
370
-3
390
F
  0
LAYER
  5
20C
100
AcDbSymbolTableRecord
100
AcDbLayerTableRecord
  2
19_DATUM_FUNCTIONAL
 70
0
 62
7
  6
CONTINUOUS
370
-3
390
F
  0
LAYER
  5
20D
100
AcDbSymbolTableRecord
100
AcDbLayerTableRecord
  2
20_DATUM_KINEMATIC_SCHEME
 70
0
 62
7
  6
CONTINUOUS
370
-3
390
F
  0
LAYER
  5
20E
100
AcDbSymbolTableRecord
100
AcDbLayerTableRecord
  2
_1
 70
0
 62
7
  6
CONTINUOUS
370
-3
390
F
  0
ENDTAB
  0
TABLE
  2
STYLE
  5
3
100
AcDbSymbolTable
 70
1
  0
STYLE
  5
11
100
AcDbSymbolTableRecord
100
AcDbTextStyleTableRecord
  2
STANDARD
 70
0
 40
0.0
 41
0.8
 50
0.0
 71
0
 42
0.2
  3
txt
  4

  0
STYLE
  5
20F
100
AcDbSymbolTableRecord
100
AcDbTextStyleTableRecord
  2
TEXTSTYLE_1
 70
0
 40
0.0
 41
0.8
 50
0.0
 71
0
 42
0.2
  3
gdt
  4

  0
ENDTAB
  0
TABLE
  2
VIEW
  5
6
100
AcDbSymbolTable
 70
0
  0
ENDTAB
  0
TABLE
  2
UCS
  5
7
100
AcDbSymbolTable
 70
0
  0
ENDTAB
  0
TABLE
  2
APPID
  5
9
100
AcDbSymbolTable
 70
1
  0
APPID
  5
210
100
AcDbSymbolTableRecord
100
AcDbRegAppTableRecord
  2
ACAD
 70
0
  0
ENDTAB
  0
TABLE
  2
BLOCK_RECORD
  5
1
100
AcDbSymbolTable
 70
0
  0
BLOCK_RECORD
  5
211
100
AcDbSymbolTableRecord
100
AcDbBlockTableRecord
  2
*Model_Space
  0
BLOCK_RECORD
  5
212
100
AcDbSymbolTableRecord
100
AcDbBlockTableRecord
  2
*Paper_Space
  0
BLOCK_RECORD
  5
213
100
AcDbSymbolTableRecord
100
AcDbBlockTableRecord
  2
_FILLED
  0
ENDTAB
  0
TABLE
  2
DIMSTYLE
  5
A
100
AcDbSymbolTable
 70
1
100
AcDbDimStyleTable
 71
0
  0
DIMSTYLE
105
214
100
AcDbSymbolTableRecord
100
AcDbDimStyleTableRecord
  2
STANDARD
 70
0
  3

  4

 40
1.0
 41
1.1412903934
 42
1.0
 43
0.38
 44
1.0
 45
0.0
 46
0.0
 47
0.01
 48
0.01
140
1.5978065508
141
0.09
142
0.0
143
25.4
144
1.0
145
0.0
146
1.0
147
0.625
 71
1
 72
0
 73
0
 74
0
 75
0
 76
0
 77
1
 78
8
 79
2
170
0
171
1
172
0
173
0
174
0
175
0
176
0
177
0
178
0
270
2
179
2
271
2
272
2
273
2
274
2
275
0
280
0
281
0
282
0
283
1
284
8
285
0
286
0
287
3
288
0
340
11
278
46
341
213
342
213
343
213
344
213
  0
ENDTAB
  0
ENDSEC
  0
SECTION
  2
BLOCKS
  0
BLOCK
  5
20
100
AcDbEntity
  8
0
100
AcDbBlockBegin
  2
*Model_Space
 70
0
 10
0.0
 20
0.0
 30
0.0
  3
*Model_Space
  1

  0
ENDBLK
  5
21
100
AcDbEntity
  8
0
100
AcDbBlockEnd
  0
BLOCK
  5
1C
100
AcDbEntity
  8
0
100
AcDbBlockBegin
  2
*Paper_Space
 70
0
 10
0.0
 20
0.0
 30
0.0
  3
*Paper_Space
  1

  0
ENDBLK
  5
1D
100
AcDbEntity
  8
0
100
AcDbBlockEnd
  0
BLOCK
  5
215
100
AcDbEntity
  8
0
100
AcDbBlockBegin
  2
_FILLED
 70
64
 10
0.0
 20
0.0
  3
_FILLED
  1

  0
SOLID
  5
216
100
AcDbEntity
  8
0
  6
BYBLOCK
 62
0
100
AcDbTrace
 10
0.0
 20
0.0
 11
-1.0
 21
0.25
 12
-1.0
 22
-0.25
 13
-1.0
 23
-0.25
  0
ENDBLK
  5
217
100
AcDbEntity
  8
0
  6
BYBLOCK
 62
0
100
AcDbBlockEnd
  0
ENDSEC
  0
SECTION
  2
ENTITIES
  0
LINE
  5
218
100
AcDbEntity
  8
_1
100
AcDbLine
 62
7
  6
CONTINUOUS
 10
15.6480168358
 20
30.1437167522
 11
13.6480168358
 21
32.1437167522
  0
LINE
  5
219
100
AcDbEntity
  8
_1
100
AcDbLine
 62
7
  6
CONTINUOUS
 10
10.4980168358
 20
81.7437167522
 11
11.0980168358
 21
90.4437167522
  0
LINE
  5
21A
100
AcDbEntity
  8
_1
100
AcDbLine
 62
7
  6
CONTINUOUS
 10
11.0980168357
 20
91.4437167522
 11
10.5980168358
 21
100.1005767393
  0
LINE
  5
21B
100
AcDbEntity
  8
_1
100
AcDbLine
 62
7
  6
CONTINUOUS
 10
11.0980168358
 20
90.4437167522
 11
11.0980168358
 21
91.4437167522
  0
LINE
  5
21C
100
AcDbEntity
  8
_1
100
AcDbLine
 62
7
  6
CONTINUOUS
 10
81.5479985798
 20
30.1437167522
 11
15.6480350918
 21
30.1437167522
  0
LINE
  5
21D
100
AcDbEntity
  8
_1
100
AcDbLine
 62
7
  6
CONTINUOUS
 10
83.5480168358
 20
32.1437167522
 11
13.6480168358
 21
32.1437167522
  0
LINE
  5
21E
100
AcDbEntity
  8
_1
100
AcDbLine
 62
7
  6
CONTINUOUS
 10
13.6480168358
 20
32.1437167522
 11
13.6480168358
 21
79.9437167522
  0
LINE
  5
21F
100
AcDbEntity
  8
_1
100
AcDbLine
 62
7
  6
CONTINUOUS
 10
45.8480168358
 20
41.3937167522
 11
51.3480168358
 21
41.3937167522
  0
LINE
  5
220
100
AcDbEntity
  8
_1
100
AcDbLine
 62
7
  6
CONTINUOUS
 10
51.3480168358
 20
42.8937167522
 11
45.8480168358
 21
42.8937167522
  0
LINE
  5
221
100
AcDbEntity
  8
_1
100
AcDbLine
 62
7
  6
CONTINUOUS
 10
58.9229122758
 20
48.6437167522
 11
57.9253533486
 21
48.6437167522
  0
LINE
  5
222
100
AcDbEntity
  8
_1
100
AcDbLine
 62
7
  6
CONTINUOUS
 10
39.2720727486
 20
48.6437167522
 11
38.2722216414
 21
48.6437167522
  0
LINE
  5
223
100
AcDbEntity
  8
_1
100
AcDbLine
 62
7
  6
CONTINUOUS
 10
38.2727341754
 20
50.6437167522
 11
39.2720685253
 21
50.6437167522
  0
LINE
  5
224
100
AcDbEntity
  8
_1
100
AcDbLine
 62
7
  6
CONTINUOUS
 10
57.9254066496
 20
50.6437167522
 11
58.9232776604
 21
50.6437167522
  0
LINE
  5
225
100
AcDbEntity
  8
_1
100
AcDbLine
 62
7
  6
CONTINUOUS
 10
47.5980168358
 20
60.0959892324
 11
47.5980168358
 21
59.0988824223
  0
LINE
  5
226
100
AcDbEntity
  8
_1
100
AcDbLine
 62
7
  6
CONTINUOUS
 10
47.5980168358
 20
40.1885497914
 11
47.5980168358
 21
39.1914442721
  0
LINE
  5
227
100
AcDbEntity
  8
_1
100
AcDbLine
 62
7
  6
CONTINUOUS
 10
49.5980168358
 20
39.1914442721
 11
49.5980168358
 21
40.1885510822
  0
LINE
  5
228
100
AcDbEntity
  8
_1
100
AcDbLine
 62
7
  6
CONTINUOUS
 10
49.5980168358
 20
59.0988837131
 11
49.5980168358
 21
60.0959892324
  0
LINE
  5
229
100
AcDbEntity
  8
_1
100
AcDbLine
 62
7
  6
CONTINUOUS
 10
84.8979066734
 20
79.9437167522
 11
55.2531840957
 21
79.9437167522
  0
LINE
  5
22A
100
AcDbEntity
  8
_1
100
AcDbLine
 62
7
  6
CONTINUOUS
 10
55.2258007579
 20
79.9437167522
 11
54.9975672462
 21
79.9437167522
  0
LINE
  5
22B
100
AcDbEntity
  8
_1
100
AcDbLine
 62
7
  6
CONTINUOUS
 10
46.9145289115
 20
79.9437167522
 11
12.2975738068
 21
79.9437167522
  0
LINE
  5
22C
100
AcDbEntity
  8
_1
100
AcDbLine
 62
7
  6
CONTINUOUS
 10
46.9622683731
 20
79.9499776408
 11
55.2531840957
 21
79.9499776408
  0
LINE
  5
22D
100
AcDbEntity
  8
_1
100
AcDbLine
 62
7
  6
CONTINUOUS
 10
10.5150582559
 20
81.990817344
 11
86.6809754157
 21
81.990817344
  0
LINE
  5
22E
100
AcDbEntity
  8
_1
100
AcDbLine
 62
7
  6
CONTINUOUS
 10
86.0980168358
 20
90.4437167522
 11
11.0980168358
 21
90.4437167522
  0
LINE
  5
22F
100
AcDbEntity
  8
_1
100
AcDbLine
 62
7
  6
CONTINUOUS
 10
11.0980168358
 20
91.4437167522
 11
86.0980168358
 21
91.4437167522
  0
LINE
  5
230
100
AcDbEntity
  8
_1
100
AcDbLine
 62
7
  6
CONTINUOUS
 10
86.5883747532
 20
99.9336364213
 11
10.6076589183
 21
99.9336364213
  0
LINE
  5
231
100
AcDbEntity
  8
_1
100
AcDbLine
 62
7
  6
CONTINUOUS
 10
83.5480168358
 20
32.1437167522
 11
83.5480168358
 21
79.9437167522
  0
LINE
  5
232
100
AcDbEntity
  8
_1
100
AcDbLine
 62
7
  6
CONTINUOUS
 10
86.0980168358
 20
91.4437167522
 11
86.5980168358
 21
100.1005767393
  0
LINE
  5
233
100
AcDbEntity
  8
_1
100
AcDbLine
 62
7
  6
CONTINUOUS
 10
11.7816184285
 20
101.5258950094
 11
85.4144159541
 21
101.5258948664
  0
LINE
  5
234
100
AcDbEntity
  8
_1
100
AcDbLine
 62
7
  6
CONTINUOUS
 10
86.6980168358
 20
81.7437167522
 11
86.0980168358
 21
90.4437167522
  0
LINE
  5
235
100
AcDbEntity
  8
_1
100
AcDbLine
 62
7
  6
CONTINUOUS
 10
86.0980168358
 20
90.4437167522
 11
86.0980168358
 21
91.4437167522
  0
LINE
  5
236
100
AcDbEntity
  8
_1
100
AcDbLine
 62
7
  6
CONTINUOUS
 10
81.5480168358
 20
30.1437167522
 11
83.5480168358
 21
32.1437167522
  0
ARC
  5
237
100
AcDbEntity
  8
_1
100
AcDbCircle
 62
7
  6
CONTINUOUS
 10
48.5980168358
 20
-95.0562832478
 40
200.0
100
AcDbArc
 50
79.3922319607
 51
100.607768054
  0
ARC
  5
238
100
AcDbEntity
  8
_1
100
AcDbCircle
 62
7
  6
CONTINUOUS
 10
48.5966913429
 20
58.8761906274
 40
18.7325174451
100
AcDbArc
 50
270.004054188
 51
273.0641413542
  0
ARC
  5
239
100
AcDbEntity
  8
_1
100
AcDbCircle
 62
7
  6
CONTINUOUS
 10
48.5993431321
 20
58.8761905249
 40
18.7325173426
100
AcDbArc
 50
266.9358561681
 51
269.9959433546
  0
ARC
  5
23A
100
AcDbEntity
  8
_1
100
AcDbCircle
 62
7
  6
CONTINUOUS
 10
48.5984632256
 20
40.4112195506
 40
18.7324937241
100
AcDbArc
 50
86.9385474639
 51
93.0614525403
  0
CIRCLE
  5
23B
100
AcDbEntity
  8
_1
100
AcDbCircle
 62
7
  6
CONTINUOUS
 10
48.5980168358
 20
49.6437167522
 40
10.5
  0
ARC
  5
23C
100
AcDbEntity
  8
_1
100
AcDbCircle
 62
7
  6
CONTINUOUS
 10
48.5977952261
 20
49.6444274196
 40
10.000724285
100
AcDbArc
 50
275.7400850612
 51
354.2571405844
  0
ARC
  5
23D
100
AcDbEntity
  8
_1
100
AcDbCircle
 62
7
  6
CONTINUOUS
 10
84.8980168358
 20
81.7437167522
 40
1.8
100
AcDbArc
 50
270.0
 51
360.0
  0
ARC
  5
23E
100
AcDbEntity
  8
_1
100
AcDbCircle
 62
7
  6
CONTINUOUS
 10
12.2980168358
 20
81.7437167522
 40
1.8
100
AcDbArc
 50
180.0
 51
270.0
  0
ARC
  5
23F
100
AcDbEntity
  8
_1
100
AcDbCircle
 62
7
  6
CONTINUOUS
 10
85.1480168358
 20
100.1005767393
 40
1.45
100
AcDbArc
 50
0.0
 51
79.392231946
  0
ARC
  5
240
100
AcDbEntity
  8
_1
100
AcDbCircle
 62
7
  6
CONTINUOUS
 10
12.0480168358
 20
100.1005767393
 40
1.45
100
AcDbArc
 50
100.607768054
 51
180.0
  0
ARC
  5
241
100
AcDbEntity
  8
_1
100
AcDbCircle
 62
7
  6
CONTINUOUS
 10
51.3480168358
 20
42.1437167522
 40
0.75
100
AcDbArc
 50
270.0
 51
90.0
  0
ARC
  5
242
100
AcDbEntity
  8
_1
100
AcDbCircle
 62
7
  6
CONTINUOUS
 10
45.8480168358
 20
42.1437167522
 40
0.75
100
AcDbArc
 50
90.0
 51
270.0
  0
SPLINE
  5
243
100
AcDbEntity
  8
_1
100
AcDbSpline
 62
7
  6
CONTINUOUS
 70
0
 71
3
 72
8
 73
4
 74
0
 42
0.0000001
 43
0.0000001
 44
0.0000000001
 40
0.0
 40
0.0
 40
0.0
 40
0.0
 40
1.0
 40
1.0
 40
1.0
 40
1.0
 10
46.9622683731
 20
79.9499776408
 30
0.0
 10
46.9467461112
 20
79.9458980248
 30
0.0
 10
46.9305783314
 20
79.9437167522
 30
0.0
 10
46.9145289115
 20
79.9437167522
 30
0.0
  0
SPLINE
  5
244
100
AcDbEntity
  8
_1
100
AcDbSpline
 62
7
  6
CONTINUOUS
 70
0
 71
3
 72
20
 73
16
 74
0
 42
0.0000001
 43
0.0000001
 44
0.0000000001
 40
0.0
 40
0.0
 40
0.0
 40
0.0
 40
0.1254683362
 40
0.1881268592
 40
0.2506820072
 40
0.3131350741
 40
0.3754991442
 40
0.4377954559
 40
0.5000586069
 40
0.6245075688
 40
0.749206037
 40
0.8117623679
 40
0.8744188881
 40
0.9371766108
 40
1.0
 40
1.0
 40
1.0
 40
1.0
 10
49.5980168358
 20
59.0988837131
 30
0.0
 10
50.1313323851
 20
59.0405359064
 30
0.0
 10
50.9258010148
 20
58.8847541396
 30
0.0
 10
51.943156502
 20
58.5441636838
 30
0.0
 10
52.6797293976
 20
58.2229359148
 30
0.0
 10
53.3845833802
 20
57.8400361792
 30
0.0
 10
54.0538266661
 20
57.3998605603
 30
0.0
 10
54.6828199148
 20
56.9050309799
 30
0.0
 10
55.4601187297
 20
56.1756963525
 30
0.0
 10
56.3109688181
 20
55.1426976253
 30
0.0
 10
56.9786420026
 20
53.9814019375
 30
0.0
 10
57.3894028938
 20
52.9937131008
 30
0.0
 10
57.6347640763
 20
52.2272730114
 30
0.0
 10
57.8168691152
 20
51.442501193
 30
0.0
 10
57.8978620159
 20
50.9108789277
 30
0.0
 10
57.9254930639
 20
50.6436733267
 30
0.0
  0
SPLINE
  5
245
100
AcDbEntity
  8
_1
100
AcDbSpline
 62
7
  6
CONTINUOUS
 70
0
 71
3
 72
19
 73
15
 74
0
 42
0.0000001
 43
0.0000001
 44
0.0000000001
 40
0.0
 40
0.0
 40
0.0
 40
0.0
 40
0.1254820069
 40
0.1881473748
 40
0.2507093294
 40
0.3131691796
 40
0.3755399826
 40
0.4378430583
 40
0.5001129753
 40
0.6245755101
 40
0.7492878868
 40
0.8744053204
 40
0.9371678153
 40
1.0
 40
1.0
 40
1.0
 40
1.0
 10
47.5980168358
 20
40.1885497914
 30
0.0
 10
47.0647145216
 20
40.2468961501
 30
0.0
 10
46.2702655229
 20
40.4026725418
 30
0.0
 10
45.2529333478
 20
40.7432488067
 30
0.0
 10
44.5163765461
 20
41.0644631576
 30
0.0
 10
43.8115363973
 20
41.4473462113
 30
0.0
 10
43.1423056906
 20
41.8875022578
 30
0.0
 10
42.5133206972
 20
42.3823152176
 30
0.0
 10
41.7360310506
 20
43.1115919401
 30
0.0
 10
40.8851677529
 20
44.1447543489
 30
0.0
 10
40.0835575574
 20
45.5381737641
 30
0.0
 10
39.6216099428
 20
46.7996711275
 30
0.0
 10
39.3788924975
 20
47.8445778104
 30
0.0
 10
39.2999897784
 20
48.3765211308
 30
0.0
 10
39.2723554885
 20
48.6437280781
 30
0.0
  0
SPLINE
  5
246
100
AcDbEntity
  8
_1
100
AcDbSpline
 62
7
  6
CONTINUOUS
 70
0
 71
3
 72
17
 73
13
 74
0
 42
0.0000001
 43
0.0000001
 44
0.0000000001
 40
0.0
 40
0.0
 40
0.0
 40
0.0
 40
0.1257451084
 40
0.1885173207
 40
0.2511643982
 40
0.3136865834
 40
0.3760975569
 40
0.438422969
 40
0.5007019628
 40
0.6251729465
 40
0.7499356025
 40
1.0
 40
1.0
 40
1.0
 40
1.0
 10
47.5980168358
 20
39.6939435652
 30
0.0
 10
47.0275544999
 20
39.7519075708
 30
0.0
 10
46.1773270931
 20
39.9117983047
 30
0.0
 10
45.0872276353
 20
40.2663241718
 30
0.0
 10
44.2974108347
 20
40.6020032585
 30
0.0
 10
43.5409301156
 20
41.0033920383
 30
0.0
 10
42.8220776345
 20
41.4660972078
 30
0.0
 10
42.1457153941
 20
41.987324824
 30
0.0
 10
41.3085011378
 20
42.7564783203
 30
0.0
 10
40.3890947754
 20
43.8497921151
 30
0.0
 10
39.2328730223
 20
45.8196576153
 30
0.0
 10
38.7616686755
 20
47.5091254069
 30
0.0
 10
38.6477356151
 20
48.6437167522
 30
0.0
  0
SPLINE
  5
247
100
AcDbEntity
  8
_1
100
AcDbSpline
 62
7
  6
CONTINUOUS
 70
0
 71
3
 72
20
 73
16
 74
0
 42
0.0000001
 43
0.0000001
 44
0.0000000001
 40
0.0
 40
0.0
 40
0.0
 40
0.0
 40
0.0628233239
 40
0.1255810887
 40
0.1882376814
 40
0.2507938753
 40
0.375492059
 40
0.499941298
 40
0.5622043614
 40
0.6245004881
 40
0.6868642904
 40
0.749317316
 40
0.8118726406
 40
0.8745315321
 40
1.0
 40
1.0
 40
1.0
 40
1.0
 10
57.9254959918
 20
48.6437601403
 30
0.0
 10
57.8978652871
 20
48.376554779
 30
0.0
 10
57.8168636709
 20
47.8449336049
 30
0.0
 10
57.6347485244
 20
47.0601643192
 30
0.0
 10
57.3894000279
 20
46.2937212551
 30
0.0
 10
56.9786697028
 20
45.3060194182
 30
0.0
 10
56.3109369696
 20
44.1447588378
 30
0.0
 10
55.4601317127
 20
43.1117292919
 30
0.0
 10
54.682835041
 20
42.3823891845
 30
0.0
 10
54.0538247624
 20
41.8875847406
 30
0.0
 10
53.3845796621
 20
41.4474176754
 30
0.0
 10
52.679737644
 20
41.0644977783
 30
0.0
 10
51.9431663434
 20
40.7432587941
 30
0.0
 10
50.9258018421
 20
40.4026851339
 30
0.0
 10
50.1313325751
 20
40.2469024249
 30
0.0
 10
49.5980168358
 20
40.1885510822
 30
0.0
  0
SPLINE
  5
248
100
AcDbEntity
  8
_1
100
AcDbSpline
 62
7
  6
CONTINUOUS
 70
0
 71
3
 72
15
 73
11
 74
0
 42
0.0000001
 43
0.0000001
 44
0.0000000001
 40
0.0
 40
0.0
 40
0.0
 40
0.0
 40
0.1256678989
 40
0.2509145758
 40
0.3756601774
 40
0.5000728382
 40
0.6244763161
 40
0.7491538917
 40
0.8743571739
 40
1.0
 40
1.0
 40
1.0
 40
1.0
 10
49.5980168358
 20
59.5934899396
 30
0.0
 10
50.1684557752
 20
59.5355283113
 30
0.0
 10
51.3002415639
 20
59.3235291127
 30
0.0
 10
52.9127864406
 20
58.7190097475
 30
0.0
 10
54.3945755549
 20
57.852299836
 30
0.0
 10
55.7041716385
 20
56.7484691715
 30
0.0
 10
56.8071584281
 20
55.4387390862
 30
0.0
 10
57.6743393057
 20
53.9577051245
 30
0.0
 10
58.2764583246
 20
52.3451243168
 30
0.0
 10
58.4910204938
 20
51.2141098117
 30
0.0
 10
58.5482980565
 20
50.6437167522
 30
0.0
  0
SPLINE
  5
249
100
AcDbEntity
  8
_1
100
AcDbSpline
 62
7
  6
CONTINUOUS
 70
0
 71
3
 72
15
 73
11
 74
0
 42
0.0000001
 43
0.0000001
 44
0.0000000001
 40
0.0
 40
0.0
 40
0.0
 40
0.0
 40
0.1256427287
 40
0.2508491376
 40
0.3755241772
 40
0.4999310118
 40
0.6243406752
 40
0.7490886157
 40
0.8743316508
 40
1.0
 40
1.0
 40
1.0
 40
1.0
 10
38.6477318866
 20
50.6437167522
 30
0.0
 10
38.7050081173
 20
51.2141076063
 30
0.0
 10
38.9196792156
 20
52.3450940311
 30
0.0
 10
39.5214499128
 20
53.9578172261
 30
0.0
 10
40.3890205418
 20
55.4386537704
 30
0.0
 10
41.491860267
 20
56.7484430499
 30
0.0
 10
42.8014716317
 20
57.852333841
 30
0.0
 10
44.2834511008
 20
58.718596849
 30
0.0
 10
45.8957409194
 20
59.3237489691
 30
0.0
 10
47.0275780277
 20
59.5355244761
 30
0.0
 10
47.5980168358
 20
59.593489094
 30
0.0
  0
SPLINE
  5
24A
100
AcDbEntity
  8
_1
100
AcDbSpline
 62
7
  6
CONTINUOUS
 70
0
 71
3
 72
9
 73
5
 74
0
 42
0.0000001
 43
0.0000001
 44
0.0000000001
 40
0.0
 40
0.0
 40
0.0
 40
0.0
 40
0.4998475796
 40
1.0
 40
1.0
 40
1.0
 40
1.0
 10
57.9254959918
 20
48.6437601403
 30
0.0
 10
57.9521443422
 20
48.8089797926
 30
0.0
 10
57.9977232667
 20
49.1411039172
 30
0.0
 10
58.0093381936
 20
49.4762750775
 30
0.0
 10
58.0093381936
 20
49.6437320584
 30
0.0
  0
SPLINE
  5
24B
100
AcDbEntity
  8
_1
100
AcDbSpline
 62
7
  6
CONTINUOUS
 70
0
 71
3
 72
11
 73
7
 74
0
 42
0.0000001
 43
0.0000001
 44
0.0000000001
 40
0.0
 40
0.0
 40
0.0
 40
0.0
 40
0.2500802986
 40
0.5001865085
 40
0.7501175183
 40
1.0
 40
1.0
 40
1.0
 40
1.0
 10
58.0093381936
 20
49.6437320584
 30
0.0
 10
58.0093381936
 20
49.7274792584
 30
0.0
 10
58.005574762
 20
49.8949839259
 30
0.0
 10
57.9916642546
 20
50.1458614456
 30
0.0
 10
57.9650815404
 20
50.3957206441
 30
0.0
 10
57.9388177973
 20
50.5610600489
 30
0.0
 10
57.9254930639
 20
50.6436733267
 30
0.0
  0
SPLINE
  5
24C
100
AcDbEntity
  8
_1
100
AcDbSpline
 62
7
  6
CONTINUOUS
 70
0
 71
3
 72
19
 73
15
 74
0
 42
0.0000001
 43
0.0000001
 44
0.0000000001
 40
0.0
 40
0.0
 40
0.0
 40
0.0
 40
0.1254827728
 40
0.1881479298
 40
0.2507095975
 40
0.3131696313
 40
0.3755406905
 40
0.4378435645
 40
0.5001130182
 40
0.6245759094
 40
0.7492879866
 40
0.8744053206
 40
0.9371680047
 40
1.0
 40
1.0
 40
1.0
 40
1.0
 10
47.5980168358
 20
59.0988824223
 30
0.0
 10
47.0647116099
 20
59.0405322299
 30
0.0
 10
46.2702625072
 20
58.8847518332
 30
0.0
 10
45.252921501
 20
58.5441969101
 30
0.0
 10
44.516370976
 20
58.2229694846
 30
0.0
 10
43.811538912
 20
57.8400706474
 30
0.0
 10
43.1423071353
 20
57.3999161007
 30
0.0
 10
42.5133028902
 20
56.9051303553
 30
0.0
 10
41.7360175326
 20
56.1758476052
 30
0.0
 10
40.8851978886
 20
55.1426572266
 30
0.0
 10
40.0835209034
 20
53.7492750263
 30
0.0
 10
39.6216302532
 20
52.4877548767
 30
0.0
 10
39.3788962693
 20
51.442854286
 30
0.0
 10
39.2999848499
 20
50.9109116363
 30
0.0
 10
39.2723510269
 20
50.6437054362
 30
0.0
  0
SPLINE
  5
24D
100
AcDbEntity
  8
_1
100
AcDbSpline
 62
7
  6
CONTINUOUS
 70
0
 71
3
 72
11
 73
7
 74
0
 42
0.0000001
 43
0.0000001
 44
0.0000000001
 40
0.0
 40
0.0
 40
0.0
 40
0.0
 40
0.2498740661
 40
0.4997754616
 40
0.7499217846
 40
1.0
 40
1.0
 40
1.0
 40
1.0
 10
39.2723510269
 20
50.6437054362
 30
0.0
 10
39.2590214886
 20
50.5610689903
 30
0.0
 10
39.2309151443
 20
50.3959865486
 30
0.0
 10
39.2039631145
 20
50.1460392914
 30
0.0
 10
39.190681518
 20
49.8950522794
 30
0.0
 10
39.1866912202
 20
49.7274897394
 30
0.0
 10
39.1866912202
 20
49.6437167597
 30
0.0
  0
SPLINE
  5
24E
100
AcDbEntity
  8
_1
100
AcDbSpline
 62
7
  6
CONTINUOUS
 70
0
 71
3
 72
11
 73
7
 74
0
 42
0.0000001
 43
0.0000001
 44
0.0000000001
 40
0.0
 40
0.0
 40
0.0
 40
0.0
 40
0.2500788626
 40
0.5002227629
 40
0.7501234578
 40
1.0
 40
1.0
 40
1.0
 40
1.0
 10
39.1866912202
 20
49.6437167597
 30
0.0
 10
39.1866912202
 20
49.5599437652
 30
0.0
 10
39.1906755516
 20
49.3923826227
 30
0.0
 10
39.2039535718
 20
49.1413946242
 30
0.0
 10
39.2310171938
 20
48.8914623426
 30
0.0
 10
39.2590258478
 20
48.7263651432
 30
0.0
 10
39.2723554885
 20
48.6437280781
 30
0.0
  0
SPLINE
  5
24F
100
AcDbEntity
  8
_1
100
AcDbSpline
 62
7
  6
CONTINUOUS
 70
0
 71
3
 72
9
 73
5
 74
0
 42
0.0000001
 43
0.0000001
 44
0.0000000001
 40
0.0
 40
0.0
 40
0.0
 40
0.0
 40
0.7389869996
 40
1.0
 40
1.0
 40
1.0
 40
1.0
 10
55.2257965761
 20
79.9437167522
 30
0.0
 10
55.2327468265
 20
79.9437183156
 30
0.0
 10
55.2422313845
 20
79.9454309806
 30
0.0
 10
55.2509521964
 20
79.948955419
 30
0.0
 10
55.2531840957
 20
79.9499776408
 30
0.0
  0
SPLINE
  5
250
100
AcDbEntity
  8
_1
100
AcDbSpline
 62
7
  6
CONTINUOUS
 70
0
 71
3
 72
11
 73
7
 74
0
 42
0.0000001
 43
0.0000001
 44
0.0000000001
 40
0.0
 40
0.0
 40
0.0
 40
0.0
 40
0.2500623414
 40
0.5000104381
 40
0.7500251844
 40
1.0
 40
1.0
 40
1.0
 40
1.0
 10
47.856203802
 20
49.6439679007
 30
0.0
 10
47.856203802
 20
49.5469148603
 30
0.0
 10
47.89423981
 20
49.3507448255
 30
0.0
 10
48.0582909129
 20
49.1016006799
 30
0.0
 10
48.3047273485
 20
48.9331969181
 30
0.0
 10
48.5009977665
 20
48.8937143484
 30
0.0
 10
48.5980168358
 20
48.8937001325
 30
0.0
  0
SPLINE
  5
251
100
AcDbEntity
  8
_1
100
AcDbSpline
 62
7
  6
CONTINUOUS
 70
0
 71
3
 72
11
 73
7
 74
0
 42
0.0000001
 43
0.0000001
 44
0.0000000001
 40
0.0
 40
0.0
 40
0.0
 40
0.0
 40
0.2499751518
 40
0.4999173432
 40
0.7498907758
 40
1.0
 40
1.0
 40
1.0
 40
1.0
 10
48.5980168358
 20
50.3936984202
 30
0.0
 10
48.5010475479
 20
50.3937124722
 30
0.0
 10
48.3048900099
 20
50.3544493702
 30
0.0
 10
48.0584587444
 20
50.186128676
 30
0.0
 10
47.8950594276
 20
49.9369006172
 30
0.0
 10
47.856203802
 20
49.7409891984
 30
0.0
 10
47.856203802
 20
49.6439679007
 30
0.0
  0
SPLINE
  5
252
100
AcDbEntity
  8
_1
100
AcDbSpline
 62
7
  6
CONTINUOUS
 70
0
 71
3
 72
11
 73
7
 74
0
 42
0.0000001
 43
0.0000001
 44
0.0000000001
 40
0.0
 40
0.0
 40
0.0
 40
0.0
 40
0.2500828124
 40
0.5000648046
 40
0.7500229279
 40
1.0
 40
1.0
 40
1.0
 40
1.0
 10
49.3397908821
 20
49.6437167577
 30
0.0
 10
49.3397908821
 20
49.7407484731
 30
0.0
 10
49.3010967933
 20
49.936716865
 30
0.0
 10
49.1376895873
 20
50.1860503471
 30
0.0
 10
48.8911987221
 20
50.3544053603
 30
0.0
 10
48.6950075231
 20
50.3937183354
 30
0.0
 10
48.5980168358
 20
50.3937323905
 30
0.0
  0
SPLINE
  5
253
100
AcDbEntity
  8
_1
100
AcDbSpline
 62
7
  6
CONTINUOUS
 70
0
 71
3
 72
11
 73
7
 74
0
 42
0.0000001
 43
0.0000001
 44
0.0000000001
 40
0.0
 40
0.0
 40
0.0
 40
0.0
 40
0.2499643417
 40
0.4999791924
 40
0.749908771
 40
1.0
 40
1.0
 40
1.0
 40
1.0
 10
48.5980168358
 20
48.8937348727
 30
0.0
 10
48.6950111471
 20
48.8937206604
 30
0.0
 10
48.8912452193
 20
48.9331853681
 30
0.0
 10
49.1376255079
 20
49.1015107178
 30
0.0
 10
49.3017669256
 20
49.3505276161
 30
0.0
 10
49.3397908821
 20
49.546673209
 30
0.0
 10
49.3397908821
 20
49.6437167577
 30
0.0
  0
ENDSEC
  0
SECTION
  2
OBJECTS
  0
DICTIONARY
  5
C
100
AcDbDictionary
280
0
281
1
  3
ACAD_GROUP
350
D
  3
ACAD_MLINESTYLE
350
17
  3
ACAD_LAYOUT
350
1A
  3
ACAD_PLOTSETTINGS
350
19
  3
ACAD_PLOTSTYLENAME
350
E
  0
DICTIONARY
  5
D
102
{ACAD_REACTORS
330
C
102
}
100
AcDbDictionary
280
0
281
1
  0
ACDBDICTIONARYWDFLT
  5
E
102
{ACAD_REACTORS
330
C
102
}
100
AcDbDictionary
281
1
  3
Normal
350
F
100
AcDbDictionaryWithDefault
340
F
  0
DICTIONARY
  5
17
102
{ACAD_REACTORS
330
C
102
}
100
AcDbDictionary
280
0
281
1
  3
Standard
350
18
  0
DICTIONARY
  5
19
102
{ACAD_REACTORS
330
C
102
}
100
AcDbDictionary
281
1
  0
DICTIONARY
  5
1A
102
{ACAD_REACTORS
330
C
102
}
100
AcDbDictionary
281
1
  3
Model
350
254
  3
Layout1
350
255
  0
ACDBPLACEHOLDER
  5
F
102
{ACAD_REACTORS
330
E
102
}
  0
MLINESTYLE
  5
18
102
{ACAD_REACTORS
330
17
102
}
100
AcDbMlineStyle
  2
STANDARD
 70
0
  3

 62
256
 51
90.0
 52
90.0
 71
2
 49
0.5
 62
256
  6
BYLAYER
 49
-0.5
 62
256
  6
BYLAYER
  0
LAYOUT
  5
254
102
{ACAD_REACTORS
330
1A
102
}
100
AcDbPlotSettings
  1

  2
none_device
  4

  6

 40
0.0
 41
0.0
 42
0.0
 43
0.0
 44
210.0
 45
297.0
 46
0.0
 47
0.0
 48
0.0
 49
0.0
140
0.0
141
0.0
142
1.0
143
1.0
 70
1024
 72
1
 73
0
 74
0
  7

 75
0
147
1.0
148
0.0
149
0.0
100
AcDbLayout
  1
Model
 70
0
 71
0
 10
0.0
 20
0.0
 11
210.0
 21
297.0
 12
0.0
 22
0.0
 32
0.0
 14
0.0
 24
0.0
 34
0.0
 15
0.0
 25
0.0
 35
0.0
146
0.0
 13
0.0
 23
0.0
 33
0.0
 16
1.0
 26
0.0
 36
0.0
 17
0.0
 27
1.0
 37
0.0
 76
0
330
211
345
0
346
0
  0
LAYOUT
  5
255
102
{ACAD_REACTORS
330
1A
102
}
100
AcDbPlotSettings
  1

  2
none_device
  4

  6

 40
0.0
 41
0.0
 42
0.0
 43
0.0
 44
210.0
 45
297.0
 46
0.0
 47
0.0
 48
0.0
 49
0.0
140
0.0
141
0.0
142
1.0
143
1.0
 70
0
 72
1
 73
0
 74
0
  7

 75
0
147
1.0
148
0.0
149
0.0
100
AcDbLayout
  1
Layout1
 70
0
 71
1
 10
0.0
 20
0.0
 11
210.0
 21
297.0
 12
0.0
 22
0.0
 32
0.0
 14
0.0
 24
0.0
 34
0.0
 15
0.0
 25
0.0
 35
0.0
146
0.0
 13
0.0
 23
0.0
 33
0.0
 16
1.0
 26
0.0
 36
0.0
 17
0.0
 27
1.0
 37
0.0
 76
0
330
212
345
0
346
0
  0
ENDSEC
  0
EOF
