999
DXF file: C:\Users\sesa63760\Dev\_Creo\CAD\MCADPE0010551_3D-CAD\drw0001_1.dxf
999
Pro/ENGINEER 2019471 by Parametric Technology Corporation
  0
SECTION
  2
HEADER
  9
$ACADVER
  1
AC1024
  9
$DWGCODEPAGE
  3
ANSI_1252
  9
$EXTMAX
 10
68.5572541689
 20
96.9595451818
 30
0.0
  9
$EXTMIN
 10
0.0
 20
0.0
 30
0.0
  9
$LIMMIN
 10
0.0
 20
0.0
  9
$LIMMAX
 10
68.5572541689
 20
96.9595451818
  9
$VIEWCTR
 10
34.2786270845
 20
48.4797725909
  9
$VIEWSIZE
 40
96.9595451818
  9
$CLAYER
  8
0
  9
$LTSCALE
 40
6.3203259081
  9
$CELTYPE
  6
BYLAYER
  9
$DIMSCALE
 40
1.0
  9
$DIMASZ
 40
0.8161577877
  9
$DIMEXO
 40
1.0
  9
$DIMDLI
 40
4.3667706274
  9
$DIMEXE
 40
1.0
  9
$DIMCEN
 40
1.0342351486
  9
$DIMLFAC
 40
1.0
  9
$DIMBLK
  1
_FILLED
  9
$DIMALT
 70
0
  9
$DIMALTF
 40
0.0393700787
  9
$DIMTXT
 40
1.1426209028
  9
$DIMTOL
 70
1
  9
$DIMLIM
 70
0
  9
$DIMTFAC
 40
1.0
  9
$DIMTP
 40
0.01
  9
$DIMTM
 40
0.01
  9
$DIMGAP
 40
0.625
  9
$DIMDSEP
 70
46
  9
$AUNITS
 70
0
  9
$PDMODE
 70
3
  9
$PDSIZE
 40
0.3125
  9
$HANDSEED
  5
37A
  9
$TILEMODE
 70
1
  9
$MEASUREMENT
 70
1
  9
$INSUNITS
 70
4
  0
ENDSEC
  0
SECTION
  2
CLASSES
  0
CLASS
  1
ACDBDICTIONARYWDFLT
  2
AcDbDictionaryWithDefault
  3
AutoCAD 2000
 90
0
 91
1
280
0
281
0
  0
CLASS
  1
ACDBPLACEHOLDER
  2
AcDbPlaceHolder
  3
AutoCAD 2000
 90
0
 91
1
280
0
281
0
  0
CLASS
  1
LAYOUT
  2
AcDbLayout
  3
AutoCAD 2000
 90
0
 91
0
280
0
281
0
  0
ENDSEC
  0
SECTION
  2
TABLES
  0
TABLE
  2
VPORT
  5
8
100
AcDbSymbolTable
 70
2
  0
VPORT
  5
1F4
100
AcDbSymbolTableRecord
100
AcDbViewportTableRecord
  2
*ACTIVE
 70
0
 10
0.0
 20
0.0
 11
1.0
 21
1.0
 12
34.2786270845
 22
48.4797725909
 13
0.0
 23
0.0
 14
1.0
 24
1.0
 15
0.0
 25
0.0
 16
0.0
 26
0.0
 36
1.0
 17
0.0
 27
0.0
 37
0.0
 40
96.9595451818
 41
0.7070707071
 42
50.0
 43
0.0
 44
0.0
 50
0.0
 51
0.0
 71
0
 72
100
 73
1
 74
1
 75
0
 76
0
 77
0
 78
0
  0
ENDTAB
  0
TABLE
  2
LTYPE
  5
5
100
AcDbSymbolTable
 70
6
  0
LTYPE
  5
14
100
AcDbSymbolTableRecord
100
AcDbLinetypeTableRecord
  2
BYBLOCK
 70
0
  3

 72
65
 73
0
 40
0.0
  0
LTYPE
  5
15
100
AcDbSymbolTableRecord
100
AcDbLinetypeTableRecord
  2
BYLAYER
 70
0
  3

 72
65
 73
0
 40
0.0
  0
LTYPE
  5
16
100
AcDbSymbolTableRecord
100
AcDbLinetypeTableRecord
  2
CONTINUOUS
 70
64
  3
Solid line
 72
65
 73
0
 40
0.0
  0
LTYPE
  5
1F5
100
AcDbSymbolTableRecord
100
AcDbLinetypeTableRecord
  2
CENTER
 70
64
  3
____ _ ____ _ ____ _ ____ _ ____ _ ____ _ ____
 72
65
 73
4
 40
0.6
 49
0.375
 74
0
 49
-0.075
 74
0
 49
0.075
 74
0
 49
-0.075
 74
0
  0
LTYPE
  5
1F6
100
AcDbSymbolTableRecord
100
AcDbLinetypeTableRecord
  2
HIDDEN
 70
64
  3
- - - - - - - - - - - - - - - - - - - -
 72
65
 73
2
 40
0.2
 49
0.1
 74
0
 49
-0.1
 74
0
  0
LTYPE
  5
1F7
100
AcDbSymbolTableRecord
100
AcDbLinetypeTableRecord
  2
PHANTOM
 70
64
  3
_____ _ _ _____ _ _ _____ _ _ _____
 72
65
 73
6
 40
0.8
 49
0.45
 74
0
 49
-0.05
 74
0
 49
0.1
 74
0
 49
-0.05
 74
0
 49
0.1
 74
0
 49
-0.05
 74
0
  0
LTYPE
  5
1F8
100
AcDbSymbolTableRecord
100
AcDbLinetypeTableRecord
  2
DOT
 70
64
  3
. . . . . . . . . . . . . . . . . . . .
 72
65
 73
2
 40
0.2
 49
0.1
 74
0
 49
-0.1
 74
0
  0
LTYPE
  5
1F9
100
AcDbSymbolTableRecord
100
AcDbLinetypeTableRecord
  2
DASHED
 70
64
  3
- - - - - - - - - - - - - - - - - - - -
 72
65
 73
2
 40
0.2
 49
0.1
 74
0
 49
-0.1
 74
0
  0
ENDTAB
  0
TABLE
  2
LAYER
  5
2
100
AcDbSymbolTable
 70
36
  0
LAYER
  5
10
100
AcDbSymbolTableRecord
100
AcDbLayerTableRecord
  2
0
 70
0
 62
7
  6
CONTINUOUS
370
-3
390
F
  0
LAYER
  5
1FA
100
AcDbSymbolTableRecord
100
AcDbLayerTableRecord
  2
DEFAULT_1
 70
0
 62
7
  6
CENTER
370
-3
390
F
  0
LAYER
  5
1FB
100
AcDbSymbolTableRecord
100
AcDbLayerTableRecord
  2
DEFAULT_2
 70
0
 62
7
  6
HIDDEN
370
-3
390
F
  0
LAYER
  5
1FC
100
AcDbSymbolTableRecord
100
AcDbLayerTableRecord
  2
DEFAULT_3
 70
0
 62
7
  6
PHANTOM
370
-3
390
F
  0
LAYER
  5
1FD
100
AcDbSymbolTableRecord
100
AcDbLayerTableRecord
  2
00_COMPONENTS
 70
0
 62
7
  6
CONTINUOUS
370
-3
390
F
  0
LAYER
  5
1FE
100
AcDbSymbolTableRecord
100
AcDbLayerTableRecord
  2
01_1_DEFAULT_DATUMS
 70
0
 62
7
  6
CONTINUOUS
370
-3
390
F
  0
LAYER
  5
1FF
100
AcDbSymbolTableRecord
100
AcDbLayerTableRecord
  2
01_PLANES
 70
0
 62
7
  6
CONTINUOUS
370
-3
390
F
  0
LAYER
  5
200
100
AcDbSymbolTableRecord
100
AcDbLayerTableRecord
  2
02_COORD_SYS
 70
0
 62
7
  6
CONTINUOUS
370
-3
390
F
  0
LAYER
  5
201
100
AcDbSymbolTableRecord
100
AcDbLayerTableRecord
  2
03_AXES
 70
0
 62
7
  6
CONTINUOUS
370
-3
390
F
  0
LAYER
  5
202
100
AcDbSymbolTableRecord
100
AcDbLayerTableRecord
  2
04_POINTS
 70
0
 62
7
  6
CONTINUOUS
370
-3
390
F
  0
LAYER
  5
203
100
AcDbSymbolTableRecord
100
AcDbLayerTableRecord
  2
05_CURVES
 70
0
 62
7
  6
CONTINUOUS
370
-3
390
F
  0
LAYER
  5
204
100
AcDbSymbolTableRecord
100
AcDbLayerTableRecord
  2
06_SURFS
 70
0
 62
7
  6
CONTINUOUS
370
-3
390
F
  0
LAYER
  5
205
100
AcDbSymbolTableRecord
100
AcDbLayerTableRecord
  2
07_COSMETICS
 70
0
 62
7
  6
CONTINUOUS
370
-3
390
F
  0
LAYER
  5
206
100
AcDbSymbolTableRecord
100
AcDbLayerTableRecord
  2
10_NOTES
 70
0
 62
7
  6
CONTINUOUS
370
-3
390
F
  0
LAYER
  5
207
100
AcDbSymbolTableRecord
100
AcDbLayerTableRecord
  2
11_NOTES_PUB
 70
0
 62
7
  6
CONTINUOUS
370
-3
390
F
  0
LAYER
  5
208
100
AcDbSymbolTableRecord
100
AcDbLayerTableRecord
  2
13_REF_GTOL
 70
0
 62
7
  6
CONTINUOUS
370
-3
390
F
  0
LAYER
  5
209
100
AcDbSymbolTableRecord
100
AcDbLayerTableRecord
  2
16_MISC
 70
0
 62
7
  6
CONTINUOUS
370
-3
390
F
  0
LAYER
  5
20A
100
AcDbSymbolTableRecord
100
AcDbLayerTableRecord
  2
17_NO_PRINT
 70
0
 62
7
  6
CONTINUOUS
370
-3
390
F
  0
LAYER
  5
20B
100
AcDbSymbolTableRecord
100
AcDbLayerTableRecord
  2
18_DATUM_CAMS_JOINTS
 70
0
 62
7
  6
CONTINUOUS
370
-3
390
F
  0
LAYER
  5
20C
100
AcDbSymbolTableRecord
100
AcDbLayerTableRecord
  2
19_DATUM_FUNCTIONAL
 70
0
 62
7
  6
CONTINUOUS
370
-3
390
F
  0
LAYER
  5
20D
100
AcDbSymbolTableRecord
100
AcDbLayerTableRecord
  2
20_DATUM_KINEMATIC_SCHEME
 70
0
 62
7
  6
CONTINUOUS
370
-3
390
F
  0
ENDTAB
  0
TABLE
  2
STYLE
  5
3
100
AcDbSymbolTable
 70
1
  0
STYLE
  5
11
100
AcDbSymbolTableRecord
100
AcDbTextStyleTableRecord
  2
STANDARD
 70
0
 40
0.0
 41
1.0
 50
0.0
 71
0
 42
0.2
  3
ARIAL.TTF
  4

  0
STYLE
  5
20E
100
AcDbSymbolTableRecord
100
AcDbTextStyleTableRecord
  2
TEXTSTYLE_1
 70
0
 40
0.0
 41
0.8
 50
0.0
 71
0
 42
0.2
  3
gdt
  4

  0
ENDTAB
  0
TABLE
  2
VIEW
  5
6
100
AcDbSymbolTable
 70
0
  0
ENDTAB
  0
TABLE
  2
UCS
  5
7
100
AcDbSymbolTable
 70
0
  0
ENDTAB
  0
TABLE
  2
APPID
  5
9
100
AcDbSymbolTable
 70
1
  0
APPID
  5
20F
100
AcDbSymbolTableRecord
100
AcDbRegAppTableRecord
  2
ACAD
 70
0
  0
ENDTAB
  0
TABLE
  2
BLOCK_RECORD
  5
1
100
AcDbSymbolTable
 70
0
  0
BLOCK_RECORD
  5
210
100
AcDbSymbolTableRecord
100
AcDbBlockTableRecord
  2
*Model_Space
  0
BLOCK_RECORD
  5
211
100
AcDbSymbolTableRecord
100
AcDbBlockTableRecord
  2
*Paper_Space
  0
BLOCK_RECORD
  5
212
100
AcDbSymbolTableRecord
100
AcDbBlockTableRecord
  2
_FILLED
  0
ENDTAB
  0
TABLE
  2
DIMSTYLE
  5
A
100
AcDbSymbolTable
 70
1
100
AcDbDimStyleTable
 71
0
  0
DIMSTYLE
105
213
100
AcDbSymbolTableRecord
100
AcDbDimStyleTableRecord
  2
STANDARD
 70
0
  3

  4

 40
1.0
 41
0.8161577877
 42
1.0
 43
0.38
 44
1.0
 45
0.0
 46
0.0
 47
0.01
 48
0.01
140
1.1426209028
141
0.09
142
0.0
143
25.4
144
1.0
145
0.0
146
1.0
147
0.625
 71
1
 72
0
 73
0
 74
0
 75
0
 76
0
 77
1
 78
8
 79
2
170
0
171
1
172
0
173
0
174
0
175
0
176
0
177
0
178
0
270
2
179
2
271
2
272
2
273
2
274
2
275
0
280
0
281
0
282
0
283
1
284
8
285
0
286
0
287
3
288
0
340
11
278
46
341
212
342
212
343
212
344
212
  0
ENDTAB
  0
ENDSEC
  0
SECTION
  2
BLOCKS
  0
BLOCK
  5
20
100
AcDbEntity
  8
0
100
AcDbBlockBegin
  2
*Model_Space
 70
0
 10
0.0
 20
0.0
 30
0.0
  3
*Model_Space
  1

  0
ENDBLK
  5
21
100
AcDbEntity
  8
0
100
AcDbBlockEnd
  0
BLOCK
  5
1C
100
AcDbEntity
  8
0
100
AcDbBlockBegin
  2
*Paper_Space
 70
0
 10
0.0
 20
0.0
 30
0.0
  3
*Paper_Space
  1

  0
ENDBLK
  5
1D
100
AcDbEntity
  8
0
100
AcDbBlockEnd
  0
BLOCK
  5
214
100
AcDbEntity
  8
0
100
AcDbBlockBegin
  2
_FILLED
 70
64
 10
0.0
 20
0.0
  3
_FILLED
  1

  0
SOLID
  5
215
100
AcDbEntity
  8
0
  6
BYBLOCK
 62
0
100
AcDbTrace
 10
0.0
 20
0.0
 11
-1.0
 21
0.25
 12
-1.0
 22
-0.25
 13
-1.0
 23
-0.25
  0
ENDBLK
  5
216
100
AcDbEntity
  8
0
  6
BYBLOCK
 62
0
100
AcDbBlockEnd
  0
ENDSEC
  0
SECTION
  2
ENTITIES
  0
LINE
  5
217
100
AcDbEntity
  8
0
100
AcDbLine
 62
7
  6
BYLAYER
 10
25.3794889333
 20
8.0793401248
 11
25.323356777
 21
8.0809152593
  0
LINE
  5
218
100
AcDbEntity
  8
0
100
AcDbLine
 62
7
  6
BYLAYER
 10
24.6263002743
 20
7.5032541834
 11
24.7847500182
 21
7.4890288678
  0
LINE
  5
219
100
AcDbEntity
  8
0
100
AcDbLine
 62
7
  6
BYLAYER
 10
24.62626023
 20
7.5031847839
 11
20.2775354203
 21
10.0138654242
  0
LINE
  5
21A
100
AcDbEntity
  8
0
100
AcDbLine
 62
7
  6
BYLAYER
 10
24.5227040696
 20
7.7320778578
 11
20.1739792599
 21
10.2427584981
  0
LINE
  5
21B
100
AcDbEntity
  8
0
100
AcDbLine
 62
7
  6
BYLAYER
 10
29.4987801777
 20
10.1046055042
 11
29.6562760432
 21
10.0901522953
  0
LINE
  5
21C
100
AcDbEntity
  8
0
100
AcDbLine
 62
7
  6
BYLAYER
 10
24.3389091092
 20
10.2518868414
 11
24.5227040696
 21
10.1457751721
  0
LINE
  5
21D
100
AcDbEntity
  8
0
100
AcDbLine
 62
7
  6
BYLAYER
 10
24.7847500182
 20
7.4890288678
 11
25.0457123126
 21
7.5589516912
  0
LINE
  5
21E
100
AcDbEntity
  8
0
100
AcDbLine
 62
7
  6
BYLAYER
 10
25.8607799667
 20
9.1298315553
 11
29.4987801777
 21
10.1046055042
  0
LINE
  5
21F
100
AcDbEntity
  8
0
100
AcDbLine
 62
7
  6
BYLAYER
 10
28.0721126043
 20
9.7223409897
 11
29.5955879352
 21
8.8427819956
  0
LINE
  5
220
100
AcDbEntity
  8
0
100
AcDbLine
 62
7
  6
BYLAYER
 10
29.5223805985
 20
8.9469301373
 11
28.1453225018
 21
9.7419570142
  0
LINE
  5
221
100
AcDbEntity
  8
0
100
AcDbLine
 62
7
  6
BYLAYER
 10
28.2100088138
 20
9.7592892099
 11
29.5050487222
 21
9.0116144848
  0
LINE
  5
222
100
AcDbEntity
  8
0
100
AcDbLine
 62
7
  6
BYLAYER
 10
29.6433921556
 20
9.2384261219
 11
28.5728266335
 21
9.8565034315
  0
LINE
  5
223
100
AcDbEntity
  8
0
100
AcDbLine
 62
7
  6
BYLAYER
 10
24.3389091092
 20
12.7013940928
 11
24.5227040696
 21
12.5952824235
  0
LINE
  5
224
100
AcDbEntity
  8
0
100
AcDbLine
 62
7
  6
BYLAYER
 10
29.2460311739
 20
10.0368833684
 11
29.747534181
 21
9.7473470225
  0
LINE
  5
225
100
AcDbEntity
  8
0
100
AcDbLine
 62
7
  6
BYLAYER
 10
27.3794556092
 20
12.0073367031
 11
27.5632505696
 21
11.9012250338
  0
LINE
  5
226
100
AcDbEntity
  8
0
100
AcDbLine
 62
7
  6
BYLAYER
 10
28.6945804984
 20
84.3656955878
 11
25.5011177179
 21
82.5219599974
  0
LINE
  5
227
100
AcDbEntity
  8
0
100
AcDbLine
 62
7
  6
BYLAYER
 10
37.4653792131
 20
89.42948836
 11
37.6226298386
 21
89.520276509
  0
LINE
  5
228
100
AcDbEntity
  8
0
100
AcDbLine
 62
7
  6
BYLAYER
 10
20.6336005813
 20
18.351566967
 11
24.0630827482
 21
16.3715993076
  0
LINE
  5
229
100
AcDbEntity
  8
0
100
AcDbLine
 62
7
  6
BYLAYER
 10
20.4360252086
 20
78.078219819
 11
20.696987503
 21
78.3096284987
  0
LINE
  5
22A
100
AcDbEntity
  8
0
100
AcDbLine
 62
7
  6
BYLAYER
 10
21.7784935577
 20
77.9161667002
 11
25.150055368
 21
80.9059038537
  0
LINE
  5
22B
100
AcDbEntity
  8
0
100
AcDbLine
 62
7
  6
BYLAYER
 10
33.043305308
 20
81.8550149475
 11
29.8498425275
 21
80.0112793571
  0
LINE
  5
22C
100
AcDbEntity
  8
0
100
AcDbLine
 62
7
  6
BYLAYER
 10
41.8141040228
 20
86.9188077197
 11
41.9713546482
 21
87.0095958687
  0
LINE
  5
22D
100
AcDbEntity
  8
0
100
AcDbLine
 62
7
  6
BYLAYER
 10
20.4214676637
 20
73.9962035582
 11
22.4721035843
 21
75.1801316918
  0
LINE
  5
22E
100
AcDbEntity
  8
0
100
AcDbLine
 62
7
  6
BYLAYER
 10
22.8162034426
 20
74.8888952015
 11
20.4214676637
 21
73.5063021079
  0
LINE
  5
22F
100
AcDbEntity
  8
0
100
AcDbLine
 62
7
  6
BYLAYER
 10
24.0630827482
 20
18.8210438348
 11
22.7549120929
 21
19.5762994286
  0
LINE
  5
230
100
AcDbEntity
  8
0
100
AcDbLine
 62
7
  6
BYLAYER
 10
20.6336005813
 20
22.0258278441
 11
24.0630827482
 21
20.0458601847
  0
LINE
  5
231
100
AcDbEntity
  8
0
100
AcDbLine
 62
7
  6
BYLAYER
 10
25.0457123127
 20
75.7989478585
 11
24.7847500182
 21
75.5675391787
  0
LINE
  5
232
100
AcDbEntity
  8
0
100
AcDbLine
 62
7
  6
BYLAYER
 10
29.4987801777
 20
78.3952232134
 11
25.8607799666
 21
75.1692214353
  0
LINE
  5
233
100
AcDbEntity
  8
0
100
AcDbLine
 62
7
  6
BYLAYER
 10
27.5632505696
 20
74.3636599442
 11
24.5227040696
 21
72.6082100825
  0
LINE
  5
234
100
AcDbEntity
  8
0
100
AcDbLine
 62
7
  6
BYLAYER
 10
24.3389091092
 20
22.9893245486
 11
24.5227040696
 21
22.8832128793
  0
LINE
  5
235
100
AcDbEntity
  8
0
100
AcDbLine
 62
7
  6
BYLAYER
 10
29.5223805985
 20
8.9469301372
 11
29.5956199956
 21
8.8428374958
  0
LINE
  5
236
100
AcDbEntity
  8
0
100
AcDbLine
 62
7
  6
BYLAYER
 10
24.3389091092
 20
70.2648145004
 11
27.3794556092
 21
72.0202643621
  0
LINE
  5
237
100
AcDbEntity
  8
0
100
AcDbLine
 62
7
  6
BYLAYER
 10
27.5632505696
 20
71.9141526928
 11
24.5227040696
 21
70.1587028311
  0
LINE
  5
238
100
AcDbEntity
  8
0
100
AcDbLine
 62
7
  6
BYLAYER
 10
24.3389091092
 20
25.4388318
 11
24.5227040696
 21
25.3327201307
  0
LINE
  5
239
100
AcDbEntity
  8
0
100
AcDbLine
 62
7
  6
BYLAYER
 10
27.3794556092
 20
24.7447744103
 11
27.5632505696
 21
24.638662741
  0
LINE
  5
23A
100
AcDbEntity
  8
0
100
AcDbLine
 62
7
  6
BYLAYER
 10
24.3389091092
 20
70.2648145004
 11
23.9219973384
 21
69.8110685627
  0
LINE
  5
23B
100
AcDbEntity
  8
0
100
AcDbLine
 62
7
  6
BYLAYER
 10
20.6336005813
 20
65.2188057103
 11
22.7549120929
 21
66.4435381719
  0
LINE
  5
23C
100
AcDbEntity
  8
0
100
AcDbLine
 62
7
  6
BYLAYER
 10
20.6336005813
 20
31.0890046742
 11
24.0630827482
 21
29.1090370148
  0
LINE
  5
23D
100
AcDbEntity
  8
0
100
AcDbLine
 62
7
  6
BYLAYER
 10
24.0630827482
 20
31.558481542
 11
22.7549120929
 21
32.3137371359
  0
LINE
  5
23E
100
AcDbEntity
  8
0
100
AcDbLine
 62
7
  6
BYLAYER
 10
20.4214676637
 20
61.258765851
 11
22.4721035843
 21
62.4426939846
  0
LINE
  5
23F
100
AcDbEntity
  8
0
100
AcDbLine
 62
7
  6
BYLAYER
 10
22.8162034426
 20
62.1514574943
 11
20.4214676637
 21
60.7688644007
  0
LINE
  5
240
100
AcDbEntity
  8
0
100
AcDbLine
 62
7
  6
BYLAYER
 10
44.4468554098
 20
20.2608665381
 11
46.8061000712
 21
18.8987868122
  0
LINE
  5
241
100
AcDbEntity
  8
0
100
AcDbLine
 62
7
  6
BYLAYER
 10
46.6196989825
 20
19.3107943452
 11
44.7104697327
 21
20.4130634299
  0
LINE
  5
242
100
AcDbEntity
  8
0
100
AcDbLine
 62
7
  6
BYLAYER
 10
20.6336005813
 20
34.7632655513
 11
24.0630827482
 21
32.7832978919
  0
LINE
  5
243
100
AcDbEntity
  8
0
100
AcDbLine
 62
7
  6
BYLAYER
 10
20.1739792599
 20
35.8859495798
 11
24.5227040696
 21
33.3752689395
  0
LINE
  5
244
100
AcDbEntity
  8
0
100
AcDbLine
 62
7
  6
BYLAYER
 10
45.912586092
 20
21.1070910364
 11
46.6196989825
 21
20.6988484544
  0
LINE
  5
245
100
AcDbEntity
  8
0
100
AcDbLine
 62
7
  6
BYLAYER
 10
20.3906856229
 20
36.387495622
 11
24.7394104359
 21
33.8768149853
  0
LINE
  5
246
100
AcDbEntity
  8
0
100
AcDbLine
 62
7
  6
BYLAYER
 10
20.1739792599
 20
44.6939694045
 11
20.1739792599
 21
44.1326239928
  0
LINE
  5
247
100
AcDbEntity
  8
0
100
AcDbLine
 62
7
  6
BYLAYER
 10
20.1739792599
 20
35.8859495798
 11
20.1739792599
 21
10.2427584981
  0
LINE
  5
248
100
AcDbEntity
  8
0
100
AcDbLine
 62
7
  6
BYLAYER
 10
20.1739792599
 20
51.5730022689
 11
20.1739792599
 21
77.5325880371
  0
LINE
  5
249
100
AcDbEntity
  8
0
100
AcDbLine
 62
7
  6
BYLAYER
 10
20.4214676637
 20
73.9962035582
 11
20.4214676637
 21
73.5063021079
  0
LINE
  5
24A
100
AcDbEntity
  8
0
100
AcDbLine
 62
7
  6
BYLAYER
 10
20.4214676637
 20
61.258765851
 11
20.4214676637
 21
60.7688644007
  0
LINE
  5
24B
100
AcDbEntity
  8
0
100
AcDbLine
 62
7
  6
BYLAYER
 10
20.4214676637
 20
26.7207136064
 11
20.4214676637
 21
26.2308121561
  0
LINE
  5
24C
100
AcDbEntity
  8
0
100
AcDbLine
 62
7
  6
BYLAYER
 10
20.4214676637
 20
13.9832758992
 11
20.4214676637
 21
13.4933744489
  0
LINE
  5
24D
100
AcDbEntity
  8
0
100
AcDbLine
 62
7
  6
BYLAYER
 10
20.6336005813
 20
18.351566967
 11
20.6336005813
 21
22.0258278441
  0
LINE
  5
24E
100
AcDbEntity
  8
0
100
AcDbLine
 62
7
  6
BYLAYER
 10
20.6336005813
 20
31.0890046742
 11
20.6336005813
 21
34.7632655513
  0
LINE
  5
24F
100
AcDbEntity
  8
0
100
AcDbLine
 62
7
  6
BYLAYER
 10
20.6336005813
 20
52.481368003
 11
20.6336005813
 21
56.1556288801
  0
LINE
  5
250
100
AcDbEntity
  8
0
100
AcDbLine
 62
7
  6
BYLAYER
 10
20.6336005813
 20
65.2188057103
 11
20.6336005813
 21
68.8930665873
  0
LINE
  5
251
100
AcDbEntity
  8
0
100
AcDbLine
 62
7
  6
BYLAYER
 10
25.1596127888
 20
82.022205191
 11
25.1563239125
 21
82.0061331216
  0
LINE
  5
252
100
AcDbEntity
  8
0
100
AcDbLine
 62
7
  6
BYLAYER
 10
27.5632505696
 20
61.626222237
 11
24.5227040696
 21
59.8707723753
  0
LINE
  5
253
100
AcDbEntity
  8
0
100
AcDbLine
 62
7
  6
BYLAYER
 10
25.7247805929
 20
34.926611539
 11
21.3760557832
 21
37.4372921793
  0
LINE
  5
254
100
AcDbEntity
  8
0
100
AcDbLine
 62
7
  6
BYLAYER
 10
29.5050487222
 20
9.0116144848
 11
29.5223805985
 21
8.9469301372
  0
LINE
  5
255
100
AcDbEntity
  8
0
100
AcDbLine
 62
7
  6
BYLAYER
 10
22.4190339431
 20
46.8474721311
 11
22.4190339431
 21
49.9386361673
  0
LINE
  5
256
100
AcDbEntity
  8
0
100
AcDbLine
 62
7
  6
BYLAYER
 10
22.7549120929
 20
67.6683545218
 11
22.7549120929
 21
66.4435381719
  0
LINE
  5
257
100
AcDbEntity
  8
0
100
AcDbLine
 62
7
  6
BYLAYER
 10
22.7549120929
 20
54.9309168145
 11
22.7549120929
 21
53.7061004647
  0
LINE
  5
258
100
AcDbEntity
  8
0
100
AcDbLine
 62
7
  6
BYLAYER
 10
22.7549120929
 20
33.5385534857
 11
22.7549120929
 21
32.3137371359
  0
LINE
  5
259
100
AcDbEntity
  8
0
100
AcDbLine
 62
7
  6
BYLAYER
 10
22.7549120929
 20
19.5762994286
 11
22.7549120929
 21
20.8011157785
  0
LINE
  5
25A
100
AcDbEntity
  8
0
100
AcDbLine
 62
7
  6
BYLAYER
 10
29.5083375984
 20
79.5115245507
 11
29.5050487222
 21
79.4954524813
  0
LINE
  5
25B
100
AcDbEntity
  8
0
100
AcDbLine
 62
7
  6
BYLAYER
 10
24.3389091092
 20
57.5273767932
 11
23.9219973384
 21
57.0736308555
  0
LINE
  5
25C
100
AcDbEntity
  8
0
100
AcDbLine
 62
7
  6
BYLAYER
 10
24.3389091092
 20
57.5273767932
 11
27.3794556092
 21
59.2828266549
  0
LINE
  5
25D
100
AcDbEntity
  8
0
100
AcDbLine
 62
7
  6
BYLAYER
 10
27.5632505696
 20
59.1767149856
 11
24.5227040696
 21
57.4212651239
  0
LINE
  5
25E
100
AcDbEntity
  8
0
100
AcDbLine
 62
7
  6
BYLAYER
 10
45.2054913081
 20
39.2334674326
 11
40.9578795003
 21
38.095352783
  0
LINE
  5
25F
100
AcDbEntity
  8
0
100
AcDbLine
 62
7
  6
BYLAYER
 10
24.4166022832
 20
39.192742041
 11
24.8762236046
 21
38.9273855505
  0
LINE
  5
260
100
AcDbEntity
  8
0
100
AcDbLine
 62
7
  6
BYLAYER
 10
28.3057057715
 20
36.9474178911
 11
28.7653270929
 21
36.6820614007
  0
LINE
  5
261
100
AcDbEntity
  8
0
100
AcDbLine
 62
7
  6
BYLAYER
 10
24.62626023
 20
41.3930502785
 11
20.2775354203
 21
43.9037309188
  0
LINE
  5
262
100
AcDbEntity
  8
0
100
AcDbLine
 62
7
  6
BYLAYER
 10
24.0630827482
 20
66.9130989279
 11
24.0630827482
 21
63.2388380508
  0
LINE
  5
263
100
AcDbEntity
  8
0
100
AcDbLine
 62
7
  6
BYLAYER
 10
24.0630827482
 20
54.1756612207
 11
24.0630827482
 21
50.5014003436
  0
LINE
  5
264
100
AcDbEntity
  8
0
100
AcDbLine
 62
7
  6
BYLAYER
 10
24.0630827482
 20
32.7832978919
 11
24.0630827482
 21
29.1090370148
  0
LINE
  5
265
100
AcDbEntity
  8
0
100
AcDbLine
 62
7
  6
BYLAYER
 10
24.0630827482
 20
20.0458601847
 11
24.0630827482
 21
16.3715993076
  0
LINE
  5
266
100
AcDbEntity
  8
0
100
AcDbLine
 62
7
  6
BYLAYER
 10
24.4166022832
 20
41.5140936122
 11
24.4166022832
 21
39.192742041
  0
LINE
  5
267
100
AcDbEntity
  8
0
100
AcDbLine
 62
7
  6
BYLAYER
 10
24.5227040696
 20
75.0219073968
 11
24.5227040696
 21
72.6082100825
  0
LINE
  5
268
100
AcDbEntity
  8
0
100
AcDbLine
 62
7
  6
BYLAYER
 10
24.5227040696
 20
70.1587028311
 11
24.5227040696
 21
59.8707723753
  0
LINE
  5
269
100
AcDbEntity
  8
0
100
AcDbLine
 62
7
  6
BYLAYER
 10
24.5227040696
 20
57.4212651239
 11
24.5227040696
 21
49.0623216286
  0
LINE
  5
26A
100
AcDbEntity
  8
0
100
AcDbLine
 62
7
  6
BYLAYER
 10
24.5227040696
 20
42.1832887642
 11
24.5227040696
 21
41.6219433525
  0
LINE
  5
26B
100
AcDbEntity
  8
0
100
AcDbLine
 62
7
  6
BYLAYER
 10
24.5227040696
 20
33.3752689395
 11
24.5227040696
 21
25.3327201307
  0
LINE
  5
26C
100
AcDbEntity
  8
0
100
AcDbLine
 62
7
  6
BYLAYER
 10
24.5227040696
 20
22.8832128793
 11
24.5227040696
 21
12.5952824235
  0
LINE
  5
26D
100
AcDbEntity
  8
0
100
AcDbLine
 62
7
  6
BYLAYER
 10
24.5227040696
 20
10.1457751721
 11
24.5227040696
 21
7.7320778578
  0
LINE
  5
26E
100
AcDbEntity
  8
0
100
AcDbLine
 62
7
  6
BYLAYER
 10
24.8762236046
 20
41.3828456516
 11
24.8762236046
 21
38.9273855505
  0
LINE
  5
26F
100
AcDbEntity
  8
0
100
AcDbLine
 62
7
  6
BYLAYER
 10
26.0111576469
 20
49.0643480345
 11
26.0111576469
 21
48.8459336379
  0
LINE
  5
270
100
AcDbEntity
  8
0
100
AcDbLine
 62
7
  6
BYLAYER
 10
26.0111576469
 20
44.1183846427
 11
26.0111576469
 21
43.8999702461
  0
LINE
  5
271
100
AcDbEntity
  8
0
100
AcDbLine
 62
7
  6
BYLAYER
 10
20.5966006725
 20
45.6854755619
 11
21.4938631727
 21
46.6588183174
  0
LINE
  5
272
100
AcDbEntity
  8
0
100
AcDbLine
 62
7
  6
BYLAYER
 10
45.983305529
 20
68.0151698762
 11
45.2054913081
 21
67.566101307
  0
LINE
  5
273
100
AcDbEntity
  8
0
100
AcDbLine
 62
7
  6
BYLAYER
 10
20.6336005813
 20
52.481368003
 11
22.7549120929
 21
53.7061004647
  0
LINE
  5
274
100
AcDbEntity
  8
0
100
AcDbLine
 62
7
  6
BYLAYER
 10
46.5489885988
 20
67.2803120571
 11
46.5009037306
 21
67.2525504112
  0
LINE
  5
275
100
AcDbEntity
  8
0
100
AcDbLine
 62
7
  6
BYLAYER
 10
41.1724200494
 20
39.459241127
 11
44.7604334195
 21
40.4206214895
  0
LINE
  5
276
100
AcDbEntity
  8
0
100
AcDbLine
 62
7
  6
BYLAYER
 10
40.9578795003
 20
38.095352783
 11
40.7043752046
 21
38.1181399235
  0
LINE
  5
277
100
AcDbEntity
  8
0
100
AcDbLine
 62
7
  6
BYLAYER
 10
24.6262805147
 20
41.3930856619
 11
24.7394104325
 21
41.3706267705
  0
LINE
  5
278
100
AcDbEntity
  8
0
100
AcDbLine
 62
7
  6
BYLAYER
 10
26.9975351162
 20
40.1521180121
 11
28.3057057715
 21
39.3968624183
  0
LINE
  5
279
100
AcDbEntity
  8
0
100
AcDbLine
 62
7
  6
BYLAYER
 10
24.5227040696
 20
41.6219433525
 11
20.1739792599
 21
44.1326239928
  0
LINE
  5
27A
100
AcDbEntity
  8
0
100
AcDbLine
 62
7
  6
BYLAYER
 10
28.3057057715
 20
39.5194005051
 11
25.0510122903
 21
41.3984561527
  0
LINE
  5
27B
100
AcDbEntity
  8
0
100
AcDbLine
 62
7
  6
BYLAYER
 10
20.1739792599
 20
44.6939694045
 11
24.5227040696
 21
42.1832887642
  0
LINE
  5
27C
100
AcDbEntity
  8
0
100
AcDbLine
 62
7
  6
BYLAYER
 10
26.537892968
 20
41.9280787225
 11
28.3057057715
 21
40.9074546142
  0
LINE
  5
27D
100
AcDbEntity
  8
0
100
AcDbLine
 62
7
  6
BYLAYER
 10
24.9453254822
 20
43.1747949215
 11
20.5966006725
 21
45.6854755618
  0
LINE
  5
27E
100
AcDbEntity
  8
0
100
AcDbLine
 62
7
  6
BYLAYER
 10
26.0111576469
 20
44.1183846427
 11
25.9759467085
 21
44.1962050941
  0
LINE
  5
27F
100
AcDbEntity
  8
0
100
AcDbLine
 62
7
  6
BYLAYER
 10
26.7677587527
 20
44.3367914908
 11
26.7677587527
 21
49.5011692791
  0
LINE
  5
280
100
AcDbEntity
  8
0
100
AcDbLine
 62
7
  6
BYLAYER
 10
26.9975351162
 20
40.1521180121
 11
26.9975351162
 21
40.2746560989
  0
LINE
  5
281
100
AcDbEntity
  8
0
100
AcDbLine
 62
7
  6
BYLAYER
 10
28.2703544068
 20
73.7921011975
 11
28.2703544068
 21
73.3021997472
  0
LINE
  5
282
100
AcDbEntity
  8
0
100
AcDbLine
 62
7
  6
BYLAYER
 10
28.2703544068
 20
61.0546634903
 11
28.2703544068
 21
60.56476204
  0
LINE
  5
283
100
AcDbEntity
  8
0
100
AcDbLine
 62
7
  6
BYLAYER
 10
28.2703544068
 20
13.2892720882
 11
28.2703544068
 21
13.7791735385
  0
LINE
  5
284
100
AcDbEntity
  8
0
100
AcDbLine
 62
7
  6
BYLAYER
 10
28.2703544068
 20
26.0267097954
 11
28.2703544068
 21
26.5166112457
  0
LINE
  5
285
100
AcDbEntity
  8
0
100
AcDbLine
 62
7
  6
BYLAYER
 10
28.3057057715
 20
36.9474178911
 11
28.3057057715
 21
39.5194005051
  0
LINE
  5
286
100
AcDbEntity
  8
0
100
AcDbLine
 62
7
  6
BYLAYER
 10
28.3057057715
 20
40.9074546142
 11
28.3057057715
 21
42.9487198281
  0
LINE
  5
287
100
AcDbEntity
  8
0
100
AcDbLine
 62
7
  6
BYLAYER
 10
28.7653270929
 20
43.2140807377
 11
28.7653270929
 21
36.6820614007
  0
LINE
  5
288
100
AcDbEntity
  8
0
100
AcDbLine
 62
7
  6
BYLAYER
 10
24.7394104325
 20
41.3706267705
 11
25.7247805929
 21
41.4586308761
  0
LINE
  5
289
100
AcDbEntity
  8
0
100
AcDbLine
 62
7
  6
BYLAYER
 10
21.4938631728
 20
46.6588183174
 11
25.8425879824
 21
44.1481376771
  0
LINE
  5
28A
100
AcDbEntity
  8
0
100
AcDbLine
 62
7
  6
BYLAYER
 10
25.9759485524
 20
44.1962082878
 11
21.6272237427
 21
46.7068889281
  0
LINE
  5
28B
100
AcDbEntity
  8
0
100
AcDbLine
 62
7
  6
BYLAYER
 10
26.7677587527
 20
44.3367914908
 11
22.4190339431
 21
46.8474721311
  0
LINE
  5
28C
100
AcDbEntity
  8
0
100
AcDbLine
 62
7
  6
BYLAYER
 10
40.9578795003
 20
38.0953527829
 11
40.5718188659
 21
38.3182399518
  0
LINE
  5
28D
100
AcDbEntity
  8
0
100
AcDbLine
 62
7
  6
BYLAYER
 10
25.8425879824
 20
44.1481376771
 11
24.9453254822
 21
43.1747949215
  0
LINE
  5
28E
100
AcDbEntity
  8
0
100
AcDbLine
 62
7
  6
BYLAYER
 10
26.7677587527
 20
49.5011692791
 11
26.0111576469
 21
49.0643480345
  0
LINE
  5
28F
100
AcDbEntity
  8
0
100
AcDbLine
 62
7
  6
BYLAYER
 10
21.9013817739
 20
46.5486072958
 11
22.4190339431
 21
46.8474721311
  0
LINE
  5
290
100
AcDbEntity
  8
0
100
AcDbLine
 62
7
  6
BYLAYER
 10
25.9759467085
 20
44.1962050941
 11
25.8909499946
 21
44.1877885475
  0
LINE
  5
291
100
AcDbEntity
  8
0
100
AcDbLine
 62
7
  6
BYLAYER
 10
49.1167345468
 20
41.4090541968
 11
48.8774721241
 21
41.4818038184
  0
LINE
  5
292
100
AcDbEntity
  8
0
100
AcDbLine
 62
7
  6
BYLAYER
 10
24.7298163903
 20
48.6045354807
 11
20.3810915807
 21
51.115216121
  0
LINE
  5
293
100
AcDbEntity
  8
0
100
AcDbLine
 62
7
  6
BYLAYER
 10
24.5227040696
 20
49.0623216286
 11
20.1739792599
 21
51.5730022689
  0
LINE
  5
294
100
AcDbEntity
  8
0
100
AcDbLine
 62
7
  6
BYLAYER
 10
24.0630827482
 20
50.5014003436
 11
20.6336005813
 21
52.481368003
  0
LINE
  5
295
100
AcDbEntity
  8
0
100
AcDbLine
 62
7
  6
BYLAYER
 10
43.6599623585
 20
40.1257588013
 11
45.2054913081
 21
39.2334674326
  0
LINE
  5
296
100
AcDbEntity
  8
0
100
AcDbLine
 62
7
  6
BYLAYER
 10
25.323356777
 20
8.0809152593
 11
25.4277690676
 21
8.5911568904
  0
LINE
  5
297
100
AcDbEntity
  8
0
100
AcDbLine
 62
7
  6
BYLAYER
 10
20.3906856229
 20
36.387495622
 11
21.3760557832
 21
37.4372921793
  0
LINE
  5
298
100
AcDbEntity
  8
0
100
AcDbLine
 62
7
  6
BYLAYER
 10
26.0111576469
 20
43.8999702461
 11
26.7677587527
 21
44.3367914908
  0
LINE
  5
299
100
AcDbEntity
  8
0
100
AcDbLine
 62
7
  6
BYLAYER
 10
21.5422251849
 20
46.6984691878
 11
21.6272218989
 21
46.7068857344
  0
LINE
  5
29A
100
AcDbEntity
  8
0
100
AcDbLine
 62
7
  6
BYLAYER
 10
24.7298370191
 20
48.6045711535
 11
24.9453254821
 21
48.5588137309
  0
LINE
  5
29B
100
AcDbEntity
  8
0
100
AcDbLine
 62
7
  6
BYLAYER
 10
45.983305529
 20
39.6825360018
 11
44.7224863027
 21
40.4104538538
  0
LINE
  5
29C
100
AcDbEntity
  8
0
100
AcDbLine
 62
7
  6
BYLAYER
 10
22.7549120929
 20
53.7061004647
 11
24.0630827482
 21
52.9508448708
  0
LINE
  5
29D
100
AcDbEntity
  8
0
100
AcDbLine
 62
7
  6
BYLAYER
 10
46.2296138018
 20
40.8861944429
 11
45.2054913081
 21
41.4774584641
  0
LINE
  5
29E
100
AcDbEntity
  8
0
100
AcDbLine
 62
7
  6
BYLAYER
 10
45.2054913081
 20
41.8462354421
 11
46.5489885988
 21
41.0705844672
  0
LINE
  5
29F
100
AcDbEntity
  8
0
100
AcDbLine
 62
7
  6
BYLAYER
 10
20.6336005813
 20
56.1556288801
 11
24.0630827482
 21
54.1756612207
  0
LINE
  5
2A0
100
AcDbEntity
  8
0
100
AcDbLine
 62
7
  6
BYLAYER
 10
25.4277690676
 20
75.2079011664
 11
25.323356777
 21
75.5975785891
  0
LINE
  5
2A1
100
AcDbEntity
  8
0
100
AcDbLine
 62
7
  6
BYLAYER
 10
25.3988093714
 20
81.5503970025
 11
25.3261775865
 21
81.8214663045
  0
LINE
  5
2A2
100
AcDbEntity
  8
0
100
AcDbLine
 62
7
  6
BYLAYER
 10
29.747534181
 20
9.7473470225
 11
29.6433941019
 21
9.2384356335
  0
LINE
  5
2A3
100
AcDbEntity
  8
0
100
AcDbLine
 62
7
  6
BYLAYER
 10
25.7247805929
 20
34.926611539
 11
24.7394104359
 21
33.8768149853
  0
LINE
  5
2A4
100
AcDbEntity
  8
0
100
AcDbLine
 62
7
  6
BYLAYER
 10
28.7653270929
 20
43.2140807377
 11
25.7247805929
 21
41.4586308761
  0
LINE
  5
2A5
100
AcDbEntity
  8
0
100
AcDbLine
 62
7
  6
BYLAYER
 10
24.4166022832
 20
39.192742041
 11
21.3760557832
 21
37.4372921793
  0
LINE
  5
2A6
100
AcDbEntity
  8
0
100
AcDbLine
 62
7
  6
BYLAYER
 10
24.9453254821
 20
48.5588137309
 11
25.8425879825
 21
48.621534283
  0
LINE
  5
2A7
100
AcDbEntity
  8
0
100
AcDbLine
 62
7
  6
BYLAYER
 10
45.2054913081
 20
43.6017749708
 11
48.8774721241
 21
41.4818038184
  0
LINE
  5
2A8
100
AcDbEntity
  8
0
100
AcDbLine
 62
7
  6
BYLAYER
 10
45.2054913081
 20
43.6671606135
 11
49.1167346182
 21
41.4090543207
  0
LINE
  5
2A9
100
AcDbEntity
  8
0
100
AcDbLine
 62
7
  6
BYLAYER
 10
24.5227040696
 20
57.4212651239
 11
24.3389091092
 21
57.5273767932
  0
LINE
  5
2AA
100
AcDbEntity
  8
0
100
AcDbLine
 62
7
  6
BYLAYER
 10
29.6433941209
 20
79.4283777929
 11
29.747534181
 21
79.0397163622
  0
LINE
  5
2AB
100
AcDbEntity
  8
0
100
AcDbLine
 62
7
  6
BYLAYER
 10
40.5386059825
 20
17.5961999396
 11
40.5386059825
 21
15.8815448636
  0
LINE
  5
2AC
100
AcDbEntity
  8
0
100
AcDbLine
 62
7
  6
BYLAYER
 10
24.8762236046
 20
38.9273855505
 11
26.9975351162
 21
40.1521180121
  0
LINE
  5
2AD
100
AcDbEntity
  8
0
100
AcDbLine
 62
7
  6
BYLAYER
 10
24.5227040696
 20
59.8707723753
 11
24.3389091092
 21
59.9768840446
  0
LINE
  5
2AE
100
AcDbEntity
  8
0
100
AcDbLine
 62
7
  6
BYLAYER
 10
25.1298212966
 20
60.2212895775
 11
27.0673921694
 21
59.1026578193
  0
LINE
  5
2AF
100
AcDbEntity
  8
0
100
AcDbLine
 62
7
  6
BYLAYER
 10
27.3794556092
 20
59.2828266549
 11
27.5632505696
 21
59.1767149856
  0
LINE
  5
2B0
100
AcDbEntity
  8
0
100
AcDbLine
 62
7
  6
BYLAYER
 10
25.7247805929
 20
34.926611539
 11
28.7653270929
 21
36.6820614007
  0
LINE
  5
2B1
100
AcDbEntity
  8
0
100
AcDbLine
 62
7
  6
BYLAYER
 10
20.6336005813
 20
31.0890046742
 11
22.7549120929
 21
32.3137371359
  0
LINE
  5
2B2
100
AcDbEntity
  8
0
100
AcDbLine
 62
7
  6
BYLAYER
 10
24.0630827482
 20
63.2388380508
 11
20.6336005813
 21
65.2188057103
  0
LINE
  5
2B3
100
AcDbEntity
  8
0
100
AcDbLine
 62
7
  6
BYLAYER
 10
28.2703544068
 20
60.9915243239
 11
27.3671271698
 21
61.5129910152
  0
LINE
  5
2B4
100
AcDbEntity
  8
0
100
AcDbLine
 62
7
  6
BYLAYER
 10
45.2054913081
 20
67.566101307
 11
45.2054913081
 21
41.0719146335
  0
LINE
  5
2B5
100
AcDbEntity
  8
0
100
AcDbLine
 62
7
  6
BYLAYER
 10
46.6196989825
 20
20.6988484544
 11
46.6196989825
 21
19.3107943452
  0
LINE
  5
2B6
100
AcDbEntity
  8
0
100
AcDbLine
 62
7
  6
BYLAYER
 10
24.3389091092
 20
22.9893245486
 11
23.9219973384
 21
22.5355786109
  0
LINE
  5
2B7
100
AcDbEntity
  8
0
100
AcDbLine
 62
7
  6
BYLAYER
 10
20.4214676637
 20
26.7207136064
 11
22.4721035843
 21
27.90464174
  0
LINE
  5
2B8
100
AcDbEntity
  8
0
100
AcDbLine
 62
7
  6
BYLAYER
 10
22.7549120929
 20
66.4435381719
 11
24.0630827482
 21
65.688282578
  0
LINE
  5
2B9
100
AcDbEntity
  8
0
100
AcDbLine
 62
7
  6
BYLAYER
 10
20.6336005813
 20
68.8930665873
 11
24.0630827482
 21
66.9130989279
  0
LINE
  5
2BA
100
AcDbEntity
  8
0
100
AcDbLine
 62
7
  6
BYLAYER
 10
49.4481143314
 20
71.485270581
 11
49.4481143314
 21
71.2148913101
  0
LINE
  5
2BB
100
AcDbEntity
  8
0
100
AcDbLine
 62
7
  6
BYLAYER
 10
49.4481143314
 20
40.6765964842
 11
49.4481143314
 21
21.0254212024
  0
LINE
  5
2BC
100
AcDbEntity
  8
0
100
AcDbLine
 62
7
  6
BYLAYER
 10
46.2296138018
 20
40.8861944429
 11
45.983305529
 21
39.6825360018
  0
LINE
  5
2BD
100
AcDbEntity
  8
0
100
AcDbLine
 62
7
  6
BYLAYER
 10
25.3189162559
 20
7.8012156702
 11
25.3795377818
 21
7.9062158159
  0
LINE
  5
2BE
100
AcDbEntity
  8
0
100
AcDbLine
 62
7
  6
BYLAYER
 10
22.8162034426
 20
27.6134052497
 11
20.4214676637
 21
26.2308121561
  0
LINE
  5
2BF
100
AcDbEntity
  8
0
100
AcDbLine
 62
7
  6
BYLAYER
 10
46.2296138018
 20
40.8861944429
 11
46.5489885988
 21
41.0705844672
  0
LINE
  5
2C0
100
AcDbEntity
  8
0
100
AcDbLine
 62
7
  6
BYLAYER
 10
45.2054913081
 20
39.2334674326
 11
45.983305529
 21
39.6825360018
  0
LINE
  5
2C1
100
AcDbEntity
  8
0
100
AcDbLine
 62
7
  6
BYLAYER
 10
24.5227040696
 20
70.1587028311
 11
24.3389091092
 21
70.2648145004
  0
LINE
  5
2C2
100
AcDbEntity
  8
0
100
AcDbLine
 62
7
  6
BYLAYER
 10
27.5632505696
 20
27.0881699924
 11
24.5227040696
 21
25.3327201307
  0
LINE
  5
2C3
100
AcDbEntity
  8
0
100
AcDbLine
 62
7
  6
BYLAYER
 10
24.3389091092
 20
22.9893245486
 11
27.3794556092
 21
24.7447744103
  0
LINE
  5
2C4
100
AcDbEntity
  8
0
100
AcDbLine
 62
7
  6
BYLAYER
 10
27.5632505696
 20
24.638662741
 11
24.5227040696
 21
22.8832128793
  0
LINE
  5
2C5
100
AcDbEntity
  8
0
100
AcDbLine
 62
7
  6
BYLAYER
 10
24.5227040696
 20
72.6082100825
 11
24.3389091092
 21
72.7143217518
  0
LINE
  5
2C6
100
AcDbEntity
  8
0
100
AcDbLine
 62
7
  6
BYLAYER
 10
25.1298212966
 20
72.9587272847
 11
27.0673921694
 21
71.8400955265
  0
LINE
  5
2C7
100
AcDbEntity
  8
0
100
AcDbLine
 62
7
  6
BYLAYER
 10
27.3794556092
 20
72.0202643621
 11
27.5632505696
 21
71.9141526928
  0
LINE
  5
2C8
100
AcDbEntity
  8
0
100
AcDbLine
 62
7
  6
BYLAYER
 10
20.1739792599
 20
77.5325880371
 11
24.5227040696
 21
75.0219073968
  0
LINE
  5
2C9
100
AcDbEntity
  8
0
100
AcDbLine
 62
7
  6
BYLAYER
 10
45.983305529
 20
68.0151698762
 11
46.1593988015
 21
67.357971646
  0
LINE
  5
2CA
100
AcDbEntity
  8
0
100
AcDbLine
 62
7
  6
BYLAYER
 10
24.3389091092
 20
10.2518868414
 11
23.9219973384
 21
9.7981409037
  0
LINE
  5
2CB
100
AcDbEntity
  8
0
100
AcDbLine
 62
7
  6
BYLAYER
 10
20.6336005813
 20
18.351566967
 11
22.7549120929
 21
19.5762994286
  0
LINE
  5
2CC
100
AcDbEntity
  8
0
100
AcDbLine
 62
7
  6
BYLAYER
 10
24.7847500182
 20
75.5675391787
 11
20.4360252086
 21
78.078219819
  0
LINE
  5
2CD
100
AcDbEntity
  8
0
100
AcDbLine
 62
7
  6
BYLAYER
 10
28.2703544068
 20
73.7289620311
 11
27.3671271698
 21
74.2504287224
  0
LINE
  5
2CE
100
AcDbEntity
  8
0
100
AcDbLine
 62
7
  6
BYLAYER
 10
25.8607799667
 20
75.1692214353
 11
25.3607867347
 21
75.4578861319
  0
LINE
  5
2CF
100
AcDbEntity
  8
0
100
AcDbLine
 62
7
  6
BYLAYER
 10
20.696987503
 20
78.3096284987
 11
25.0457123126
 21
75.7989478584
  0
LINE
  5
2D0
100
AcDbEntity
  8
0
100
AcDbLine
 62
7
  6
BYLAYER
 10
25.3795377818
 20
75.8371498817
 11
20.9701914463
 21
78.382831377
  0
LINE
  5
2D1
100
AcDbEntity
  8
0
100
AcDbLine
 62
7
  6
BYLAYER
 10
46.1593988015
 20
67.357971646
 11
46.2509480479
 21
67.2278558441
  0
LINE
  5
2D2
100
AcDbEntity
  8
0
100
AcDbLine
 62
7
  6
BYLAYER
 10
20.4214676637
 20
13.9832758992
 11
22.4721035843
 21
15.1672040328
  0
LINE
  5
2D3
100
AcDbEntity
  8
0
100
AcDbLine
 62
7
  6
BYLAYER
 10
22.8162034426
 20
14.8759675425
 11
20.4214676637
 21
13.4933744489
  0
LINE
  5
2D4
100
AcDbEntity
  8
0
100
AcDbLine
 62
7
  6
BYLAYER
 10
45.4352018549
 20
67.6987239614
 11
46.2509079724
 21
67.2277864689
  0
LINE
  5
2D5
100
AcDbEntity
  8
0
100
AcDbLine
 62
7
  6
BYLAYER
 10
46.1593988015
 20
67.357971646
 11
45.5021929328
 21
67.7374010473
  0
LINE
  5
2D6
100
AcDbEntity
  8
0
100
AcDbLine
 62
7
  6
BYLAYER
 10
25.150055368
 20
80.9059038537
 11
29.4987801777
 21
78.3952232134
  0
LINE
  5
2D7
100
AcDbEntity
  8
0
100
AcDbLine
 62
7
  6
BYLAYER
 10
49.3539135225
 20
72.0169114013
 11
43.2913615137
 21
86.7247201624
  0
LINE
  5
2D8
100
AcDbEntity
  8
0
100
AcDbLine
 62
7
  6
BYLAYER
 10
27.5632505696
 20
14.3507322852
 11
24.5227040696
 21
12.5952824235
  0
LINE
  5
2D9
100
AcDbEntity
  8
0
100
AcDbLine
 62
7
  6
BYLAYER
 10
29.747534181
 20
79.0397163622
 11
25.3988093714
 21
81.5503970025
  0
LINE
  5
2DA
100
AcDbEntity
  8
0
100
AcDbLine
 62
7
  6
BYLAYER
 10
25.1837766638
 20
81.9036796557
 11
29.5325014734
 21
79.3929990154
  0
LINE
  5
2DB
100
AcDbEntity
  8
0
100
AcDbLine
 62
7
  6
BYLAYER
 10
29.5050487222
 20
79.4954524813
 11
25.1563239125
 21
82.0061331216
  0
LINE
  5
2DC
100
AcDbEntity
  8
0
100
AcDbLine
 62
7
  6
BYLAYER
 10
25.1596127888
 20
82.022205191
 11
29.5083375984
 21
79.5115245507
  0
LINE
  5
2DD
100
AcDbEntity
  8
0
100
AcDbLine
 62
7
  6
BYLAYER
 10
29.8498425275
 20
80.0112793571
 11
25.5011177179
 21
82.5219599974
  0
LINE
  5
2DE
100
AcDbEntity
  8
0
100
AcDbLine
 62
7
  6
BYLAYER
 10
24.3389091092
 20
10.2518868414
 11
27.3794556092
 21
12.0073367031
  0
LINE
  5
2DF
100
AcDbEntity
  8
0
100
AcDbLine
 62
7
  6
BYLAYER
 10
27.5632505696
 20
11.9012250338
 11
24.5227040696
 21
10.1457751721
  0
LINE
  5
2E0
100
AcDbEntity
  8
0
100
AcDbLine
 62
7
  6
BYLAYER
 10
45.9125951453
 20
21.1071067176
 11
40.8921579011
 21
18.2085732251
  0
LINE
  5
2E1
100
AcDbEntity
  8
0
100
AcDbLine
 62
7
  6
BYLAYER
 10
28.6945804984
 20
84.3656955878
 11
33.043305308
 21
81.8550149475
  0
LINE
  5
2E2
100
AcDbEntity
  8
0
100
AcDbLine
 62
7
  6
BYLAYER
 10
48.7410104942
 20
19.8006746314
 11
47.256092436
 21
18.9433619083
  0
LINE
  5
2E3
100
AcDbEntity
  8
0
100
AcDbLine
 62
7
  6
BYLAYER
 10
39.8315021453
 20
14.6567982926
 11
39.6174294325
 21
14.5332040921
  0
LINE
  5
2E4
100
AcDbEntity
  8
0
100
AcDbLine
 62
7
  6
BYLAYER
 10
32.8331157185
 20
10.6163021238
 11
29.7955845418
 21
8.8625931494
  0
LINE
  5
2E5
100
AcDbEntity
  8
0
100
AcDbLine
 62
7
  6
BYLAYER
 10
29.5325377925
 20
79.3930622187
 11
29.6075002009
 21
79.4004281981
  0
LINE
  5
2E6
100
AcDbEntity
  8
0
100
AcDbLine
 62
7
  6
BYLAYER
 10
43.2913615137
 20
86.7247201624
 11
42.9712902343
 21
87.108569544
  0
LINE
  5
2E7
100
AcDbEntity
  8
0
100
AcDbLine
 62
7
  6
BYLAYER
 10
36.9326526612
 20
89.0016281587
 11
41.2813774709
 21
86.4909475184
  0
LINE
  5
2E8
100
AcDbEntity
  8
0
100
AcDbLine
 62
7
  6
BYLAYER
 10
41.8141040228
 20
86.9188077197
 11
37.4653792131
 21
89.42948836
  0
LINE
  5
2E9
100
AcDbEntity
  8
0
100
AcDbLine
 62
7
  6
BYLAYER
 10
37.6226298386
 20
89.520276509
 11
41.9713546482
 21
87.0095958687
  0
LINE
  5
2EA
100
AcDbEntity
  8
0
100
AcDbLine
 62
7
  6
BYLAYER
 10
38.6226128715
 20
89.6193322781
 11
42.9713376812
 21
87.1086516378
  0
ARC
  5
2EB
100
AcDbEntity
  8
0
100
AcDbCircle
 62
7
  6
BYLAYER
 10
12.7849203483
 20
82.8254590844
 40
18.3420818315
100
AcDbArc
 50
325.540491492
 51
326.6614421987
  0
ARC
  5
2EC
100
AcDbEntity
  8
0
100
AcDbCircle
 62
7
  6
BYLAYER
 10
12.7849203485
 20
70.088021377
 40
18.3420818313
100
AcDbArc
 50
325.540491492
 51
326.6614421987
  0
ARC
  5
2ED
100
AcDbEntity
  8
0
100
AcDbCircle
 62
7
  6
BYLAYER
 10
27.6647065725
 20
73.9603834908
 40
0.5914011163
100
AcDbArc
 50
48.8329374302
 51
53.1526016983
  0
ARC
  5
2EE
100
AcDbEntity
  8
0
100
AcDbCircle
 62
7
  6
BYLAYER
 10
27.6647065725
 20
61.2229457836
 40
0.5914011163
100
AcDbArc
 50
48.8329374308
 51
53.1526016981
  0
ARC
  5
2EF
100
AcDbEntity
  8
0
100
AcDbCircle
 62
7
  6
BYLAYER
 10
27.6647065725
 20
26.684893539
 40
0.5914011163
100
AcDbArc
 50
48.8329374315
 51
53.152601698
  0
ARC
  5
2F0
100
AcDbEntity
  8
0
100
AcDbCircle
 62
7
  6
BYLAYER
 10
27.66479844
 20
13.9475779673
 40
0.5912486964
100
AcDbArc
 50
48.9515391502
 51
53.1056766279
  0
ARC
  5
2F1
100
AcDbEntity
  8
0
100
AcDbCircle
 62
7
  6
BYLAYER
 10
27.8898029325
 20
14.0952644301
 40
0.3509801444
100
AcDbArc
 50
68.2626944943
 51
77.1488041144
  0
ARC
  5
2F2
100
AcDbEntity
  8
0
100
AcDbCircle
 62
7
  6
BYLAYER
 10
27.8898130214
 20
74.1082395787
 40
0.3509318694
100
AcDbArc
 50
68.3419075823
 51
77.1288520914
  0
ARC
  5
2F3
100
AcDbEntity
  8
0
100
AcDbCircle
 62
7
  6
BYLAYER
 10
27.8898130214
 20
61.3708018715
 40
0.3509318694
100
AcDbArc
 50
68.3419075821
 51
77.1288520914
  0
ARC
  5
2F4
100
AcDbEntity
  8
0
100
AcDbCircle
 62
7
  6
BYLAYER
 10
27.8898130214
 20
26.8327496269
 40
0.3509318694
100
AcDbArc
 50
68.3419075818
 51
77.1288520913
  0
ARC
  5
2F5
100
AcDbEntity
  8
0
100
AcDbCircle
 62
7
  6
BYLAYER
 10
27.8943483145
 20
74.1205058659
 40
0.3378578649
100
AcDbArc
 50
60.0126631769
 51
68.2890022217
  0
ARC
  5
2F6
100
AcDbEntity
  8
0
100
AcDbCircle
 62
7
  6
BYLAYER
 10
27.8943483145
 20
61.3830681587
 40
0.3378578649
100
AcDbArc
 50
60.0126631769
 51
68.2890022214
  0
ARC
  5
2F7
100
AcDbEntity
  8
0
100
AcDbCircle
 62
7
  6
BYLAYER
 10
27.8943483145
 20
26.8450159141
 40
0.3378578649
100
AcDbArc
 50
60.0126631769
 51
68.2890022211
  0
ARC
  5
2F8
100
AcDbEntity
  8
0
100
AcDbCircle
 62
7
  6
BYLAYER
 10
27.8943866272
 20
14.1076236111
 40
0.3378023769
100
AcDbArc
 50
60.0144404969
 51
68.2085051921
  0
ARC
  5
2F9
100
AcDbEntity
  8
0
100
AcDbCircle
 62
7
  6
BYLAYER
 10
26.0209412339
 20
43.984014708
 40
0.2423762185
100
AcDbArc
 50
132.1820398447
 51
137.3793370963
  0
ARC
  5
2FA
100
AcDbEntity
  8
0
100
AcDbCircle
 62
7
  6
BYLAYER
 10
29.5304799034
 20
79.5334291536
 40
0.1536924865
100
AcDbArc
 50
300.0749528646
 51
305.4769061091
  0
SPLINE
  5
2FB
100
AcDbEntity
  8
0
100
AcDbSpline
 62
7
  6
BYLAYER
 70
0
 71
3
 72
12
 73
8
 74
0
 42
0.0000001
 43
0.0000001
 44
0.0000000001
 40
0.0
 40
0.0
 40
0.0
 40
0.0
 40
0.1109982696
 40
0.2289746063
 40
0.4802243196
 40
0.7418945346
 40
1.0
 40
1.0
 40
1.0
 40
1.0
 10
22.4720858667
 20
75.1801623798
 30
0.0
 10
22.5731446675
 20
75.1218173738
 30
0.0
 10
22.7740647584
 20
74.9880535042
 30
0.0
 10
23.16243633
 20
74.6643643498
 30
0.0
 10
23.6069552544
 20
74.1666656986
 30
0.0
 10
24.0414486075
 20
73.478689896
 30
0.0
 10
24.2560355221
 20
72.9727016133
 30
0.0
 10
24.3389091092
 20
72.7143217518
 30
0.0
  0
SPLINE
  5
2FC
100
AcDbEntity
  8
0
100
AcDbSpline
 62
7
  6
BYLAYER
 70
0
 71
3
 72
12
 73
8
 74
0
 42
0.0000001
 43
0.0000001
 44
0.0000000001
 40
0.0
 40
0.0
 40
0.0
 40
0.0
 40
0.1109982696
 40
0.2289746063
 40
0.4802243196
 40
0.7418945346
 40
1.0
 40
1.0
 40
1.0
 40
1.0
 10
22.4720858667
 20
62.4427246725
 30
0.0
 10
22.5731446675
 20
62.3843796666
 30
0.0
 10
22.7740647584
 20
62.250615797
 30
0.0
 10
23.16243633
 20
61.9269266426
 30
0.0
 10
23.6069552544
 20
61.4292279914
 30
0.0
 10
24.0414486075
 20
60.7412521887
 30
0.0
 10
24.2560355221
 20
60.2352639061
 30
0.0
 10
24.3389091092
 20
59.9768840446
 30
0.0
  0
SPLINE
  5
2FD
100
AcDbEntity
  8
0
100
AcDbSpline
 62
7
  6
BYLAYER
 70
0
 71
3
 72
10
 73
6
 74
0
 42
0.0000001
 43
0.0000001
 44
0.0000000001
 40
0.0
 40
0.0
 40
0.0
 40
0.0
 40
0.2396930086
 40
0.4852611463
 40
1.0
 40
1.0
 40
1.0
 40
1.0
 10
28.0540003866
 20
74.4055863734
 30
0.0
 10
28.0846526695
 20
74.3787819512
 30
0.0
 10
28.141239166
 20
74.317829982
 30
0.0
 10
28.2298104872
 20
74.1720089172
 30
0.0
 10
28.2627678233
 20
74.0425186063
 30
0.0
 10
28.2675342032
 20
73.9552048062
 30
0.0
  0
SPLINE
  5
2FE
100
AcDbEntity
  8
0
100
AcDbSpline
 62
7
  6
BYLAYER
 70
0
 71
3
 72
11
 73
7
 74
0
 42
0.0000001
 43
0.0000001
 44
0.0000000001
 40
0.0
 40
0.0
 40
0.0
 40
0.0
 40
0.2372423294
 40
0.4999983821
 40
0.7627553152
 40
1.0
 40
1.0
 40
1.0
 40
1.0
 10
25.8909499946
 20
48.6377267208
 30
0.0
 10
25.9080162732
 20
48.6475798825
 30
0.0
 10
25.9403103983
 20
48.6747621076
 30
0.0
 10
25.9780028796
 20
48.7262708139
 30
0.0
 10
26.0037642614
 20
48.7846681278
 30
0.0
 10
26.0111576469
 20
48.8262270306
 30
0.0
 10
26.0111576469
 20
48.8459336379
 30
0.0
  0
SPLINE
  5
2FF
100
AcDbEntity
  8
0
100
AcDbSpline
 62
7
  6
BYLAYER
 70
0
 71
3
 72
9
 73
5
 74
0
 42
0.0000001
 43
0.0000001
 44
0.0000000001
 40
0.0
 40
0.0
 40
0.0
 40
0.0
 40
0.2290783529
 40
1.0
 40
1.0
 40
1.0
 40
1.0
 10
25.8425879825
 20
48.621534283
 30
0.0
 10
25.8464925043
 20
48.6218072173
 30
0.0
 10
25.8634525185
 20
48.6242473868
 30
0.0
 10
25.8795426702
 20
48.6311407383
 30
0.0
 10
25.8909499946
 20
48.6377267208
 30
0.0
  0
SPLINE
  5
300
100
AcDbEntity
  8
0
100
AcDbSpline
 62
7
  6
BYLAYER
 70
0
 71
3
 72
13
 73
9
 74
0
 42
0.0000001
 43
0.0000001
 44
0.0000000001
 40
0.0
 40
0.0
 40
0.0
 40
0.0
 40
0.2822411894
 40
0.5707659159
 40
0.7009937409
 40
0.8152100386
 40
0.9132176026
 40
1.0
 40
1.0
 40
1.0
 40
1.0
 10
25.323356777
 20
75.5975785891
 30
0.0
 10
25.3437314314
 20
75.6135833843
 30
0.0
 10
25.3783293373
 20
75.6544221881
 30
0.0
 10
25.4045695687
 20
75.7143755907
 30
0.0
 10
25.4117596924
 20
75.7630690753
 30
0.0
 10
25.4093409081
 20
75.7947596165
 30
0.0
 10
25.3990441519
 20
75.8207974772
 30
0.0
 10
25.3864368531
 20
75.8331665871
 30
0.0
 10
25.3795377818
 20
75.8371498817
 30
0.0
  0
SPLINE
  5
301
100
AcDbEntity
  8
0
100
AcDbSpline
 62
7
  6
BYLAYER
 70
0
 71
3
 72
9
 73
5
 74
0
 42
0.0000001
 43
0.0000001
 44
0.0000000001
 40
0.0
 40
0.0
 40
0.0
 40
0.0
 40
0.2419987278
 40
1.0
 40
1.0
 40
1.0
 40
1.0
 10
29.6196791445
 20
79.4082697521
 30
0.0
 10
29.6217247514
 20
79.4097237479
 30
0.0
 10
29.6300410679
 20
79.4159232959
 30
0.0
 10
29.6378150042
 20
79.4228398153
 30
0.0
 10
29.6433941209
 20
79.4283777929
 30
0.0
  0
SPLINE
  5
302
100
AcDbEntity
  8
0
100
AcDbSpline
 62
7
  6
BYLAYER
 70
0
 71
3
 72
9
 73
5
 74
0
 42
0.0000001
 43
0.0000001
 44
0.0000000001
 40
0.0
 40
0.0
 40
0.0
 40
0.0
 40
0.2700851512
 40
1.0
 40
1.0
 40
1.0
 40
1.0
 10
49.4481143314
 20
71.485270581
 30
0.0
 10
49.4481143314
 20
71.5340421495
 30
0.0
 10
49.4411561747
 20
71.7143409668
 30
0.0
 10
49.4041442855
 20
71.8950510931
 30
0.0
 10
49.3539135225
 20
72.0169114013
 30
0.0
  0
SPLINE
  5
303
100
AcDbEntity
  8
0
100
AcDbSpline
 62
7
  6
BYLAYER
 70
0
 71
3
 72
11
 73
7
 74
0
 42
0.0000001
 43
0.0000001
 44
0.0000000001
 40
0.0
 40
0.0
 40
0.0
 40
0.0
 40
0.26018479
 40
0.5216213237
 40
0.7718067506
 40
1.0
 40
1.0
 40
1.0
 40
1.0
 10
48.6967687585
 20
69.3385914835
 30
0.0
 10
48.8115219466
 20
69.4751538272
 30
0.0
 10
49.019026628
 20
69.7685623047
 30
0.0
 10
49.2558733705
 20
70.2440222154
 30
0.0
 10
49.408007264
 20
70.7301183609
 30
0.0
 10
49.4481143314
 20
71.0584489433
 30
0.0
 10
49.4481143314
 20
71.2148913101
 30
0.0
  0
SPLINE
  5
304
100
AcDbEntity
  8
0
100
AcDbSpline
 62
7
  6
BYLAYER
 70
0
 71
3
 72
9
 73
5
 74
0
 42
0.0000001
 43
0.0000001
 44
0.0000000001
 40
0.0
 40
0.0
 40
0.0
 40
0.0
 40
0.4869145385
 40
1.0
 40
1.0
 40
1.0
 40
1.0
 10
46.5489885988
 20
67.2803120571
 30
0.0
 10
46.9356211979
 20
67.5707989102
 30
0.0
 10
47.6910925911
 20
68.2197356899
 30
0.0
 10
48.3689354619
 20
68.9484525767
 30
0.0
 10
48.6967687585
 20
69.3385914835
 30
0.0
  0
SPLINE
  5
305
100
AcDbEntity
  8
0
100
AcDbSpline
 62
7
  6
BYLAYER
 70
0
 71
3
 72
11
 73
7
 74
0
 42
0.0000001
 43
0.0000001
 44
0.0000000001
 40
0.0
 40
0.0
 40
0.0
 40
0.0
 40
0.2372423294
 40
0.4999983821
 40
0.7627553152
 40
1.0
 40
1.0
 40
1.0
 40
1.0
 10
44.8519393895
 20
40.459541348
 30
0.0
 10
44.9021343266
 20
40.4885212354
 30
0.0
 10
44.9971170474
 20
40.5684689562
 30
0.0
 10
45.1079772866
 20
40.7199651511
 30
0.0
 10
45.1837460566
 20
40.8917219568
 30
0.0
 10
45.2054913081
 20
41.0139540237
 30
0.0
 10
45.2054913081
 20
41.0719146335
 30
0.0
  0
SPLINE
  5
306
100
AcDbEntity
  8
0
100
AcDbSpline
 62
7
  6
BYLAYER
 70
0
 71
3
 72
9
 73
5
 74
0
 42
0.0000001
 43
0.0000001
 44
0.0000000001
 40
0.0
 40
0.0
 40
0.0
 40
0.0
 40
0.2366979575
 40
1.0
 40
1.0
 40
1.0
 40
1.0
 10
44.7604334195
 20
40.4206214895
 30
0.0
 10
44.7680242936
 20
40.4226554054
 30
0.0
 10
44.7997614598
 20
40.4324836216
 30
0.0
 10
44.8299921224
 20
40.4468701631
 30
0.0
 10
44.8519393895
 20
40.459541348
 30
0.0
  0
SPLINE
  5
307
100
AcDbEntity
  8
0
100
AcDbSpline
 62
7
  6
BYLAYER
 70
0
 71
3
 72
9
 73
5
 74
0
 42
0.0000001
 43
0.0000001
 44
0.0000000001
 40
0.0
 40
0.0
 40
0.0
 40
0.0
 40
0.2638121518
 40
1.0
 40
1.0
 40
1.0
 40
1.0
 10
41.0443116914
 20
39.4047533252
 30
0.0
 10
41.0549300316
 20
39.4108837901
 30
0.0
 10
41.0958037134
 20
39.4329886332
 30
0.0
 10
41.1393706376
 20
39.4503857934
 30
0.0
 10
41.1724200494
 20
39.459241127
 30
0.0
  0
SPLINE
  5
308
100
AcDbEntity
  8
0
100
AcDbSpline
 62
7
  6
BYLAYER
 70
0
 71
3
 72
11
 73
7
 74
0
 42
0.0000001
 43
0.0000001
 44
0.0000000001
 40
0.0
 40
0.0
 40
0.0
 40
0.0
 40
0.2500013843
 40
0.5125537309
 40
0.7684369035
 40
1.0
 40
1.0
 40
1.0
 40
1.0
 10
40.5624176818
 20
38.6855006855
 30
0.0
 10
40.5756603781
 20
38.7583395713
 30
0.0
 10
40.6210799318
 20
38.904601883
 30
0.0
 10
40.7297179553
 20
39.1060051783
 30
0.0
 10
40.8707483059
 20
39.2792419019
 30
0.0
 10
40.9849258306
 20
39.3704670871
 30
0.0
 10
41.0443116914
 20
39.4047533252
 30
0.0
  0
SPLINE
  5
309
100
AcDbEntity
  8
0
100
AcDbSpline
 62
7
  6
BYLAYER
 70
0
 71
3
 72
11
 73
7
 74
0
 42
0.0000001
 43
0.0000001
 44
0.0000000001
 40
0.0
 40
0.0
 40
0.0
 40
0.0
 40
0.2897034791
 40
0.5490978059
 40
0.7822037886
 40
1.0
 40
1.0
 40
1.0
 40
1.0
 10
49.4481143314
 20
40.6765964842
 30
0.0
 10
49.4481143314
 20
40.7576658511
 30
0.0
 10
49.4358274037
 20
40.9118466115
 30
0.0
 10
49.3733685322
 20
41.1236665764
 30
0.0
 10
49.2682678919
 20
41.2955669229
 30
0.0
 10
49.1695221443
 20
41.3785907037
 30
0.0
 10
49.1167328887
 20
41.4090513244
 30
0.0
  0
SPLINE
  5
30A
100
AcDbEntity
  8
0
100
AcDbSpline
 62
7
  6
BYLAYER
 70
0
 71
3
 72
13
 73
9
 74
0
 42
0.0000001
 43
0.0000001
 44
0.0000000001
 40
0.0
 40
0.0
 40
0.0
 40
0.0
 40
0.114175582
 40
0.23756922
 40
0.49999856
 40
0.7624286893
 40
0.8858231943
 40
1.0
 40
1.0
 40
1.0
 40
1.0
 10
48.7410104942
 20
19.8006746314
 30
0.0
 10
48.7893827171
 20
19.8286021806
 30
0.0
 10
48.8849802399
 20
19.8956826219
 30
0.0
 10
49.0640726392
 20
20.0631443593
 30
0.0
 10
49.2530706435
 20
20.3215315261
 30
0.0
 10
49.3823400041
 20
20.6144032227
 30
0.0
 10
49.4378196651
 20
20.8532341509
 30
0.0
 10
49.4481143314
 20
20.9695652553
 30
0.0
 10
49.4481143314
 20
21.0254212024
 30
0.0
  0
SPLINE
  5
30B
100
AcDbEntity
  8
0
100
AcDbSpline
 62
7
  6
BYLAYER
 70
0
 71
3
 72
11
 73
7
 74
0
 42
0.0000001
 43
0.0000001
 44
0.0000000001
 40
0.0
 40
0.0
 40
0.0
 40
0.0
 40
0.2895396729
 40
0.5491163863
 40
0.7822545095
 40
1.0
 40
1.0
 40
1.0
 40
1.0
 10
45.9125951453
 20
21.1071067176
 30
0.0
 10
45.9564477805
 20
21.1324248972
 30
0.0
 10
46.0437575881
 20
21.1739051849
 30
0.0
 10
46.1778999962
 20
21.2063750127
 30
0.0
 10
46.3038298804
 20
21.2032126699
 30
0.0
 10
46.3795796086
 20
21.1756262112
 30
0.0
 10
46.4125586854
 20
21.1565861454
 30
0.0
  0
SPLINE
  5
30C
100
AcDbEntity
  8
0
100
AcDbSpline
 62
7
  6
BYLAYER
 70
0
 71
3
 72
11
 73
7
 74
0
 42
0.0000001
 43
0.0000001
 44
0.0000000001
 40
0.0
 40
0.0
 40
0.0
 40
0.0
 40
0.2372446848
 40
0.5000016179
 40
0.7627576706
 40
1.0
 40
1.0
 40
1.0
 40
1.0
 10
40.5386059825
 20
17.5961999396
 30
0.0
 10
40.5386059825
 20
17.6541605494
 30
0.0
 10
40.560351234
 20
17.7763926163
 30
0.0
 10
40.636120004
 20
17.948149422
 30
0.0
 10
40.7469802432
 20
18.0996456169
 30
0.0
 10
40.841962964
 20
18.1795933377
 30
0.0
 10
40.8921579011
 20
18.2085732251
 30
0.0
  0
SPLINE
  5
30D
100
AcDbEntity
  8
0
100
AcDbSpline
 62
7
  6
BYLAYER
 70
0
 71
3
 72
13
 73
9
 74
0
 42
0.0000001
 43
0.0000001
 44
0.0000000001
 40
0.0
 40
0.0
 40
0.0
 40
0.0
 40
0.114175582
 40
0.23756922
 40
0.49999856
 40
0.7624286893
 40
0.8858231943
 40
1.0
 40
1.0
 40
1.0
 40
1.0
 10
39.8315021453
 20
14.6567982926
 30
0.0
 10
39.8798743682
 20
14.6847258419
 30
0.0
 10
39.975471891
 20
14.7518062831
 30
0.0
 10
40.1545642903
 20
14.9192680206
 30
0.0
 10
40.3435622946
 20
15.1776551873
 30
0.0
 10
40.4728316552
 20
15.470526884
 30
0.0
 10
40.5283113162
 20
15.7093578121
 30
0.0
 10
40.5386059825
 20
15.8256889165
 30
0.0
 10
40.5386059825
 20
15.8815448636
 30
0.0
  0
SPLINE
  5
30E
100
AcDbEntity
  8
0
100
AcDbSpline
 62
7
  6
BYLAYER
 70
0
 71
3
 72
9
 73
5
 74
0
 42
0.0000001
 43
0.0000001
 44
0.0000000001
 40
0.0
 40
0.0
 40
0.0
 40
0.0
 40
0.2354398249
 40
1.0
 40
1.0
 40
1.0
 40
1.0
 10
39.2185684567
 20
14.3692179194
 30
0.0
 10
39.2515622656
 20
14.377063595
 30
0.0
 10
39.3902439476
 20
14.4164802073
 30
0.0
 10
39.5220533408
 20
14.4781390085
 30
0.0
 10
39.6174294325
 20
14.533204092
 30
0.0
  0
SPLINE
  5
30F
100
AcDbEntity
  8
0
100
AcDbSpline
 62
7
  6
BYLAYER
 70
0
 71
3
 72
9
 73
5
 74
0
 42
0.0000001
 43
0.0000001
 44
0.0000000001
 40
0.0
 40
0.0
 40
0.0
 40
0.0
 40
0.5199030863
 40
1.0
 40
1.0
 40
1.0
 40
1.0
 10
36.2252725755
 20
13.1388844086
 30
0.0
 10
36.712252858
 20
13.4200409275
 30
0.0
 10
37.6822090601
 20
13.9060983771
 30
0.0
 10
38.7133797304
 20
14.2491451596
 30
0.0
 10
39.2185684567
 20
14.3692179194
 30
0.0
  0
SPLINE
  5
310
100
AcDbEntity
  8
0
100
AcDbSpline
 62
7
  6
BYLAYER
 70
0
 71
3
 72
9
 73
5
 74
0
 42
0.0000001
 43
0.0000001
 44
0.0000000001
 40
0.0
 40
0.0
 40
0.0
 40
0.0
 40
0.5150147974
 40
1.0
 40
1.0
 40
1.0
 40
1.0
 10
33.2319767
 20
10.9128781662
 30
0.0
 10
33.7046527673
 20
11.3463290346
 30
0.0
 10
34.6628841625
 20
12.1452357769
 30
0.0
 10
35.702249753
 20
12.8369188437
 30
0.0
 10
36.2252725755
 20
13.1388844086
 30
0.0
  0
SPLINE
  5
311
100
AcDbEntity
  8
0
100
AcDbSpline
 62
7
  6
BYLAYER
 70
0
 71
3
 72
9
 73
5
 74
0
 42
0.0000001
 43
0.0000001
 44
0.0000000001
 40
0.0
 40
0.0
 40
0.0
 40
0.0
 40
0.2386650764
 40
1.0
 40
1.0
 40
1.0
 40
1.0
 10
32.8331157185
 20
10.6163021238
 30
0.0
 10
32.8673991889
 20
10.6360955765
 30
0.0
 10
33.0084216462
 20
10.7235526573
 30
0.0
 10
33.1388985099
 20
10.8275346537
 30
0.0
 10
33.2319767
 20
10.9128781662
 30
0.0
  0
SPLINE
  5
312
100
AcDbEntity
  8
0
100
AcDbSpline
 62
7
  6
BYLAYER
 70
0
 71
3
 72
9
 73
5
 74
0
 42
0.0000001
 43
0.0000001
 44
0.0000000001
 40
0.0
 40
0.0
 40
0.0
 40
0.0
 40
0.5324907192
 40
1.0
 40
1.0
 40
1.0
 40
1.0
 10
25.6777680267
 20
9.0241701932
 30
0.0
 10
25.7060152139
 20
9.0492184259
 30
0.0
 10
25.763164652
 20
9.0919364319
 30
0.0
 10
25.8287631211
 20
9.1212528897
 30
0.0
 10
25.8607799667
 20
9.1298315553
 30
0.0
  0
SPLINE
  5
313
100
AcDbEntity
  8
0
100
AcDbSpline
 62
7
  6
BYLAYER
 70
0
 71
3
 72
11
 73
7
 74
0
 42
0.0000001
 43
0.0000001
 44
0.0000000001
 40
0.0
 40
0.0
 40
0.0
 40
0.0
 40
0.2441854351
 40
0.5000011029
 40
0.7558161972
 40
1.0
 40
1.0
 40
1.0
 40
1.0
 10
25.4277690676
 20
8.5911568904
 30
0.0
 10
25.4360511141
 20
8.6316295674
 30
0.0
 10
25.460777261
 20
8.7130129629
 30
0.0
 10
25.5164607668
 20
8.8286262797
 30
0.0
 10
25.5887424002
 20
8.9346564012
 30
0.0
 10
25.6468589409
 20
8.9967615181
 30
0.0
 10
25.6777680267
 20
9.0241701932
 30
0.0
  0
SPLINE
  5
314
100
AcDbEntity
  8
0
100
AcDbSpline
 62
7
  6
BYLAYER
 70
0
 71
3
 72
13
 73
9
 74
0
 42
0.0000001
 43
0.0000001
 44
0.0000000001
 40
0.0
 40
0.0
 40
0.0
 40
0.0
 40
0.3062810368
 40
0.5829109595
 40
0.7037222269
 40
0.8118913526
 40
0.9091710052
 40
1.0
 40
1.0
 40
1.0
 40
1.0
 10
25.3795377818
 20
7.9062158159
 30
0.0
 10
25.3891668139
 20
7.9228938813
 30
0.0
 10
25.404068036
 20
7.9567307666
 30
0.0
 10
25.4119837206
 20
8.0009454137
 30
0.0
 10
25.4094391945
 20
8.0328125795
 30
0.0
 10
25.4035676992
 20
8.0526610646
 30
0.0
 10
25.3937462229
 20
8.068790544
 30
0.0
 10
25.3844802853
 20
8.0765631985
 30
0.0
 10
25.3795356437
 20
8.0794210024
 30
0.0
  0
SPLINE
  5
315
100
AcDbEntity
  8
0
100
AcDbSpline
 62
7
  6
BYLAYER
 70
0
 71
3
 72
9
 73
5
 74
0
 42
0.0000001
 43
0.0000001
 44
0.0000000001
 40
0.0
 40
0.0
 40
0.0
 40
0.0
 40
0.2404767668
 40
1.0
 40
1.0
 40
1.0
 40
1.0
 10
25.1921218646
 20
7.6434807808
 30
0.0
 10
25.2042890463
 20
7.6542700462
 30
0.0
 10
25.2527930245
 20
7.7014676208
 30
0.0
 10
25.293235563
 20
7.7567351583
 30
0.0
 10
25.3189162559
 20
7.8012156702
 30
0.0
  0
SPLINE
  5
316
100
AcDbEntity
  8
0
100
AcDbSpline
 62
7
  6
BYLAYER
 70
0
 71
3
 72
9
 73
5
 74
0
 42
0.0000001
 43
0.0000001
 44
0.0000000001
 40
0.0
 40
0.0
 40
0.0
 40
0.0
 40
0.2260355617
 40
1.0
 40
1.0
 40
1.0
 40
1.0
 10
25.0457123126
 20
7.5589516912
 30
0.0
 10
25.058080268
 20
7.5622655889
 30
0.0
 10
25.1116452478
 20
7.5812373647
 30
0.0
 10
25.1593186047
 20
7.6143924442
 30
0.0
 10
25.1921218646
 20
7.6434807808
 30
0.0
  0
SPLINE
  5
317
100
AcDbEntity
  8
0
100
AcDbSpline
 62
7
  6
BYLAYER
 70
0
 71
3
 72
11
 73
7
 74
0
 42
0.0000001
 43
0.0000001
 44
0.0000000001
 40
0.0
 40
0.0
 40
0.0
 40
0.0
 40
0.2202857198
 40
0.458178287
 40
0.717955882
 40
1.0
 40
1.0
 40
1.0
 40
1.0
 10
27.9679863355
 20
74.4503537555
 30
0.0
 10
27.9377148419
 20
74.4572848816
 30
0.0
 10
27.8727117568
 20
74.4635498421
 30
0.0
 10
27.7716287076
 20
74.4510370965
 30
0.0
 10
27.6663893599
 20
74.417576218
 30
0.0
 10
27.5976848845
 20
74.3835404865
 30
0.0
 10
27.5632505696
 20
74.3636599442
 30
0.0
  0
SPLINE
  5
318
100
AcDbEntity
  8
0
100
AcDbSpline
 62
7
  6
BYLAYER
 70
0
 71
3
 72
12
 73
8
 74
0
 42
0.0000001
 43
0.0000001
 44
0.0000000001
 40
0.0
 40
0.0
 40
0.0
 40
0.0
 40
0.1081614689
 40
0.2183687405
 40
0.4513480154
 40
0.7104447573
 40
1.0
 40
1.0
 40
1.0
 40
1.0
 10
21.0221030167
 20
75.3237643276
 30
0.0
 10
21.0696479968
 20
75.3512142724
 30
0.0
 10
21.1705995177
 20
75.3985058907
 30
0.0
 10
21.3922863373
 20
75.4598119728
 30
0.0
 10
21.7027860559
 20
75.4681382396
 30
0.0
 10
22.0916248328
 20
75.3740700719
 30
0.0
 10
22.3448043504
 20
75.253646735
 30
0.0
 10
22.4720858667
 20
75.1801623798
 30
0.0
  0
SPLINE
  5
319
100
AcDbEntity
  8
0
100
AcDbSpline
 62
7
  6
BYLAYER
 70
0
 71
3
 72
10
 73
6
 74
0
 42
0.0000001
 43
0.0000001
 44
0.0000000001
 40
0.0
 40
0.0
 40
0.0
 40
0.0
 40
0.2396930086
 40
0.4852611463
 40
1.0
 40
1.0
 40
1.0
 40
1.0
 10
28.0540003866
 20
61.6681486662
 30
0.0
 10
28.0846526695
 20
61.641344244
 30
0.0
 10
28.141239166
 20
61.5803922748
 30
0.0
 10
28.2298104872
 20
61.43457121
 30
0.0
 10
28.2627678233
 20
61.3050808991
 30
0.0
 10
28.2675342032
 20
61.217767099
 30
0.0
  0
SPLINE
  5
31A
100
AcDbEntity
  8
0
100
AcDbSpline
 62
7
  6
BYLAYER
 70
0
 71
3
 72
11
 73
7
 74
0
 42
0.0000001
 43
0.0000001
 44
0.0000000001
 40
0.0
 40
0.0
 40
0.0
 40
0.0
 40
0.2202857198
 40
0.458178287
 40
0.717955882
 40
1.0
 40
1.0
 40
1.0
 40
1.0
 10
27.9679863355
 20
61.7129160482
 30
0.0
 10
27.9377148419
 20
61.7198471744
 30
0.0
 10
27.8727117568
 20
61.7261121349
 30
0.0
 10
27.7716287076
 20
61.7135993893
 30
0.0
 10
27.6663893599
 20
61.6801385108
 30
0.0
 10
27.5976848845
 20
61.6461027793
 30
0.0
 10
27.5632505696
 20
61.626222237
 30
0.0
  0
SPLINE
  5
31B
100
AcDbEntity
  8
0
100
AcDbSpline
 62
7
  6
BYLAYER
 70
0
 71
3
 72
12
 73
8
 74
0
 42
0.0000001
 43
0.0000001
 44
0.0000000001
 40
0.0
 40
0.0
 40
0.0
 40
0.0
 40
0.1081614689
 40
0.2183687405
 40
0.4513480154
 40
0.7104447573
 40
1.0
 40
1.0
 40
1.0
 40
1.0
 10
21.0221030167
 20
62.5863266204
 30
0.0
 10
21.0696479968
 20
62.6137765652
 30
0.0
 10
21.1705995177
 20
62.6610681835
 30
0.0
 10
21.3922863373
 20
62.7223742655
 30
0.0
 10
21.7027860559
 20
62.7307005324
 30
0.0
 10
22.0916248328
 20
62.6366323647
 30
0.0
 10
22.3448043504
 20
62.5162090278
 30
0.0
 10
22.4720858667
 20
62.4427246725
 30
0.0
  0
LINE
  5
31C
100
AcDbEntity
  8
0
100
AcDbLine
 62
7
  6
BYLAYER
 10
28.2703544068
 20
26.5166112457
 11
28.270093496
 21
26.6779387131
  0
SPLINE
  5
31D
100
AcDbEntity
  8
0
100
AcDbSpline
 62
7
  6
BYLAYER
 70
0
 71
3
 72
12
 73
8
 74
0
 42
0.0000001
 43
0.0000001
 44
0.0000000001
 40
0.0
 40
0.0
 40
0.0
 40
0.0
 40
0.1081614689
 40
0.2183687405
 40
0.4513480154
 40
0.7104447573
 40
1.0
 40
1.0
 40
1.0
 40
1.0
 10
21.0221030167
 20
15.3108366685
 30
0.0
 10
21.0696479968
 20
15.3382866134
 30
0.0
 10
21.1705995177
 20
15.3855782317
 30
0.0
 10
21.3922863373
 20
15.4468843137
 30
0.0
 10
21.7027860559
 20
15.4552105806
 30
0.0
 10
22.0916248328
 20
15.3611424129
 30
0.0
 10
22.3448043504
 20
15.240719076
 30
0.0
 10
22.4720858667
 20
15.1672347207
 30
0.0
  0
LINE
  5
31E
100
AcDbEntity
  8
0
100
AcDbLine
 62
7
  6
BYLAYER
 10
28.2703476486
 20
25.8651903111
 11
28.2703544068
 21
26.0267097954
  0
SPLINE
  5
31F
100
AcDbEntity
  8
0
100
AcDbSpline
 62
7
  6
BYLAYER
 70
0
 71
3
 72
14
 73
10
 74
0
 42
0.0000001
 43
0.0000001
 44
0.0000000001
 40
0.0
 40
0.0
 40
0.0
 40
0.0
 40
0.1173407705
 40
0.2457131981
 40
0.3794826148
 40
0.5140552861
 40
0.6458277646
 40
0.7720605575
 40
1.0
 40
1.0
 40
1.0
 40
1.0
 10
27.3794556092
 20
24.7447744103
 30
0.0
 10
27.4295310842
 20
24.7736853267
 30
0.0
 10
27.5314637248
 20
24.8393437976
 30
0.0
 10
27.6807408957
 20
24.9522199947
 30
0.0
 10
27.8274268396
 20
25.0817852203
 30
0.0
 10
27.9636819747
 20
25.2246194733
 30
0.0
 10
28.0825281507
 20
25.3779965306
 30
0.0
 10
28.2044669669
 20
25.5840600313
 30
0.0
 10
28.2589364935
 20
25.756013533
 30
0.0
 10
28.2655896757
 20
25.86813819
 30
0.0
  0
SPLINE
  5
320
100
AcDbEntity
  8
0
100
AcDbSpline
 62
7
  6
BYLAYER
 70
0
 71
3
 72
12
 73
8
 74
0
 42
0.0000001
 43
0.0000001
 44
0.0000000001
 40
0.0
 40
0.0
 40
0.0
 40
0.0
 40
0.1109982696
 40
0.2289746063
 40
0.4802243196
 40
0.7418945346
 40
1.0
 40
1.0
 40
1.0
 40
1.0
 10
22.4720858667
 20
27.904672428
 30
0.0
 10
22.5731446675
 20
27.846327422
 30
0.0
 10
22.7740647584
 20
27.7125635524
 30
0.0
 10
23.16243633
 20
27.388874398
 30
0.0
 10
23.6069552544
 20
26.8911757468
 30
0.0
 10
24.0414486075
 20
26.2031999442
 30
0.0
 10
24.2560355221
 20
25.6972116615
 30
0.0
 10
24.3389091092
 20
25.4388318
 30
0.0
  0
SPLINE
  5
321
100
AcDbEntity
  8
0
100
AcDbSpline
 62
7
  6
BYLAYER
 70
0
 71
3
 72
12
 73
8
 74
0
 42
0.0000001
 43
0.0000001
 44
0.0000000001
 40
0.0
 40
0.0
 40
0.0
 40
0.0
 40
0.1109982696
 40
0.2289746063
 40
0.4802243196
 40
0.7418945346
 40
1.0
 40
1.0
 40
1.0
 40
1.0
 10
22.4720858667
 20
15.1672347207
 30
0.0
 10
22.5731446675
 20
15.1088897148
 30
0.0
 10
22.7740647584
 20
14.9751258452
 30
0.0
 10
23.16243633
 20
14.6514366908
 30
0.0
 10
23.6069552544
 20
14.1537380396
 30
0.0
 10
24.0414486075
 20
13.4657622369
 30
0.0
 10
24.2560355221
 20
12.9597739543
 30
0.0
 10
24.3389091092
 20
12.7013940928
 30
0.0
  0
SPLINE
  5
322
100
AcDbEntity
  8
0
100
AcDbSpline
 62
7
  6
BYLAYER
 70
0
 71
3
 72
10
 73
6
 74
0
 42
0.0000001
 43
0.0000001
 44
0.0000000001
 40
0.0
 40
0.0
 40
0.0
 40
0.0
 40
0.2396831344
 40
0.485240333
 40
1.0
 40
1.0
 40
1.0
 40
1.0
 10
28.0530697612
 20
14.3934707818
 30
0.0
 10
28.083790416
 20
14.3667186798
 30
0.0
 10
28.1405230354
 20
14.3058535526
 30
0.0
 10
28.2294032081
 20
14.1601268173
 30
0.0
 10
28.2626029595
 20
14.0306322104
 30
0.0
 10
28.2675269828
 20
13.9432831934
 30
0.0
  0
SPLINE
  5
323
100
AcDbEntity
  8
0
100
AcDbSpline
 62
7
  6
BYLAYER
 70
0
 71
3
 72
11
 73
7
 74
0
 42
0.0000001
 43
0.0000001
 44
0.0000000001
 40
0.0
 40
0.0
 40
0.0
 40
0.0
 40
0.2202927801
 40
0.4581877864
 40
0.7179631309
 40
1.0
 40
1.0
 40
1.0
 40
1.0
 10
27.9678678453
 20
14.4374528741
 30
0.0
 10
27.9376016628
 20
14.4443719024
 30
0.0
 10
27.8726148641
 20
14.4506174526
 30
0.0
 10
27.7715622229
 20
14.4380925936
 30
0.0
 10
27.6663568377
 20
14.4046335471
 30
0.0
 10
27.5976741639
 20
14.370606638
 30
0.0
 10
27.5632505696
 20
14.3507322852
 30
0.0
  0
SPLINE
  5
324
100
AcDbEntity
  8
0
100
AcDbSpline
 62
7
  6
BYLAYER
 70
0
 71
3
 72
11
 73
7
 74
0
 42
0.0000001
 43
0.0000001
 44
0.0000000001
 40
0.0
 40
0.0
 40
0.0
 40
0.0
 40
0.2289059281
 40
0.4809214539
 40
0.7429934696
 40
1.0
 40
1.0
 40
1.0
 40
1.0
 10
20.1739792599
 20
35.8859495798
 30
0.0
 10
20.1739792599
 20
35.9284838736
 30
0.0
 10
20.1859049875
 20
36.0179314713
 30
0.0
 10
20.230062113
 20
36.1494359373
 30
0.0
 10
20.2984736012
 20
36.276060014
 30
0.0
 10
20.3579484368
 20
36.3527264489
 30
0.0
 10
20.3906856229
 20
36.387495622
 30
0.0
  0
SPLINE
  5
325
100
AcDbEntity
  8
0
100
AcDbSpline
 62
7
  6
BYLAYER
 70
0
 71
3
 72
9
 73
5
 74
0
 42
0.0000001
 43
0.0000001
 44
0.0000000001
 40
0.0
 40
0.0
 40
0.0
 40
0.0
 40
0.4724090083
 40
1.0
 40
1.0
 40
1.0
 40
1.0
 10
25.519272964
 20
75.0777068535
 30
0.0
 10
25.4971378258
 20
75.0904862922
 30
0.0
 10
25.4565866671
 20
75.1293132603
 30
0.0
 10
25.435156932
 20
75.1803288956
 30
0.0
 10
25.4277690676
 20
75.2079011664
 30
0.0
  0
SPLINE
  5
326
100
AcDbEntity
  8
0
100
AcDbSpline
 62
7
  6
BYLAYER
 70
0
 71
3
 72
11
 73
7
 74
0
 42
0.0000001
 43
0.0000001
 44
0.0000000001
 40
0.0
 40
0.0
 40
0.0
 40
0.0
 40
0.2041506211
 40
0.4326027501
 40
0.6986269645
 40
1.0
 40
1.0
 40
1.0
 40
1.0
 10
25.1837825348
 20
81.9036901014
 30
0.0
 10
25.1771510966
 20
81.9075145582
 30
0.0
 10
25.1649749977
 20
81.9191543269
 30
0.0
 10
25.1546076273
 20
81.9437763078
 30
0.0
 10
25.1515898977
 20
81.9737752376
 30
0.0
 10
25.1540583318
 20
81.9950616894
 30
0.0
 10
25.1563239125
 20
82.0061331216
 30
0.0
  0
SPLINE
  5
327
100
AcDbEntity
  8
0
100
AcDbSpline
 62
7
  6
BYLAYER
 70
0
 71
3
 72
11
 73
7
 74
0
 42
0.0000001
 43
0.0000001
 44
0.0000000001
 40
0.0
 40
0.0
 40
0.0
 40
0.0
 40
0.2176746342
 40
0.4508340055
 40
0.7104853484
 40
1.0
 40
1.0
 40
1.0
 40
1.0
 10
46.2509137344
 20
67.2277964101
 30
0.0
 10
46.2673978592
 20
67.2182795007
 30
0.0
 10
46.3052786981
 20
67.2045187106
 30
0.0
 10
46.3682409056
 20
67.2029110583
 30
0.0
 10
46.4353189607
 20
67.2191572568
 30
0.0
 10
46.4789793702
 20
67.2398924514
 30
0.0
 10
46.5009037306
 20
67.2525504112
 30
0.0
  0
SPLINE
  5
328
100
AcDbEntity
  8
0
100
AcDbSpline
 62
7
  6
BYLAYER
 70
0
 71
3
 72
12
 73
8
 74
0
 42
0.0000001
 43
0.0000001
 44
0.0000000001
 40
0.0
 40
0.0
 40
0.0
 40
0.0
 40
0.1002416415
 40
0.2040093547
 40
0.4318139328
 40
0.6974475769
 40
1.0
 40
1.0
 40
1.0
 40
1.0
 10
40.7042979941
 20
38.1180061856
 30
0.0
 10
40.6862925185
 20
38.1284008462
 30
0.0
 10
40.6520343643
 20
38.1540029176
 30
0.0
 10
40.5938893562
 20
38.2229867333
 30
0.0
 10
40.5461998959
 20
38.340543542
 30
0.0
 10
40.5324477431
 20
38.5066468082
 30
0.0
 10
40.5486012811
 20
38.6242900057
 30
0.0
 10
40.5624176818
 20
38.6855006855
 30
0.0
  0
SPLINE
  5
329
100
AcDbEntity
  8
0
100
AcDbSpline
 62
7
  6
BYLAYER
 70
0
 71
3
 72
11
 73
7
 74
0
 42
0.0000001
 43
0.0000001
 44
0.0000000001
 40
0.0
 40
0.0
 40
0.0
 40
0.0
 40
0.2177456295
 40
0.4508837762
 40
0.7104602913
 40
1.0
 40
1.0
 40
1.0
 40
1.0
 10
46.8061252493
 20
18.8988304236
 30
0.0
 10
46.835806447
 20
18.881694369
 30
0.0
 10
46.903981218
 20
18.8568665209
 30
0.0
 10
47.017318113
 20
18.8540204688
 30
0.0
 10
47.1380462723
 20
18.8832432451
 30
0.0
 10
47.2166250588
 20
18.9205755435
 30
0.0
 10
47.256092436
 20
18.9433619083
 30
0.0
  0
SPLINE
  5
32A
100
AcDbEntity
  8
0
100
AcDbSpline
 62
7
  6
BYLAYER
 70
0
 71
3
 72
11
 73
7
 74
0
 42
0.0000001
 43
0.0000001
 44
0.0000000001
 40
0.0
 40
0.0
 40
0.0
 40
0.0
 40
0.2176746342
 40
0.4508340055
 40
0.7104853484
 40
1.0
 40
1.0
 40
1.0
 40
1.0
 10
29.5955925448
 20
8.8427899486
 30
0.0
 10
29.6087798447
 20
8.8351764211
 30
0.0
 10
29.6390845158
 20
8.824167789
 30
0.0
 10
29.6894542818
 20
8.8228816671
 30
0.0
 10
29.7431167258
 20
8.8358786259
 30
0.0
 10
29.7780450535
 20
8.8524667816
 30
0.0
 10
29.7955845418
 20
8.8625931494
 30
0.0
  0
SPLINE
  5
32B
100
AcDbEntity
  8
0
100
AcDbSpline
 62
7
  6
BYLAYER
 70
0
 71
3
 72
11
 73
7
 74
0
 42
0.0000001
 43
0.0000001
 44
0.0000000001
 40
0.0
 40
0.0
 40
0.0
 40
0.0
 40
0.2177587677
 40
0.4509226535
 40
0.7108110226
 40
1.0
 40
1.0
 40
1.0
 40
1.0
 10
20.2775500677
 20
43.9037566038
 30
0.0
 10
20.2610410313
 20
43.9132460452
 30
0.0
 10
20.2301625912
 20
43.9391760723
 30
0.0
 10
20.1972978675
 20
43.9929439724
 30
0.0
 10
20.1779106362
 20
44.0591721468
 30
0.0
 10
20.1739792599
 20
44.1073357498
 30
0.0
 10
20.1739792599
 20
44.1326239928
 30
0.0
  0
SPLINE
  5
32C
100
AcDbEntity
  8
0
100
AcDbSpline
 62
7
  6
BYLAYER
 70
0
 71
3
 72
11
 73
7
 74
0
 42
0.0000001
 43
0.0000001
 44
0.0000000001
 40
0.0
 40
0.0
 40
0.0
 40
0.0
 40
0.2176732262
 40
0.4508319884
 40
0.7104838574
 40
1.0
 40
1.0
 40
1.0
 40
1.0
 10
20.2775411484
 20
10.013875385
 30
0.0
 10
20.2610564692
 20
10.023392596
 30
0.0
 10
20.2301973739
 20
10.0493184937
 30
0.0
 10
20.1973225284
 20
10.1030434541
 30
0.0
 10
20.1778523195
 20
10.1692606112
 30
0.0
 10
20.1739792599
 20
10.2174413318
 30
0.0
 10
20.1739792599
 20
10.2427584981
 30
0.0
  0
SPLINE
  5
32D
100
AcDbEntity
  8
0
100
AcDbSpline
 62
7
  6
BYLAYER
 70
0
 71
3
 72
12
 73
8
 74
0
 42
0.0000001
 43
0.0000001
 44
0.0000000001
 40
0.0
 40
0.0
 40
0.0
 40
0.0
 40
0.1081614689
 40
0.2183687405
 40
0.4513480154
 40
0.7104447573
 40
1.0
 40
1.0
 40
1.0
 40
1.0
 10
21.0221030167
 20
28.0482743758
 30
0.0
 10
21.0696479968
 20
28.0757243206
 30
0.0
 10
21.1705995177
 20
28.1230159389
 30
0.0
 10
21.3922863373
 20
28.184322021
 30
0.0
 10
21.7027860559
 20
28.1926482878
 30
0.0
 10
22.0916248328
 20
28.0985801201
 30
0.0
 10
22.3448043504
 20
27.9781567832
 30
0.0
 10
22.4720858667
 20
27.904672428
 30
0.0
  0
SPLINE
  5
32E
100
AcDbEntity
  8
0
100
AcDbSpline
 62
7
  6
BYLAYER
 70
0
 71
3
 72
10
 73
6
 74
0
 42
0.0000001
 43
0.0000001
 44
0.0000000001
 40
0.0
 40
0.0
 40
0.0
 40
0.0
 40
0.2396930086
 40
0.4852611463
 40
1.0
 40
1.0
 40
1.0
 40
1.0
 10
28.0540003866
 20
27.1300964216
 30
0.0
 10
28.0846526695
 20
27.1032919994
 30
0.0
 10
28.141239166
 20
27.0423400302
 30
0.0
 10
28.2298104872
 20
26.8965189654
 30
0.0
 10
28.2627678233
 20
26.7670286545
 30
0.0
 10
28.2675342032
 20
26.6797148544
 30
0.0
  0
SPLINE
  5
32F
100
AcDbEntity
  8
0
100
AcDbSpline
 62
7
  6
BYLAYER
 70
0
 71
3
 72
11
 73
7
 74
0
 42
0.0000001
 43
0.0000001
 44
0.0000000001
 40
0.0
 40
0.0
 40
0.0
 40
0.0
 40
0.2202857198
 40
0.458178287
 40
0.717955882
 40
1.0
 40
1.0
 40
1.0
 40
1.0
 10
27.9679863355
 20
27.1748638037
 30
0.0
 10
27.9377148419
 20
27.1817949298
 30
0.0
 10
27.8727117568
 20
27.1880598903
 30
0.0
 10
27.7716287076
 20
27.1755471447
 30
0.0
 10
27.6663893599
 20
27.1420862662
 30
0.0
 10
27.5976848845
 20
27.1080505347
 30
0.0
 10
27.5632505696
 20
27.0881699924
 30
0.0
  0
SPLINE
  5
330
100
AcDbEntity
  8
0
100
AcDbSpline
 62
7
  6
BYLAYER
 70
0
 71
3
 72
11
 73
7
 74
0
 42
0.0000001
 43
0.0000001
 44
0.0000000001
 40
0.0
 40
0.0
 40
0.0
 40
0.0
 40
0.2177382977
 40
0.4508602761
 40
0.7103539614
 40
1.0
 40
1.0
 40
1.0
 40
1.0
 10
20.3810944214
 20
51.1152209889
 30
0.0
 10
20.3481192048
 20
51.1342695296
 30
0.0
 10
20.2863900988
 20
51.1861216558
 30
0.0
 10
20.2206931401
 20
51.2935758719
 30
0.0
 10
20.181679788
 20
51.4259769131
 30
0.0
 10
20.1739792599
 20
51.5223442165
 30
0.0
 10
20.1739792599
 20
51.5730022689
 30
0.0
  0
SPLINE
  5
331
100
AcDbEntity
  8
0
100
AcDbSpline
 62
7
  6
BYLAYER
 70
0
 71
3
 72
12
 73
8
 74
0
 42
0.0000001
 43
0.0000001
 44
0.0000000001
 40
0.0
 40
0.0
 40
0.0
 40
0.0
 40
0.2895323582
 40
0.5486668217
 40
0.7816398339
 40
0.891850619
 40
1.0
 40
1.0
 40
1.0
 40
1.0
 10
37.6226298386
 20
89.520276509
 30
0.0
 10
37.7104012983
 20
89.5709510824
 30
0.0
 10
37.8850142413
 20
89.6539875243
 30
0.0
 10
38.1531706
 20
89.7188927373
 30
0.0
 10
38.3673200298
 20
89.7131259588
 30
0.0
 10
38.5201934954
 20
89.670840691
 30
0.0
 10
38.5898264517
 20
89.6382591044
 30
0.0
 10
38.6226116107
 20
89.6193301814
 30
0.0
  0
SPLINE
  5
332
100
AcDbEntity
  8
0
100
AcDbSpline
 62
7
  6
BYLAYER
 70
0
 71
3
 72
9
 73
5
 74
0
 42
0.0000001
 43
0.0000001
 44
0.0000000001
 40
0.0
 40
0.0
 40
0.0
 40
0.0
 40
0.5187826787
 40
1.0
 40
1.0
 40
1.0
 40
1.0
 10
36.9326526612
 20
89.0016281587
 30
0.0
 10
37.0144691725
 20
89.0872828987
 30
0.0
 10
37.1822157638
 20
89.2431829595
 30
0.0
 10
37.3702253638
 20
89.3745515874
 30
0.0
 10
37.4653792131
 20
89.42948836
 30
0.0
  0
SPLINE
  5
333
100
AcDbEntity
  8
0
100
AcDbSpline
 62
7
  6
BYLAYER
 70
0
 71
3
 72
11
 73
7
 74
0
 42
0.0000001
 43
0.0000001
 44
0.0000000001
 40
0.0
 40
0.0
 40
0.0
 40
0.0
 40
0.2354195186
 40
0.4812645276
 40
0.7365394812
 40
1.0
 40
1.0
 40
1.0
 40
1.0
 10
32.9372035216
 20
85.7926766489
 30
0.0
 10
33.2865548986
 20
85.9943735565
 30
0.0
 10
33.9833620359
 20
86.4373588698
 30
0.0
 10
34.9948273616
 20
87.1939484918
 30
0.0
 10
35.9870474284
 20
88.0509708859
 30
0.0
 10
36.6208312634
 20
88.6751783952
 30
0.0
 10
36.9326526612
 20
89.0016281587
 30
0.0
  0
SPLINE
  5
334
100
AcDbEntity
  8
0
100
AcDbSpline
 62
7
  6
BYLAYER
 70
0
 71
3
 72
10
 73
6
 74
0
 42
0.0000001
 43
0.0000001
 44
0.0000000001
 40
0.0
 40
0.0
 40
0.0
 40
0.0
 40
0.4704883415
 40
0.7278553979
 40
1.0
 40
1.0
 40
1.0
 40
1.0
 10
28.6945804984
 20
84.3656955878
 30
0.0
 10
29.3995273794
 20
84.4174305762
 30
0.0
 10
30.4811983225
 20
84.6598750341
 30
0.0
 10
31.8760956036
 20
85.2199359646
 30
0.0
 10
32.5831206488
 20
85.5882480272
 30
0.0
 10
32.9372035216
 20
85.7926766489
 30
0.0
  0
SPLINE
  5
335
100
AcDbEntity
  8
0
100
AcDbSpline
 62
7
  6
BYLAYER
 70
0
 71
3
 72
11
 73
7
 74
0
 42
0.0000001
 43
0.0000001
 44
0.0000000001
 40
0.0
 40
0.0
 40
0.0
 40
0.0
 40
0.2514850368
 40
0.5139453547
 40
0.7690181709
 40
1.0
 40
1.0
 40
1.0
 40
1.0
 10
25.1596127888
 20
82.022205191
 30
0.0
 10
25.1700390262
 20
82.0731560933
 30
0.0
 10
25.2034869295
 20
82.1749743204
 30
0.0
 10
25.280920203
 20
82.3148614615
 30
0.0
 10
25.3800605708
 20
82.434863842
 30
0.0
 10
25.459750476
 20
82.4980767517
 30
0.0
 10
25.5011177179
 20
82.5219599974
 30
0.0
  0
SPLINE
  5
336
100
AcDbEntity
  8
0
100
AcDbSpline
 62
7
  6
BYLAYER
 70
0
 71
3
 72
12
 73
8
 74
0
 42
0.0000001
 43
0.0000001
 44
0.0000000001
 40
0.0
 40
0.0
 40
0.0
 40
0.0
 40
0.2618590419
 40
0.5325937658
 40
0.7852922238
 40
0.8984004826
 40
1.0
 40
1.0
 40
1.0
 40
1.0
 10
25.150055368
 20
80.9059038537
 30
0.0
 10
25.1969535819
 20
80.9476563593
 30
0.0
 10
25.2807557133
 20
81.0460459228
 30
0.0
 10
25.3692397014
 20
81.2136362855
 30
0.0
 10
25.4090294758
 20
81.3630900934
 30
0.0
 10
25.4126879074
 20
81.4755150313
 30
0.0
 10
25.4051957083
 20
81.5268864572
 30
0.0
 10
25.3988093714
 20
81.5503970025
 30
0.0
  0
SPLINE
  5
337
100
AcDbEntity
  8
0
100
AcDbSpline
 62
7
  6
BYLAYER
 70
0
 71
3
 72
9
 73
5
 74
0
 42
0.0000001
 43
0.0000001
 44
0.0000000001
 40
0.0
 40
0.0
 40
0.0
 40
0.0
 40
0.5278930542
 40
1.0
 40
1.0
 40
1.0
 40
1.0
 10
20.8433970549
 20
78.3941575884
 30
0.0
 10
20.8654685238
 20
78.4000714673
 30
0.0
 10
20.9093917036
 20
78.405689559
 30
0.0
 10
20.9524940786
 20
78.3930492492
 30
0.0
 10
20.9701914463
 20
78.382831377
 30
0.0
  0
SPLINE
  5
338
100
AcDbEntity
  8
0
100
AcDbSpline
 62
7
  6
BYLAYER
 70
0
 71
3
 72
9
 73
5
 74
0
 42
0.0000001
 43
0.0000001
 44
0.0000000001
 40
0.0
 40
0.0
 40
0.0
 40
0.0
 40
0.2745227763
 40
1.0
 40
1.0
 40
1.0
 40
1.0
 10
20.696987503
 20
78.3096284987
 30
0.0
 10
20.7086152777
 20
78.3199394442
 30
0.0
 10
20.7525158919
 20
78.3555299729
 30
0.0
 10
20.8037266028
 20
78.3835281983
 30
0.0
 10
20.8433970549
 20
78.3941575884
 30
0.0
  0
SPLINE
  5
339
100
AcDbEntity
  8
0
100
AcDbSpline
 62
7
  6
BYLAYER
 70
0
 71
3
 72
11
 73
7
 74
0
 42
0.0000001
 43
0.0000001
 44
0.0000000001
 40
0.0
 40
0.0
 40
0.0
 40
0.0
 40
0.2309837786
 40
0.486057365
 40
0.7485170102
 40
1.0
 40
1.0
 40
1.0
 40
1.0
 10
20.1739792599
 20
77.5325880371
 30
0.0
 10
20.1739792599
 20
77.5803552413
 30
0.0
 10
20.1888782574
 20
77.6809759129
 30
0.0
 10
20.2432327743
 20
77.8268361094
 30
0.0
 10
20.3256611832
 20
77.9638392236
 30
0.0
 10
20.3971138542
 20
78.043715121
 30
0.0
 10
20.4360252086
 20
78.078219819
 30
0.0
  0
SPLINE
  5
33A
100
AcDbEntity
  8
0
100
AcDbSpline
 62
7
  6
BYLAYER
 70
0
 71
3
 72
9
 73
5
 74
0
 42
0.0000001
 43
0.0000001
 44
0.0000000001
 40
0.0
 40
0.0
 40
0.0
 40
0.0
 40
0.2644203965
 40
1.0
 40
1.0
 40
1.0
 40
1.0
 10
21.4938631727
 20
46.6588183174
 30
0.0
 10
21.497606807
 20
46.6628793801
 30
0.0
 10
21.5122501343
 20
46.6777668464
 30
0.0
 10
21.5289186201
 20
46.6907866849
 30
0.0
 10
21.5422251849
 20
46.6984691878
 30
0.0
  0
SPLINE
  5
33B
100
AcDbEntity
  8
0
100
AcDbSpline
 62
7
  6
BYLAYER
 70
0
 71
3
 72
11
 73
7
 74
0
 42
0.0000001
 43
0.0000001
 44
0.0000000001
 40
0.0
 40
0.0
 40
0.0
 40
0.0
 40
0.2288337186
 40
0.4804303557
 40
0.7422653267
 40
1.0
 40
1.0
 40
1.0
 40
1.0
 10
20.1739792599
 20
44.6939694045
 30
0.0
 10
20.1739792599
 20
44.7778105574
 30
0.0
 10
20.1969976024
 20
44.9540302593
 30
0.0
 10
20.2832152616
 20
45.2132948835
 30
0.0
 10
20.4163567617
 20
45.4638941245
 30
0.0
 10
20.5325972002
 20
45.6160451376
 30
0.0
 10
20.5966006725
 20
45.6854755619
 30
0.0
  0
LINE
  5
33C
100
AcDbEntity
  8
0
100
AcDbLine
 62
7
  6
BYLAYER
 10
28.2703476486
 20
73.1406802629
 11
28.2703544068
 21
73.3021997472
  0
LINE
  5
33D
100
AcDbEntity
  8
0
100
AcDbLine
 62
7
  6
BYLAYER
 10
28.2703544068
 20
73.7921011975
 11
28.270093496
 21
73.9534286649
  0
SPLINE
  5
33E
100
AcDbEntity
  8
0
100
AcDbSpline
 62
7
  6
BYLAYER
 70
0
 71
3
 72
14
 73
10
 74
0
 42
0.0000001
 43
0.0000001
 44
0.0000000001
 40
0.0
 40
0.0
 40
0.0
 40
0.0
 40
0.1173407705
 40
0.2457131981
 40
0.3794826148
 40
0.5140552861
 40
0.6458277646
 40
0.7720605575
 40
1.0
 40
1.0
 40
1.0
 40
1.0
 10
27.3794556092
 20
72.0202643621
 30
0.0
 10
27.4295310842
 20
72.0491752785
 30
0.0
 10
27.5314637248
 20
72.1148337494
 30
0.0
 10
27.6807408957
 20
72.2277099465
 30
0.0
 10
27.8274268396
 20
72.3572751721
 30
0.0
 10
27.9636819747
 20
72.5001094251
 30
0.0
 10
28.0825281507
 20
72.6534864824
 30
0.0
 10
28.2044669669
 20
72.8595499831
 30
0.0
 10
28.2589364935
 20
73.0315034848
 30
0.0
 10
28.2655896757
 20
73.1436281418
 30
0.0
  0
LINE
  5
33F
100
AcDbEntity
  8
0
100
AcDbLine
 62
7
  6
BYLAYER
 10
28.2703476486
 20
60.4032425557
 11
28.2703544068
 21
60.56476204
  0
LINE
  5
340
100
AcDbEntity
  8
0
100
AcDbLine
 62
7
  6
BYLAYER
 10
28.2703544068
 20
61.0546634903
 11
28.270093496
 21
61.2159909577
  0
SPLINE
  5
341
100
AcDbEntity
  8
0
100
AcDbSpline
 62
7
  6
BYLAYER
 70
0
 71
3
 72
14
 73
10
 74
0
 42
0.0000001
 43
0.0000001
 44
0.0000000001
 40
0.0
 40
0.0
 40
0.0
 40
0.0
 40
0.1173407705
 40
0.2457131981
 40
0.3794826148
 40
0.5140552861
 40
0.6458277646
 40
0.7720605575
 40
1.0
 40
1.0
 40
1.0
 40
1.0
 10
27.3794556092
 20
59.2828266549
 30
0.0
 10
27.4295310842
 20
59.3117375712
 30
0.0
 10
27.5314637248
 20
59.3773960422
 30
0.0
 10
27.6807408957
 20
59.4902722392
 30
0.0
 10
27.8274268396
 20
59.6198374649
 30
0.0
 10
27.9636819747
 20
59.7626717179
 30
0.0
 10
28.0825281507
 20
59.9160487752
 30
0.0
 10
28.2044669669
 20
60.1221122758
 30
0.0
 10
28.2589364935
 20
60.2940657775
 30
0.0
 10
28.2655896757
 20
60.4061904345
 30
0.0
  0
LINE
  5
342
100
AcDbEntity
  8
0
100
AcDbLine
 62
7
  6
BYLAYER
 10
28.2703544068
 20
13.7791735385
 11
28.2700888024
 21
13.9424446467
  0
LINE
  5
343
100
AcDbEntity
  8
0
100
AcDbLine
 62
7
  6
BYLAYER
 10
28.2703476486
 20
13.1277526039
 11
28.2703544068
 21
13.2892720882
  0
SPLINE
  5
344
100
AcDbEntity
  8
0
100
AcDbSpline
 62
7
  6
BYLAYER
 70
0
 71
3
 72
14
 73
10
 74
0
 42
0.0000001
 43
0.0000001
 44
0.0000000001
 40
0.0
 40
0.0
 40
0.0
 40
0.0
 40
0.1173407705
 40
0.2457131981
 40
0.3794826148
 40
0.5140552861
 40
0.6458277646
 40
0.7720605575
 40
1.0
 40
1.0
 40
1.0
 40
1.0
 10
27.3794556092
 20
12.0073367031
 30
0.0
 10
27.4295310842
 20
12.0362476194
 30
0.0
 10
27.5314637248
 20
12.1019060904
 30
0.0
 10
27.6807408957
 20
12.2147822874
 30
0.0
 10
27.8274268396
 20
12.3443475131
 30
0.0
 10
27.9636819747
 20
12.4871817661
 30
0.0
 10
28.0825281507
 20
12.6405588234
 30
0.0
 10
28.2044669669
 20
12.846622324
 30
0.0
 10
28.2589364935
 20
13.0185758257
 30
0.0
 10
28.2655896757
 20
13.1307004827
 30
0.0
  0
SPLINE
  5
345
100
AcDbEntity
  8
0
100
AcDbSpline
 62
7
  6
BYLAYER
 70
0
 71
3
 72
11
 73
7
 74
0
 42
0.0000001
 43
0.0000001
 44
0.0000000001
 40
0.0
 40
0.0
 40
0.0
 40
0.0
 40
0.2465792904
 40
0.5188886152
 40
0.7805351072
 40
1.0
 40
1.0
 40
1.0
 40
1.0
 10
29.6075002009
 20
9.2249388395
 30
0.0
 10
29.5897534737
 20
9.2146928229
 30
0.0
 10
29.5568808042
 20
9.1853922037
 30
0.0
 10
29.5212347082
 20
9.1304474459
 30
0.0
 10
29.5009777903
 20
9.0705841669
 30
0.0
 10
29.5003282438
 20
9.0292317965
 30
0.0
 10
29.5050487222
 20
9.0116144848
 30
0.0
  0
SPLINE
  5
346
100
AcDbEntity
  8
0
100
AcDbSpline
 62
7
  6
BYLAYER
 70
0
 71
3
 72
9
 73
5
 74
0
 42
0.0000001
 43
0.0000001
 44
0.0000000001
 40
0.0
 40
0.0
 40
0.0
 40
0.0
 40
0.2324080431
 40
1.0
 40
1.0
 40
1.0
 40
1.0
 10
29.6433941019
 20
9.2384356335
 30
0.0
 10
29.6404522053
 20
9.2379588479
 30
0.0
 10
29.6279091263
 20
9.2351948068
 30
0.0
 10
29.6160246809
 20
9.229860421
 30
0.0
 10
29.6075002009
 20
9.2249388395
 30
0.0
  0
SPLINE
  5
347
100
AcDbEntity
  8
0
100
AcDbSpline
 62
7
  6
BYLAYER
 70
0
 71
3
 72
11
 73
7
 74
0
 42
0.0000001
 43
0.0000001
 44
0.0000000001
 40
0.0
 40
0.0
 40
0.0
 40
0.0
 40
0.2514829898
 40
0.513942635
 40
0.7690162214
 40
1.0
 40
1.0
 40
1.0
 40
1.0
 10
24.7847500182
 20
75.5675391787
 30
0.0
 10
24.7458386639
 20
75.5330344807
 30
0.0
 10
24.6743859929
 20
75.4531585833
 30
0.0
 10
24.5919575839
 20
75.3161554691
 30
0.0
 10
24.537603067
 20
75.1702952726
 30
0.0
 10
24.5227040696
 20
75.069674601
 30
0.0
 10
24.5227040696
 20
75.0219073968
 30
0.0
  0
SPLINE
  5
348
100
AcDbEntity
  8
0
100
AcDbSpline
 62
7
  6
BYLAYER
 70
0
 71
3
 72
11
 73
7
 74
0
 42
0.0000001
 43
0.0000001
 44
0.0000000001
 40
0.0
 40
0.0
 40
0.0
 40
0.0
 40
0.2177442246
 40
0.4508817658
 40
0.7104588047
 40
1.0
 40
1.0
 40
1.0
 40
1.0
 10
46.4125586854
 20
21.1565861454
 30
0.0
 10
46.4455388775
 20
21.1375454358
 30
0.0
 10
46.5073073217
 20
21.0857364336
 30
0.0
 10
46.5730138315
 20
20.9782552661
 30
0.0
 10
46.6119670014
 20
20.8458441488
 30
0.0
 10
46.6196989825
 20
20.7494873133
 30
0.0
 10
46.6196989825
 20
20.6988484544
 30
0.0
  0
SPLINE
  5
349
100
AcDbEntity
  8
0
100
AcDbSpline
 62
7
  6
BYLAYER
 70
0
 71
3
 72
9
 73
5
 74
0
 42
0.0000001
 43
0.0000001
 44
0.0000000001
 40
0.0
 40
0.0
 40
0.0
 40
0.0
 40
0.2260355617
 40
1.0
 40
1.0
 40
1.0
 40
1.0
 10
25.1921218646
 20
75.8834769481
 30
0.0
 10
25.1797539092
 20
75.8801630503
 30
0.0
 10
25.1261889294
 20
75.8611912745
 30
0.0
 10
25.0785155725
 20
75.828036195
 30
0.0
 10
25.0457123127
 20
75.7989478585
 30
0.0
  0
SPLINE
  5
34A
100
AcDbEntity
  8
0
100
AcDbSpline
 62
7
  6
BYLAYER
 70
0
 71
3
 72
9
 73
5
 74
0
 42
0.0000001
 43
0.0000001
 44
0.0000000001
 40
0.0
 40
0.0
 40
0.0
 40
0.0
 40
0.4861728752
 40
1.0
 40
1.0
 40
1.0
 40
1.0
 10
25.3189162559
 20
75.8721507367
 30
0.0
 10
25.3072074495
 20
75.8789110125
 30
0.0
 10
25.2808215644
 20
75.889114302
 30
0.0
 10
25.2527281408
 20
75.8913105549
 30
0.0
 10
25.2384496921
 20
75.8907534048
 30
0.0
  0
SPLINE
  5
34B
100
AcDbEntity
  8
0
100
AcDbSpline
 62
7
  6
BYLAYER
 70
0
 71
3
 72
9
 73
5
 74
0
 42
0.0000001
 43
0.0000001
 44
0.0000000001
 40
0.0
 40
0.0
 40
0.0
 40
0.0
 40
0.2412459452
 40
1.0
 40
1.0
 40
1.0
 40
1.0
 10
25.2384496921
 20
75.8907534048
 30
0.0
 10
25.2346769391
 20
75.8906061907
 30
0.0
 10
25.2190584787
 20
75.8895104759
 30
0.0
 10
25.2035921514
 20
75.8865503225
 30
0.0
 10
25.1921218646
 20
75.8834769481
 30
0.0
  0
SPLINE
  5
34C
100
AcDbEntity
  8
0
100
AcDbSpline
 62
7
  6
BYLAYER
 70
0
 71
3
 72
15
 73
11
 74
0
 42
0.0000001
 43
0.0000001
 44
0.0000000001
 40
0.0
 40
0.0
 40
0.0
 40
0.0
 40
0.1141465952
 40
0.2373352439
 40
0.366975646
 40
0.4999989181
 40
0.6330223406
 40
0.7626631822
 40
0.8858525235
 40
1.0
 40
1.0
 40
1.0
 40
1.0
 10
22.4720858667
 20
57.2171092029
 30
0.0
 10
22.3317148266
 20
57.2981506273
 30
0.0
 10
22.0544379313
 20
57.492539129
 30
0.0
 10
21.6728968962
 20
57.8494546742
 30
0.0
 10
21.3213301447
 20
58.2714164982
 30
0.0
 10
21.0128964442
 20
58.74247909
 30
0.0
 10
20.7591584598
 20
59.2451211565
 30
0.0
 10
20.5695088449
 20
59.7605685065
 30
0.0
 10
20.4511775602
 20
60.2694525218
 30
0.0
 10
20.4214676637
 20
60.6067775505
 30
0.0
 10
20.4214676637
 20
60.7688644007
 30
0.0
  0
SPLINE
  5
34D
100
AcDbEntity
  8
0
100
AcDbSpline
 62
7
  6
BYLAYER
 70
0
 71
3
 72
11
 73
7
 74
0
 42
0.0000001
 43
0.0000001
 44
0.0000000001
 40
0.0
 40
0.0
 40
0.0
 40
0.0
 40
0.2041075257
 40
0.4324909149
 40
0.6982100257
 40
1.0
 40
1.0
 40
1.0
 40
1.0
 10
29.6562957236
 20
10.0901863664
 30
0.0
 10
29.678462015
 20
10.0773697027
 30
0.0
 10
29.7191937035
 20
10.0384286112
 30
0.0
 10
29.7535965268
 20
9.9559901375
 30
0.0
 10
29.7636869607
 20
9.855638155
 30
0.0
 10
29.7552004535
 20
9.7844216954
 30
0.0
 10
29.747534181
 20
9.7473470225
 30
0.0
  0
SPLINE
  5
34E
100
AcDbEntity
  8
0
100
AcDbSpline
 62
7
  6
BYLAYER
 70
0
 71
3
 72
12
 73
8
 74
0
 42
0.0000001
 43
0.0000001
 44
0.0000000001
 40
0.0
 40
0.0
 40
0.0
 40
0.0
 40
0.289556229
 40
0.5486533222
 40
0.7816321932
 40
0.8918390364
 40
1.0
 40
1.0
 40
1.0
 40
1.0
 10
20.4214676637
 20
73.9962035582
 30
0.0
 10
20.4214676637
 20
74.1431791963
 30
0.0
 10
20.443765748
 20
74.4226591508
 30
0.0
 10
20.5567197257
 20
74.8064492002
 30
0.0
 10
20.7191832826
 20
75.0711945558
 30
0.0
 10
20.8831231968
 20
75.2325318529
 30
0.0
 10
20.9745569864
 20
75.2963137763
 30
0.0
 10
21.0221030167
 20
75.3237643276
 30
0.0
  0
SPLINE
  5
34F
100
AcDbEntity
  8
0
100
AcDbSpline
 62
7
  6
BYLAYER
 70
0
 71
3
 72
11
 73
7
 74
0
 42
0.0000001
 43
0.0000001
 44
0.0000000001
 40
0.0
 40
0.0
 40
0.0
 40
0.0
 40
0.2895161426
 40
0.5491680116
 40
0.7823267738
 40
1.0
 40
1.0
 40
1.0
 40
1.0
 10
24.5227040696
 20
7.7320778578
 30
0.0
 10
24.5227040696
 20
7.7067606915
 30
0.0
 10
24.5265771292
 20
7.6585799709
 30
0.0
 10
24.5460473381
 20
7.5923628138
 30
0.0
 10
24.5789221836
 20
7.5386378534
 30
0.0
 10
24.6097812788
 20
7.5127119557
 30
0.0
 10
24.6262659581
 20
7.5031947447
 30
0.0
  0
SPLINE
  5
350
100
AcDbEntity
  8
0
100
AcDbSpline
 62
7
  6
BYLAYER
 70
0
 71
3
 72
9
 73
5
 74
0
 42
0.0000001
 43
0.0000001
 44
0.0000000001
 40
0.0
 40
0.0
 40
0.0
 40
0.0
 40
0.5275887013
 40
1.0
 40
1.0
 40
1.0
 40
1.0
 10
25.6777680267
 20
75.0635600732
 30
0.0
 10
25.6501973683
 20
75.0561727291
 30
0.0
 10
25.5953046863
 20
75.0492245048
 30
0.0
 10
25.5414069935
 20
75.0649280549
 30
0.0
 10
25.519272964
 20
75.0777068535
 30
0.0
  0
SPLINE
  5
351
100
AcDbEntity
  8
0
100
AcDbSpline
 62
7
  6
BYLAYER
 70
0
 71
3
 72
9
 73
5
 74
0
 42
0.0000001
 43
0.0000001
 44
0.0000000001
 40
0.0
 40
0.0
 40
0.0
 40
0.0
 40
0.5324907192
 40
1.0
 40
1.0
 40
1.0
 40
1.0
 10
25.8607799666
 20
75.1692214353
 30
0.0
 10
25.8325327795
 20
75.1441732025
 30
0.0
 10
25.7753833414
 20
75.1014551966
 30
0.0
 10
25.7097848723
 20
75.0721387388
 30
0.0
 10
25.6777680267
 20
75.0635600732
 30
0.0
  0
SPLINE
  5
352
100
AcDbEntity
  8
0
100
AcDbSpline
 62
7
  6
BYLAYER
 70
0
 71
3
 72
11
 73
7
 74
0
 42
0.0000001
 43
0.0000001
 44
0.0000000001
 40
0.0
 40
0.0
 40
0.0
 40
0.0
 40
0.2897519969
 40
0.5493972909
 40
0.7824155999
 40
1.0
 40
1.0
 40
1.0
 40
1.0
 10
28.270093496
 20
26.6779387131
 30
0.0
 10
28.2701917334
 20
26.7288007911
 30
0.0
 10
28.2627567058
 20
26.8255730362
 30
0.0
 10
28.2240941771
 20
26.9586522402
 30
0.0
 10
28.158230341
 20
27.0665597808
 30
0.0
 10
28.0962883453
 20
27.1185474599
 30
0.0
 10
28.0632125756
 20
27.1376467365
 30
0.0
  0
SPLINE
  5
353
100
AcDbEntity
  8
0
100
AcDbSpline
 62
7
  6
BYLAYER
 70
0
 71
3
 72
12
 73
8
 74
0
 42
0.0000001
 43
0.0000001
 44
0.0000000001
 40
0.0
 40
0.0
 40
0.0
 40
0.0
 40
0.1016104892
 40
0.2147396506
 40
0.4674357165
 40
0.7381489365
 40
1.0
 40
1.0
 40
1.0
 40
1.0
 10
29.747534181
 20
79.0397163622
 30
0.0
 10
29.7539211871
 20
79.0162033536
 30
0.0
 10
29.761404729
 20
78.9648225808
 30
0.0
 10
29.757740353
 20
78.8523925296
 30
0.0
 10
29.7179654768
 20
78.7029357809
 30
0.0
 10
29.6294727429
 20
78.5353580171
 30
0.0
 10
29.5456768118
 20
78.4369743126
 30
0.0
 10
29.4987801777
 20
78.3952232134
 30
0.0
  0
SPLINE
  5
354
100
AcDbEntity
  8
0
100
AcDbSpline
 62
7
  6
BYLAYER
 70
0
 71
3
 72
13
 73
9
 74
0
 42
0.0000001
 43
0.0000001
 44
0.0000000001
 40
0.0
 40
0.0
 40
0.0
 40
0.0
 40
0.1080809191
 40
0.2182195855
 40
0.3322470193
 40
0.4516783168
 40
0.710626237
 40
1.0
 40
1.0
 40
1.0
 40
1.0
 10
23.9220777176
 20
69.81092934
 30
0.0
 10
23.8745385634
 20
69.7834834673
 30
0.0
 10
23.7735983704
 20
69.7362011644
 30
0.0
 10
23.6102488574
 20
69.6911016236
 30
0.0
 10
23.4361363071
 20
69.6716264802
 30
0.0
 10
23.1854327441
 20
69.6803322878
 30
0.0
 10
22.8523465919
 20
69.7605996166
 30
0.0
 10
22.5993659892
 20
69.8810633595
 30
0.0
 10
22.4720858667
 20
69.9545469101
 30
0.0
  0
SPLINE
  5
355
100
AcDbEntity
  8
0
100
AcDbSpline
 62
7
  6
BYLAYER
 70
0
 71
3
 72
13
 73
9
 74
0
 42
0.0000001
 43
0.0000001
 44
0.0000000001
 40
0.0
 40
0.0
 40
0.0
 40
0.0
 40
0.1080809191
 40
0.2182195855
 40
0.3322470193
 40
0.4516783168
 40
0.710626237
 40
1.0
 40
1.0
 40
1.0
 40
1.0
 10
23.9220777176
 20
22.5354393882
 30
0.0
 10
23.8745385634
 20
22.5079935155
 30
0.0
 10
23.7735983704
 20
22.4607112126
 30
0.0
 10
23.6102488574
 20
22.4156116718
 30
0.0
 10
23.4361363071
 20
22.3961365284
 30
0.0
 10
23.1854327441
 20
22.404842336
 30
0.0
 10
22.8523465919
 20
22.4851096648
 30
0.0
 10
22.5993659892
 20
22.6055734077
 30
0.0
 10
22.4720858667
 20
22.6790569583
 30
0.0
  0
SPLINE
  5
356
100
AcDbEntity
  8
0
100
AcDbSpline
 62
7
  6
BYLAYER
 70
0
 71
3
 72
11
 73
7
 74
0
 42
0.0000001
 43
0.0000001
 44
0.0000000001
 40
0.0
 40
0.0
 40
0.0
 40
0.0
 40
0.3013730355
 40
0.5673972498
 40
0.7958493789
 40
1.0
 40
1.0
 40
1.0
 40
1.0
 10
29.5050487222
 20
79.4954524813
 30
0.0
 10
29.5027831415
 20
79.4843810491
 30
0.0
 10
29.5003147073
 20
79.4630945973
 30
0.0
 10
29.5033324369
 20
79.4330956675
 30
0.0
 10
29.5136998074
 20
79.4084736866
 30
0.0
 10
29.5258759063
 20
79.3968339179
 30
0.0
 10
29.5325073445
 20
79.3930094611
 30
0.0
  0
SPLINE
  5
357
100
AcDbEntity
  8
0
100
AcDbSpline
 62
7
  6
BYLAYER
 70
0
 71
3
 72
13
 73
9
 74
0
 42
0.0000001
 43
0.0000001
 44
0.0000000001
 40
0.0
 40
0.0
 40
0.0
 40
0.0
 40
0.1080809191
 40
0.2182195855
 40
0.3322470193
 40
0.4516783168
 40
0.710626237
 40
1.0
 40
1.0
 40
1.0
 40
1.0
 10
23.9220777176
 20
57.0734916327
 30
0.0
 10
23.8745385634
 20
57.0460457601
 30
0.0
 10
23.7735983704
 20
56.9987634572
 30
0.0
 10
23.6102488574
 20
56.9536639164
 30
0.0
 10
23.4361363071
 20
56.934188773
 30
0.0
 10
23.1854327441
 20
56.9428945806
 30
0.0
 10
22.8523465919
 20
57.0231619094
 30
0.0
 10
22.5993659892
 20
57.1436256523
 30
0.0
 10
22.4720858667
 20
57.2171092029
 30
0.0
  0
SPLINE
  5
358
100
AcDbEntity
  8
0
100
AcDbSpline
 62
7
  6
BYLAYER
 70
0
 71
3
 72
13
 73
9
 74
0
 42
0.0000001
 43
0.0000001
 44
0.0000000001
 40
0.0
 40
0.0
 40
0.0
 40
0.0
 40
0.1080809191
 40
0.2182195855
 40
0.3322470193
 40
0.4516783168
 40
0.710626237
 40
1.0
 40
1.0
 40
1.0
 40
1.0
 10
23.9220777176
 20
9.7980016809
 30
0.0
 10
23.8745385634
 20
9.7705558083
 30
0.0
 10
23.7735983704
 20
9.7232735054
 30
0.0
 10
23.6102488574
 20
9.6781739646
 30
0.0
 10
23.4361363071
 20
9.6586988212
 30
0.0
 10
23.1854327441
 20
9.6674046288
 30
0.0
 10
22.8523465919
 20
9.7476719576
 30
0.0
 10
22.5993659892
 20
9.8681357005
 30
0.0
 10
22.4720858667
 20
9.9416192511
 30
0.0
  0
SPLINE
  5
359
100
AcDbEntity
  8
0
100
AcDbSpline
 62
7
  6
BYLAYER
 70
0
 71
3
 72
11
 73
7
 74
0
 42
0.0000001
 43
0.0000001
 44
0.0000000001
 40
0.0
 40
0.0
 40
0.0
 40
0.0
 40
0.2309818291
 40
0.4860546453
 40
0.7485149632
 40
1.0
 40
1.0
 40
1.0
 40
1.0
 10
29.8498425275
 20
80.0112793571
 30
0.0
 10
29.8084752856
 20
79.9873961114
 30
0.0
 10
29.7287853804
 20
79.9241832017
 30
0.0
 10
29.6296450127
 20
79.8041808212
 30
0.0
 10
29.5522117392
 20
79.6642936801
 30
0.0
 10
29.5187638359
 20
79.562475453
 30
0.0
 10
29.5083375984
 20
79.5115245507
 30
0.0
  0
SPLINE
  5
35A
100
AcDbEntity
  8
0
100
AcDbSpline
 62
7
  6
BYLAYER
 70
0
 71
3
 72
10
 73
6
 74
0
 42
0.0000001
 43
0.0000001
 44
0.0000000001
 40
0.0
 40
0.0
 40
0.0
 40
0.0
 40
0.2721446021
 40
0.5295116585
 40
1.0
 40
1.0
 40
1.0
 40
1.0
 10
37.2859283313
 20
83.2819960086
 30
0.0
 10
36.9318454584
 20
83.0775673869
 30
0.0
 10
36.2248204132
 20
82.7092553243
 30
0.0
 10
34.8299231321
 20
82.1491943938
 30
0.0
 10
33.7482521891
 20
81.9067499359
 30
0.0
 10
33.043305308
 20
81.8550149475
 30
0.0
  0
SPLINE
  5
35B
100
AcDbEntity
  8
0
100
AcDbSpline
 62
7
  6
BYLAYER
 70
0
 71
3
 72
11
 73
7
 74
0
 42
0.0000001
 43
0.0000001
 44
0.0000000001
 40
0.0
 40
0.0
 40
0.0
 40
0.0
 40
0.2897519969
 40
0.5493972909
 40
0.7824155999
 40
1.0
 40
1.0
 40
1.0
 40
1.0
 10
28.270093496
 20
73.9534286649
 30
0.0
 10
28.2701917334
 20
74.0042907429
 30
0.0
 10
28.2627567058
 20
74.101062988
 30
0.0
 10
28.2240941771
 20
74.234142192
 30
0.0
 10
28.158230341
 20
74.3420497326
 30
0.0
 10
28.0962883453
 20
74.3940374117
 30
0.0
 10
28.0632125756
 20
74.4131366883
 30
0.0
  0
SPLINE
  5
35C
100
AcDbEntity
  8
0
100
AcDbSpline
 62
7
  6
BYLAYER
 70
0
 71
3
 72
11
 73
7
 74
0
 42
0.0000001
 43
0.0000001
 44
0.0000000001
 40
0.0
 40
0.0
 40
0.0
 40
0.0
 40
0.2634605188
 40
0.5187354724
 40
0.7645804814
 40
1.0
 40
1.0
 40
1.0
 40
1.0
 10
41.2813774709
 20
86.4909475184
 30
0.0
 10
40.969556073
 20
86.1644977549
 30
0.0
 10
40.3357722381
 20
85.5402902456
 30
0.0
 10
39.3435521713
 20
84.6832678515
 30
0.0
 10
38.3320868456
 20
83.9266782295
 30
0.0
 10
37.6352797083
 20
83.4836929162
 30
0.0
 10
37.2859283313
 20
83.2819960086
 30
0.0
  0
SPLINE
  5
35D
100
AcDbEntity
  8
0
100
AcDbSpline
 62
7
  6
BYLAYER
 70
0
 71
3
 72
9
 73
5
 74
0
 42
0.0000001
 43
0.0000001
 44
0.0000000001
 40
0.0
 40
0.0
 40
0.0
 40
0.0
 40
0.4812173213
 40
1.0
 40
1.0
 40
1.0
 40
1.0
 10
41.8141040228
 20
86.9188077197
 30
0.0
 10
41.7189501734
 20
86.8638709471
 30
0.0
 10
41.5309405734
 20
86.7325023192
 30
0.0
 10
41.3631939822
 20
86.5766022584
 30
0.0
 10
41.2813774709
 20
86.4909475184
 30
0.0
  0
SPLINE
  5
35E
100
AcDbEntity
  8
0
100
AcDbSpline
 62
7
  6
BYLAYER
 70
0
 71
3
 72
9
 73
5
 74
0
 42
0.0000001
 43
0.0000001
 44
0.0000000001
 40
0.0
 40
0.0
 40
0.0
 40
0.0
 40
0.2753155802
 40
1.0
 40
1.0
 40
1.0
 40
1.0
 10
26.2197362039
 20
24.8427509738
 30
0.0
 10
26.2952549602
 20
24.7991511859
 30
0.0
 10
26.5762038466
 20
24.6542480378
 30
0.0
 10
26.8928148826
 20
24.565961881
 30
0.0
 10
27.1223303272
 20
24.5633573869
 30
0.0
  0
SPLINE
  5
35F
100
AcDbEntity
  8
0
100
AcDbSpline
 62
7
  6
BYLAYER
 70
0
 71
3
 72
9
 73
5
 74
0
 42
0.0000001
 43
0.0000001
 44
0.0000000001
 40
0.0
 40
0.0
 40
0.0
 40
0.0
 40
0.5222126679
 40
1.0
 40
1.0
 40
1.0
 40
1.0
 10
25.223686869
 20
25.7159191986
 30
0.0
 10
25.3704898353
 20
25.5369414519
 30
0.0
 10
25.677409633
 20
25.2143639925
 30
0.0
 10
26.0363196761
 20
24.9486441599
 30
0.0
 10
26.2197362039
 20
24.8427509738
 30
0.0
  0
SPLINE
  5
360
100
AcDbEntity
  8
0
100
AcDbSpline
 62
7
  6
BYLAYER
 70
0
 71
3
 72
11
 73
7
 74
0
 42
0.0000001
 43
0.0000001
 44
0.0000000001
 40
0.0
 40
0.0
 40
0.0
 40
0.0
 40
0.2570117137
 40
0.5190840542
 40
0.771093363
 40
1.0
 40
1.0
 40
1.0
 40
1.0
 10
24.7394104359
 20
33.8768149853
 30
0.0
 10
24.7066726173
 20
33.8420451404
 30
0.0
 10
24.6472003058
 20
33.7653755811
 30
0.0
 10
24.5787864319
 20
33.6387534116
 30
0.0
 10
24.5346294317
 20
33.5072498282
 30
0.0
 10
24.5227040696
 20
33.417803329
 30
0.0
 10
24.5227040696
 20
33.3752689395
 30
0.0
  0
SPLINE
  5
361
100
AcDbEntity
  8
0
100
AcDbSpline
 62
7
  6
BYLAYER
 70
0
 71
3
 72
13
 73
9
 74
0
 42
0.0000001
 43
0.0000001
 44
0.0000000001
 40
0.0
 40
0.0
 40
0.0
 40
0.0
 40
0.1141944403
 40
0.2376170828
 40
0.5001380162
 40
0.7625798688
 40
0.8859148225
 40
1.0
 40
1.0
 40
1.0
 40
1.0
 10
27.5632505696
 20
24.638662741
 30
0.0
 10
27.6116892074
 20
24.6666286346
 30
0.0
 10
27.7074180147
 20
24.7338109491
 30
0.0
 10
27.8867286978
 20
24.9015752568
 30
0.0
 10
28.0758797416
 20
25.1604178253
 30
0.0
 10
28.2050951647
 20
25.453772572
 30
0.0
 10
28.2603436795
 20
25.6928942359
 30
0.0
 10
28.2704535509
 20
25.8093118904
 30
0.0
 10
28.2703476486
 20
25.8651903111
 30
0.0
  0
SPLINE
  5
362
100
AcDbEntity
  8
0
100
AcDbSpline
 62
7
  6
BYLAYER
 70
0
 71
3
 72
12
 73
8
 74
0
 42
0.0000001
 43
0.0000001
 44
0.0000000001
 40
0.0
 40
0.0
 40
0.0
 40
0.0
 40
0.289556229
 40
0.5486533222
 40
0.7816321932
 40
0.8918390364
 40
1.0
 40
1.0
 40
1.0
 40
1.0
 10
20.4214676637
 20
26.7207136064
 30
0.0
 10
20.4214676637
 20
26.8676892444
 30
0.0
 10
20.443765748
 20
27.147169199
 30
0.0
 10
20.5567197257
 20
27.5309592484
 30
0.0
 10
20.7191832826
 20
27.795704604
 30
0.0
 10
20.8831231968
 20
27.9570419011
 30
0.0
 10
20.9745569864
 20
28.0208238245
 30
0.0
 10
21.0221030167
 20
28.0482743758
 30
0.0
  0
SPLINE
  5
363
100
AcDbEntity
  8
0
100
AcDbSpline
 62
7
  6
BYLAYER
 70
0
 71
3
 72
15
 73
11
 74
0
 42
0.0000001
 43
0.0000001
 44
0.0000000001
 40
0.0
 40
0.0
 40
0.0
 40
0.0
 40
0.1141465952
 40
0.2373352439
 40
0.366975646
 40
0.4999989181
 40
0.6330223406
 40
0.7626631822
 40
0.8858525235
 40
1.0
 40
1.0
 40
1.0
 40
1.0
 10
22.4720858667
 20
22.6790569583
 30
0.0
 10
22.3317148266
 20
22.7600983827
 30
0.0
 10
22.0544379313
 20
22.9544868845
 30
0.0
 10
21.6728968962
 20
23.3114024296
 30
0.0
 10
21.3213301447
 20
23.7333642537
 30
0.0
 10
21.0128964442
 20
24.2044268454
 30
0.0
 10
20.7591584598
 20
24.707068912
 30
0.0
 10
20.5695088449
 20
25.2225162619
 30
0.0
 10
20.4511775602
 20
25.7314002772
 30
0.0
 10
20.4214676637
 20
26.0687253059
 30
0.0
 10
20.4214676637
 20
26.2308121561
 30
0.0
  0
SPLINE
  5
364
100
AcDbEntity
  8
0
100
AcDbSpline
 62
7
  6
BYLAYER
 70
0
 71
3
 72
13
 73
9
 74
0
 42
0.0000001
 43
0.0000001
 44
0.0000000001
 40
0.0
 40
0.0
 40
0.0
 40
0.0
 40
0.1141944403
 40
0.2376170828
 40
0.5001380162
 40
0.7625798688
 40
0.8859148225
 40
1.0
 40
1.0
 40
1.0
 40
1.0
 10
27.5632505696
 20
71.9141526928
 30
0.0
 10
27.6116892074
 20
71.9421185864
 30
0.0
 10
27.7074180147
 20
72.0093009009
 30
0.0
 10
27.8867286978
 20
72.1770652086
 30
0.0
 10
28.0758797416
 20
72.4359077771
 30
0.0
 10
28.2050951647
 20
72.7292625238
 30
0.0
 10
28.2603436795
 20
72.9683841877
 30
0.0
 10
28.2704535509
 20
73.0848018422
 30
0.0
 10
28.2703476486
 20
73.1406802629
 30
0.0
  0
SPLINE
  5
365
100
AcDbEntity
  8
0
100
AcDbSpline
 62
7
  6
BYLAYER
 70
0
 71
3
 72
11
 73
7
 74
0
 42
0.0000001
 43
0.0000001
 44
0.0000000001
 40
0.0
 40
0.0
 40
0.0
 40
0.0
 40
0.2897519969
 40
0.5493972909
 40
0.7824155999
 40
1.0
 40
1.0
 40
1.0
 40
1.0
 10
28.270093496
 20
61.2159909577
 30
0.0
 10
28.2701917334
 20
61.2668530357
 30
0.0
 10
28.2627567058
 20
61.3636252808
 30
0.0
 10
28.2240941771
 20
61.4967044848
 30
0.0
 10
28.158230341
 20
61.6046120253
 30
0.0
 10
28.0962883453
 20
61.6565997045
 30
0.0
 10
28.0632125756
 20
61.6756989811
 30
0.0
  0
SPLINE
  5
366
100
AcDbEntity
  8
0
100
AcDbSpline
 62
7
  6
BYLAYER
 70
0
 71
3
 72
11
 73
7
 74
0
 42
0.0000001
 43
0.0000001
 44
0.0000000001
 40
0.0
 40
0.0
 40
0.0
 40
0.0
 40
0.2891839576
 40
0.549070541
 40
0.7822406658
 40
1.0
 40
1.0
 40
1.0
 40
1.0
 10
24.5227040696
 20
41.6219433525
 30
0.0
 10
24.5227040696
 20
41.5966554516
 30
0.0
 10
24.5266352746
 20
41.5484922335
 30
0.0
 10
24.5460228468
 20
41.4822639436
 30
0.0
 10
24.5788867337
 20
41.4284950768
 30
0.0
 10
24.6097641272
 20
41.4025625987
 30
0.0
 10
24.6262729841
 20
41.3930725994
 30
0.0
  0
SPLINE
  5
367
100
AcDbEntity
  8
0
100
AcDbSpline
 62
7
  6
BYLAYER
 70
0
 71
3
 72
12
 73
8
 74
0
 42
0.0000001
 43
0.0000001
 44
0.0000000001
 40
0.0
 40
0.0
 40
0.0
 40
0.0
 40
0.289556229
 40
0.5486533222
 40
0.7816321932
 40
0.8918390364
 40
1.0
 40
1.0
 40
1.0
 40
1.0
 10
20.4214676637
 20
13.9832758992
 30
0.0
 10
20.4214676637
 20
14.1302515372
 30
0.0
 10
20.443765748
 20
14.4097314918
 30
0.0
 10
20.5567197257
 20
14.7935215412
 30
0.0
 10
20.7191832826
 20
15.0582668968
 30
0.0
 10
20.8831231968
 20
15.2196041939
 30
0.0
 10
20.9745569864
 20
15.2833861173
 30
0.0
 10
21.0221030167
 20
15.3108366685
 30
0.0
  0
SPLINE
  5
368
100
AcDbEntity
  8
0
100
AcDbSpline
 62
7
  6
BYLAYER
 70
0
 71
3
 72
15
 73
11
 74
0
 42
0.0000001
 43
0.0000001
 44
0.0000000001
 40
0.0
 40
0.0
 40
0.0
 40
0.0
 40
0.1141465952
 40
0.2373352439
 40
0.366975646
 40
0.4999989181
 40
0.6330223406
 40
0.7626631822
 40
0.8858525235
 40
1.0
 40
1.0
 40
1.0
 40
1.0
 10
22.4720858667
 20
9.9416192511
 30
0.0
 10
22.3317148266
 20
10.0226606755
 30
0.0
 10
22.0544379313
 20
10.2170491772
 30
0.0
 10
21.6728968962
 20
10.5739647224
 30
0.0
 10
21.3213301447
 20
10.9959265464
 30
0.0
 10
21.0128964442
 20
11.4669891382
 30
0.0
 10
20.7591584598
 20
11.9696312047
 30
0.0
 10
20.5695088449
 20
12.4850785547
 30
0.0
 10
20.4511775602
 20
12.99396257
 30
0.0
 10
20.4214676637
 20
13.3312875987
 30
0.0
 10
20.4214676637
 20
13.4933744489
 30
0.0
  0
SPLINE
  5
369
100
AcDbEntity
  8
0
100
AcDbSpline
 62
7
  6
BYLAYER
 70
0
 71
3
 72
11
 73
7
 74
0
 42
0.0000001
 43
0.0000001
 44
0.0000000001
 40
0.0
 40
0.0
 40
0.0
 40
0.0
 40
0.2577346733
 40
0.5195696443
 40
0.7711662814
 40
1.0
 40
1.0
 40
1.0
 40
1.0
 10
24.9453254822
 20
43.1747949215
 30
0.0
 10
24.8813220099
 20
43.1053644972
 30
0.0
 10
24.7650815714
 20
42.9532134842
 30
0.0
 10
24.6319400712
 20
42.7026142432
 30
0.0
 10
24.5457224121
 20
42.443349619
 30
0.0
 10
24.5227040696
 20
42.2671299171
 30
0.0
 10
24.5227040696
 20
42.1832887642
 30
0.0
  0
SPLINE
  5
36A
100
AcDbEntity
  8
0
100
AcDbSpline
 62
7
  6
BYLAYER
 70
0
 71
3
 72
9
 73
5
 74
0
 42
0.0000001
 43
0.0000001
 44
0.0000000001
 40
0.0
 40
0.0
 40
0.0
 40
0.0
 40
0.2389404513
 40
1.0
 40
1.0
 40
1.0
 40
1.0
 10
25.8909499946
 20
44.1877885475
 30
0.0
 10
25.888138813
 20
44.1861655207
 30
0.0
 10
25.8765812967
 20
44.1790150202
 30
0.0
 10
25.8658563445
 20
44.1705547078
 30
0.0
 10
25.858188429
 20
44.1636191506
 30
0.0
  0
SPLINE
  5
36B
100
AcDbEntity
  8
0
100
AcDbSpline
 62
7
  6
BYLAYER
 70
0
 71
3
 72
10
 73
6
 74
0
 42
0.0000001
 43
0.0000001
 44
0.0000000001
 40
0.0
 40
0.0
 40
0.0
 40
0.0
 40
0.4737096016
 40
0.7298873404
 40
1.0
 40
1.0
 40
1.0
 40
1.0
 10
48.8774721241
 20
41.4818038184
 30
0.0
 10
48.5025709405
 20
41.5123839923
 30
0.0
 10
47.9159659654
 20
41.4741950878
 30
0.0
 10
47.1430881283
 20
41.2896111904
 30
0.0
 10
46.7478976717
 20
41.1508180911
 30
0.0
 10
46.5489885988
 20
41.0705844672
 30
0.0
  0
SPLINE
  5
36C
100
AcDbEntity
  8
0
100
AcDbSpline
 62
7
  6
BYLAYER
 70
0
 71
3
 72
11
 73
7
 74
0
 42
0.0000001
 43
0.0000001
 44
0.0000000001
 40
0.0
 40
0.0
 40
0.0
 40
0.0
 40
0.2895411595
 40
0.5491183966
 40
0.7822559144
 40
1.0
 40
1.0
 40
1.0
 40
1.0
 10
46.6196989825
 20
19.3107943452
 30
0.0
 10
46.6196989825
 20
19.2652193785
 30
0.0
 10
46.6266578198
 20
19.1784982114
 30
0.0
 10
46.6617156172
 20
19.0593281645
 30
0.0
 10
46.7208515253
 20
18.9625951413
 30
0.0
 10
46.7764430868
 20
18.9159670353
 30
0.0
 10
46.8061252493
 20
18.8988304236
 30
0.0
  0
SPLINE
  5
36D
100
AcDbEntity
  8
0
100
AcDbSpline
 62
7
  6
BYLAYER
 70
0
 71
3
 72
15
 73
11
 74
0
 42
0.0000001
 43
0.0000001
 44
0.0000000001
 40
0.0
 40
0.0
 40
0.0
 40
0.0
 40
0.1141465952
 40
0.2373352439
 40
0.366975646
 40
0.4999989181
 40
0.6330223406
 40
0.7626631822
 40
0.8858525235
 40
1.0
 40
1.0
 40
1.0
 40
1.0
 10
22.4720858667
 20
69.9545469101
 30
0.0
 10
22.3317148266
 20
70.0355883345
 30
0.0
 10
22.0544379313
 20
70.2299768363
 30
0.0
 10
21.6728968962
 20
70.5868923814
 30
0.0
 10
21.3213301447
 20
71.0088542055
 30
0.0
 10
21.0128964442
 20
71.4799167972
 30
0.0
 10
20.7591584598
 20
71.9825588638
 30
0.0
 10
20.5695088449
 20
72.4980062137
 30
0.0
 10
20.4511775602
 20
73.006890229
 30
0.0
 10
20.4214676637
 20
73.3442152577
 30
0.0
 10
20.4214676637
 20
73.5063021079
 30
0.0
  0
SPLINE
  5
36E
100
AcDbEntity
  8
0
100
AcDbSpline
 62
7
  6
BYLAYER
 70
0
 71
3
 72
12
 73
8
 74
0
 42
0.0000001
 43
0.0000001
 44
0.0000000001
 40
0.0
 40
0.0
 40
0.0
 40
0.0
 40
0.1081494009
 40
0.2183602049
 40
0.4513332517
 40
0.710467663
 40
1.0
 40
1.0
 40
1.0
 40
1.0
 10
42.9713364187
 20
87.1086495384
 30
0.0
 10
42.9385512536
 20
87.1275784651
 30
0.0
 10
42.8689182918
 20
87.1601600747
 30
0.0
 10
42.7160447891
 20
87.2024453138
 30
0.0
 10
42.5018953636
 20
87.2082120936
 30
0.0
 10
42.2337390126
 20
87.1433068896
 30
0.0
 10
42.0591261018
 20
87.0602704386
 30
0.0
 10
41.9713546482
 20
87.0095958687
 30
0.0
  0
SPLINE
  5
36F
100
AcDbEntity
  8
0
100
AcDbSpline
 62
7
  6
BYLAYER
 70
0
 71
3
 72
13
 73
9
 74
0
 42
0.0000001
 43
0.0000001
 44
0.0000000001
 40
0.0
 40
0.0
 40
0.0
 40
0.0
 40
0.1141944403
 40
0.2376170828
 40
0.5001380162
 40
0.7625798688
 40
0.8859148225
 40
1.0
 40
1.0
 40
1.0
 40
1.0
 10
27.5632505696
 20
59.1767149856
 30
0.0
 10
27.6116892074
 20
59.2046808792
 30
0.0
 10
27.7074180147
 20
59.2718631937
 30
0.0
 10
27.8867286978
 20
59.4396275014
 30
0.0
 10
28.0758797416
 20
59.6984700698
 30
0.0
 10
28.2050951647
 20
59.9918248166
 30
0.0
 10
28.2603436795
 20
60.2309464804
 30
0.0
 10
28.2704535509
 20
60.347364135
 30
0.0
 10
28.2703476486
 20
60.4032425557
 30
0.0
  0
SPLINE
  5
370
100
AcDbEntity
  8
0
100
AcDbSpline
 62
7
  6
BYLAYER
 70
0
 71
3
 72
11
 73
7
 74
0
 42
0.0000001
 43
0.0000001
 44
0.0000000001
 40
0.0
 40
0.0
 40
0.0
 40
0.0
 40
0.2896466844
 40
0.5492199706
 40
0.7822907784
 40
1.0
 40
1.0
 40
1.0
 40
1.0
 10
28.2700888024
 20
13.9424446467
 30
0.0
 10
28.2701329881
 20
13.9931019902
 30
0.0
 10
28.2625344786
 20
14.0894835117
 30
0.0
 10
28.223705546
 20
14.2219538742
 30
0.0
 10
28.157948682
 20
14.3293918285
 30
0.0
 10
28.0961882207
 20
14.3811725834
 30
0.0
 10
28.0632140788
 20
14.4002116105
 30
0.0
  0
SPLINE
  5
371
100
AcDbEntity
  8
0
100
AcDbSpline
 62
7
  6
BYLAYER
 70
0
 71
3
 72
11
 73
7
 74
0
 42
0.0000001
 43
0.0000001
 44
0.0000000001
 40
0.0
 40
0.0
 40
0.0
 40
0.0
 40
0.2896460386
 40
0.5491397239
 40
0.7822617023
 40
1.0
 40
1.0
 40
1.0
 40
1.0
 10
24.5227040696
 20
49.0623216286
 30
0.0
 10
24.5227040696
 20
49.0116635762
 30
0.0
 10
24.5304045977
 20
48.9152962728
 30
0.0
 10
24.5694179497
 20
48.7828952316
 30
0.0
 10
24.6351149084
 20
48.6754410155
 30
0.0
 10
24.6968440144
 20
48.6235888893
 30
0.0
 10
24.729819231
 20
48.6045403486
 30
0.0
  0
SPLINE
  5
372
100
AcDbEntity
  8
0
100
AcDbSpline
 62
7
  6
BYLAYER
 70
0
 71
3
 72
9
 73
5
 74
0
 42
0.0000001
 43
0.0000001
 44
0.0000000001
 40
0.0
 40
0.0
 40
0.0
 40
0.0
 40
0.2753155802
 40
1.0
 40
1.0
 40
1.0
 40
1.0
 10
26.2197362039
 20
12.1053132666
 30
0.0
 10
26.2952549602
 20
12.0617134787
 30
0.0
 10
26.5762038466
 20
11.9168103306
 30
0.0
 10
26.8928148826
 20
11.8285241738
 30
0.0
 10
27.1223303272
 20
11.8259196797
 30
0.0
  0
SPLINE
  5
373
100
AcDbEntity
  8
0
100
AcDbSpline
 62
7
  6
BYLAYER
 70
0
 71
3
 72
9
 73
5
 74
0
 42
0.0000001
 43
0.0000001
 44
0.0000000001
 40
0.0
 40
0.0
 40
0.0
 40
0.0
 40
0.5222126679
 40
1.0
 40
1.0
 40
1.0
 40
1.0
 10
25.223686869
 20
12.9784814914
 30
0.0
 10
25.3704898353
 20
12.7995037446
 30
0.0
 10
25.677409633
 20
12.4769262853
 30
0.0
 10
26.0363196761
 20
12.2112064527
 30
0.0
 10
26.2197362039
 20
12.1053132666
 30
0.0
  0
SPLINE
  5
374
100
AcDbEntity
  8
0
100
AcDbSpline
 62
7
  6
BYLAYER
 70
0
 71
3
 72
12
 73
8
 74
0
 42
0.0000001
 43
0.0000001
 44
0.0000000001
 40
0.0
 40
0.0
 40
0.0
 40
0.0
 40
0.289556229
 40
0.5486533222
 40
0.7816321932
 40
0.8918390364
 40
1.0
 40
1.0
 40
1.0
 40
1.0
 10
20.4214676637
 20
61.258765851
 30
0.0
 10
20.4214676637
 20
61.405741489
 30
0.0
 10
20.443765748
 20
61.6852214436
 30
0.0
 10
20.5567197257
 20
62.069011493
 30
0.0
 10
20.7191832826
 20
62.3337568486
 30
0.0
 10
20.8831231968
 20
62.4950941457
 30
0.0
 10
20.9745569864
 20
62.5588760691
 30
0.0
 10
21.0221030167
 20
62.5863266204
 30
0.0
  0
SPLINE
  5
375
100
AcDbEntity
  8
0
100
AcDbSpline
 62
7
  6
BYLAYER
 70
0
 71
3
 72
13
 73
9
 74
0
 42
0.0000001
 43
0.0000001
 44
0.0000000001
 40
0.0
 40
0.0
 40
0.0
 40
0.0
 40
0.1141944403
 40
0.2376170828
 40
0.5001380162
 40
0.7625798688
 40
0.8859148225
 40
1.0
 40
1.0
 40
1.0
 40
1.0
 10
27.5632505696
 20
11.9012250338
 30
0.0
 10
27.6116892074
 20
11.9291909274
 30
0.0
 10
27.7074180147
 20
11.9963732419
 30
0.0
 10
27.8867286978
 20
12.1641375496
 30
0.0
 10
28.0758797416
 20
12.422980118
 30
0.0
 10
28.2050951647
 20
12.7163348648
 30
0.0
 10
28.2603436795
 20
12.9554565286
 30
0.0
 10
28.2704535509
 20
13.0718741832
 30
0.0
 10
28.2703476486
 20
13.1277526039
 30
0.0
  0
ELLIPSE
  5
376
100
AcDbEntity
  8
0
100
AcDbEllipse
 62
7
  6
BYLAYER
 10
31.564840838
 20
77.5720771139
 30
0.0
 11
6.4579127864
 21
5.8943204638
 31
0.0
 40
0.2589889637
 41
2.7088365819
 42
3.6564342783
  0
ELLIPSE
  5
377
100
AcDbEntity
  8
0
100
AcDbEllipse
 62
7
  6
BYLAYER
 10
31.564840838
 20
64.8346394066
 30
0.0
 11
6.4579127864
 21
5.8943204638
 31
0.0
 40
0.2589889637
 41
2.7088365819
 42
3.6564342783
  0
ENDSEC
  0
SECTION
  2
OBJECTS
  0
DICTIONARY
  5
C
100
AcDbDictionary
280
0
281
1
  3
ACAD_GROUP
350
D
  3
ACAD_MLINESTYLE
350
17
  3
ACAD_LAYOUT
350
1A
  3
ACAD_PLOTSETTINGS
350
19
  3
ACAD_PLOTSTYLENAME
350
E
  0
DICTIONARY
  5
D
102
{ACAD_REACTORS
330
C
102
}
100
AcDbDictionary
280
0
281
1
  0
ACDBDICTIONARYWDFLT
  5
E
102
{ACAD_REACTORS
330
C
102
}
100
AcDbDictionary
281
1
  3
Normal
350
F
100
AcDbDictionaryWithDefault
340
F
  0
DICTIONARY
  5
17
102
{ACAD_REACTORS
330
C
102
}
100
AcDbDictionary
280
0
281
1
  3
Standard
350
18
  0
DICTIONARY
  5
19
102
{ACAD_REACTORS
330
C
102
}
100
AcDbDictionary
281
1
  0
DICTIONARY
  5
1A
102
{ACAD_REACTORS
330
C
102
}
100
AcDbDictionary
281
1
  3
Model
350
378
  3
Layout1
350
379
  0
ACDBPLACEHOLDER
  5
F
102
{ACAD_REACTORS
330
E
102
}
  0
MLINESTYLE
  5
18
102
{ACAD_REACTORS
330
17
102
}
100
AcDbMlineStyle
  2
STANDARD
 70
0
  3

 62
256
 51
90.0
 52
90.0
 71
2
 49
0.5
 62
256
  6
BYLAYER
 49
-0.5
 62
256
  6
BYLAYER
  0
LAYOUT
  5
378
102
{ACAD_REACTORS
330
1A
102
}
100
AcDbPlotSettings
  1

  2
none_device
  4

  6

 40
0.0
 41
0.0
 42
0.0
 43
0.0
 44
210.0
 45
297.0
 46
0.0
 47
0.0
 48
0.0
 49
0.0
140
0.0
141
0.0
142
1.0
143
1.0
 70
1024
 72
1
 73
0
 74
0
  7

 75
0
147
1.0
148
0.0
149
0.0
100
AcDbLayout
  1
Model
 70
0
 71
0
 10
0.0
 20
0.0
 11
210.0
 21
297.0
 12
0.0
 22
0.0
 32
0.0
 14
0.0
 24
0.0
 34
0.0
 15
0.0
 25
0.0
 35
0.0
146
0.0
 13
0.0
 23
0.0
 33
0.0
 16
1.0
 26
0.0
 36
0.0
 17
0.0
 27
1.0
 37
0.0
 76
0
330
210
345
0
346
0
  0
LAYOUT
  5
379
102
{ACAD_REACTORS
330
1A
102
}
100
AcDbPlotSettings
  1

  2
none_device
  4

  6

 40
0.0
 41
0.0
 42
0.0
 43
0.0
 44
210.0
 45
297.0
 46
0.0
 47
0.0
 48
0.0
 49
0.0
140
0.0
141
0.0
142
1.0
143
1.0
 70
0
 72
1
 73
0
 74
0
  7

 75
0
147
1.0
148
0.0
149
0.0
100
AcDbLayout
  1
Layout1
 70
0
 71
1
 10
0.0
 20
0.0
 11
210.0
 21
297.0
 12
0.0
 22
0.0
 32
0.0
 14
0.0
 24
0.0
 34
0.0
 15
0.0
 25
0.0
 35
0.0
146
0.0
 13
0.0
 23
0.0
 33
0.0
 16
1.0
 26
0.0
 36
0.0
 17
0.0
 27
1.0
 37
0.0
 76
0
330
211
345
0
346
0
  0
ENDSEC
  0
EOF
