999
DXF file: C:\Users\sesa63760\Dev\_Creo\CAD\MCADID0004246_3D-CAD\drw0001_2.dxf
999
Pro/ENGINEER 2019471 by Parametric Technology Corporation
  0
SECTION
  2
HEADER
  9
$ACADVER
  1
AC1024
  9
$DWGCODEPAGE
  3
ANSI_1252
  9
$EXTMAX
 10
1183.2950652753
 20
1673.5173066036
 30
0.0
  9
$EXTMIN
 10
0.0
 20
0.0
 30
0.0
  9
$LIMMIN
 10
0.0
 20
0.0
  9
$LIMMAX
 10
1183.2950652753
 20
1673.5173066036
  9
$VIEWCTR
 10
591.6475326376
 20
836.7586533018
  9
$VIEWSIZE
 40
1673.5173066036
  9
$CLAYER
  8
0
  9
$LTSCALE
 40
109.0885355416
  9
$CELTYPE
  6
BYLAYER
  9
$DIMSCALE
 40
1.0
  9
$DIMASZ
 40
14.0868460152
  9
$DIMEXO
 40
1.0
  9
$DIMDLI
 40
75.3702609196
  9
$DIMEXE
 40
1.0
  9
$DIMCEN
 40
17.8508512704
  9
$DIMLFAC
 40
1.0
  9
$DIMBLK
  1
_FILLED
  9
$DIMALT
 70
0
  9
$DIMALTF
 40
0.0393700787
  9
$DIMTXT
 40
19.7215844213
  9
$DIMTOL
 70
1
  9
$DIMLIM
 70
0
  9
$DIMTFAC
 40
1.0
  9
$DIMTP
 40
0.01
  9
$DIMTM
 40
0.01
  9
$DIMGAP
 40
0.625
  9
$DIMDSEP
 70
46
  9
$AUNITS
 70
0
  9
$PDMODE
 70
3
  9
$PDSIZE
 40
0.3125
  9
$HANDSEED
  5
49F
  9
$TILEMODE
 70
1
  9
$MEASUREMENT
 70
1
  9
$INSUNITS
 70
4
  0
ENDSEC
  0
SECTION
  2
CLASSES
  0
CLASS
  1
ACDBDICTIONARYWDFLT
  2
AcDbDictionaryWithDefault
  3
AutoCAD 2000
 90
0
 91
1
280
0
281
0
  0
CLASS
  1
ACDBPLACEHOLDER
  2
AcDbPlaceHolder
  3
AutoCAD 2000
 90
0
 91
1
280
0
281
0
  0
CLASS
  1
LAYOUT
  2
AcDbLayout
  3
AutoCAD 2000
 90
0
 91
0
280
0
281
0
  0
ENDSEC
  0
SECTION
  2
TABLES
  0
TABLE
  2
VPORT
  5
8
100
AcDbSymbolTable
 70
2
  0
VPORT
  5
1F4
100
AcDbSymbolTableRecord
100
AcDbViewportTableRecord
  2
*ACTIVE
 70
0
 10
0.0
 20
0.0
 11
1.0
 21
1.0
 12
591.6475326376
 22
836.7586533018
 13
0.0
 23
0.0
 14
1.0
 24
1.0
 15
0.0
 25
0.0
 16
0.0
 26
0.0
 36
1.0
 17
0.0
 27
0.0
 37
0.0
 40
1673.5173066036
 41
0.7070707071
 42
50.0
 43
0.0
 44
0.0
 50
0.0
 51
0.0
 71
0
 72
100
 73
1
 74
1
 75
0
 76
0
 77
0
 78
0
  0
ENDTAB
  0
TABLE
  2
LTYPE
  5
5
100
AcDbSymbolTable
 70
6
  0
LTYPE
  5
14
100
AcDbSymbolTableRecord
100
AcDbLinetypeTableRecord
  2
BYBLOCK
 70
0
  3

 72
65
 73
0
 40
0.0
  0
LTYPE
  5
15
100
AcDbSymbolTableRecord
100
AcDbLinetypeTableRecord
  2
BYLAYER
 70
0
  3

 72
65
 73
0
 40
0.0
  0
LTYPE
  5
16
100
AcDbSymbolTableRecord
100
AcDbLinetypeTableRecord
  2
CONTINUOUS
 70
64
  3
Solid line
 72
65
 73
0
 40
0.0
  0
LTYPE
  5
1F5
100
AcDbSymbolTableRecord
100
AcDbLinetypeTableRecord
  2
CENTER
 70
64
  3
____ _ ____ _ ____ _ ____ _ ____ _ ____ _ ____
 72
65
 73
4
 40
0.6
 49
0.375
 74
0
 49
-0.075
 74
0
 49
0.075
 74
0
 49
-0.075
 74
0
  0
LTYPE
  5
1F6
100
AcDbSymbolTableRecord
100
AcDbLinetypeTableRecord
  2
HIDDEN
 70
64
  3
- - - - - - - - - - - - - - - - - - - -
 72
65
 73
2
 40
0.2
 49
0.1
 74
0
 49
-0.1
 74
0
  0
LTYPE
  5
1F7
100
AcDbSymbolTableRecord
100
AcDbLinetypeTableRecord
  2
PHANTOM
 70
64
  3
_____ _ _ _____ _ _ _____ _ _ _____
 72
65
 73
6
 40
0.8
 49
0.45
 74
0
 49
-0.05
 74
0
 49
0.1
 74
0
 49
-0.05
 74
0
 49
0.1
 74
0
 49
-0.05
 74
0
  0
LTYPE
  5
1F8
100
AcDbSymbolTableRecord
100
AcDbLinetypeTableRecord
  2
DOT
 70
64
  3
. . . . . . . . . . . . . . . . . . . .
 72
65
 73
2
 40
0.2
 49
0.1
 74
0
 49
-0.1
 74
0
  0
LTYPE
  5
1F9
100
AcDbSymbolTableRecord
100
AcDbLinetypeTableRecord
  2
DASHED
 70
64
  3
- - - - - - - - - - - - - - - - - - - -
 72
65
 73
2
 40
0.2
 49
0.1
 74
0
 49
-0.1
 74
0
  0
ENDTAB
  0
TABLE
  2
LAYER
  5
2
100
AcDbSymbolTable
 70
36
  0
LAYER
  5
10
100
AcDbSymbolTableRecord
100
AcDbLayerTableRecord
  2
0
 70
0
 62
7
  6
CONTINUOUS
370
-3
390
F
  0
LAYER
  5
1FA
100
AcDbSymbolTableRecord
100
AcDbLayerTableRecord
  2
DEFAULT_1
 70
0
 62
7
  6
CENTER
370
-3
390
F
  0
LAYER
  5
1FB
100
AcDbSymbolTableRecord
100
AcDbLayerTableRecord
  2
DEFAULT_2
 70
0
 62
7
  6
HIDDEN
370
-3
390
F
  0
LAYER
  5
1FC
100
AcDbSymbolTableRecord
100
AcDbLayerTableRecord
  2
DEFAULT_3
 70
0
 62
7
  6
PHANTOM
370
-3
390
F
  0
LAYER
  5
1FD
100
AcDbSymbolTableRecord
100
AcDbLayerTableRecord
  2
00_COMPONENTS
 70
0
 62
7
  6
CONTINUOUS
370
-3
390
F
  0
LAYER
  5
1FE
100
AcDbSymbolTableRecord
100
AcDbLayerTableRecord
  2
01_1_DEFAULT_DATUMS
 70
0
 62
7
  6
CONTINUOUS
370
-3
390
F
  0
LAYER
  5
1FF
100
AcDbSymbolTableRecord
100
AcDbLayerTableRecord
  2
01_PLANES
 70
0
 62
7
  6
CONTINUOUS
370
-3
390
F
  0
LAYER
  5
200
100
AcDbSymbolTableRecord
100
AcDbLayerTableRecord
  2
02_COORD_SYS
 70
0
 62
7
  6
CONTINUOUS
370
-3
390
F
  0
LAYER
  5
201
100
AcDbSymbolTableRecord
100
AcDbLayerTableRecord
  2
03_AXES
 70
0
 62
7
  6
CONTINUOUS
370
-3
390
F
  0
LAYER
  5
202
100
AcDbSymbolTableRecord
100
AcDbLayerTableRecord
  2
04_POINTS
 70
0
 62
7
  6
CONTINUOUS
370
-3
390
F
  0
LAYER
  5
203
100
AcDbSymbolTableRecord
100
AcDbLayerTableRecord
  2
05_CURVES
 70
0
 62
7
  6
CONTINUOUS
370
-3
390
F
  0
LAYER
  5
204
100
AcDbSymbolTableRecord
100
AcDbLayerTableRecord
  2
06_SURFS
 70
0
 62
7
  6
CONTINUOUS
370
-3
390
F
  0
LAYER
  5
205
100
AcDbSymbolTableRecord
100
AcDbLayerTableRecord
  2
07_COSMETICS
 70
0
 62
7
  6
CONTINUOUS
370
-3
390
F
  0
LAYER
  5
206
100
AcDbSymbolTableRecord
100
AcDbLayerTableRecord
  2
10_NOTES
 70
0
 62
7
  6
CONTINUOUS
370
-3
390
F
  0
LAYER
  5
207
100
AcDbSymbolTableRecord
100
AcDbLayerTableRecord
  2
11_NOTES_PUB
 70
0
 62
7
  6
CONTINUOUS
370
-3
390
F
  0
LAYER
  5
208
100
AcDbSymbolTableRecord
100
AcDbLayerTableRecord
  2
13_REF_GTOL
 70
0
 62
7
  6
CONTINUOUS
370
-3
390
F
  0
LAYER
  5
209
100
AcDbSymbolTableRecord
100
AcDbLayerTableRecord
  2
16_MISC
 70
0
 62
7
  6
CONTINUOUS
370
-3
390
F
  0
LAYER
  5
20A
100
AcDbSymbolTableRecord
100
AcDbLayerTableRecord
  2
17_NO_PRINT
 70
0
 62
7
  6
CONTINUOUS
370
-3
390
F
  0
LAYER
  5
20B
100
AcDbSymbolTableRecord
100
AcDbLayerTableRecord
  2
18_DATUM_CAMS_JOINTS
 70
0
 62
7
  6
CONTINUOUS
370
-3
390
F
  0
LAYER
  5
20C
100
AcDbSymbolTableRecord
100
AcDbLayerTableRecord
  2
19_DATUM_FUNCTIONAL
 70
0
 62
7
  6
CONTINUOUS
370
-3
390
F
  0
LAYER
  5
20D
100
AcDbSymbolTableRecord
100
AcDbLayerTableRecord
  2
20_DATUM_KINEMATIC_SCHEME
 70
0
 62
7
  6
CONTINUOUS
370
-3
390
F
  0
LAYER
  5
20E
100
AcDbSymbolTableRecord
100
AcDbLayerTableRecord
  2
3
 70
0
 62
7
  6
CONTINUOUS
370
-3
390
F
  0
LAYER
  5
20F
100
AcDbSymbolTableRecord
100
AcDbLayerTableRecord
  2
4
 70
0
 62
7
  6
CONTINUOUS
370
-3
390
F
  0
ENDTAB
  0
TABLE
  2
STYLE
  5
3
100
AcDbSymbolTable
 70
1
  0
STYLE
  5
11
100
AcDbSymbolTableRecord
100
AcDbTextStyleTableRecord
  2
STANDARD
 70
0
 40
0.0
 41
1.0
 50
0.0
 71
0
 42
0.2
  3
ARIAL.TTF
  4

  0
STYLE
  5
210
100
AcDbSymbolTableRecord
100
AcDbTextStyleTableRecord
  2
TEXTSTYLE_1
 70
0
 40
0.0
 41
0.8
 50
0.0
 71
0
 42
0.2
  3
gdt
  4

  0
ENDTAB
  0
TABLE
  2
VIEW
  5
6
100
AcDbSymbolTable
 70
0
  0
ENDTAB
  0
TABLE
  2
UCS
  5
7
100
AcDbSymbolTable
 70
0
  0
ENDTAB
  0
TABLE
  2
APPID
  5
9
100
AcDbSymbolTable
 70
1
  0
APPID
  5
211
100
AcDbSymbolTableRecord
100
AcDbRegAppTableRecord
  2
ACAD
 70
0
  0
ENDTAB
  0
TABLE
  2
BLOCK_RECORD
  5
1
100
AcDbSymbolTable
 70
0
  0
BLOCK_RECORD
  5
212
100
AcDbSymbolTableRecord
100
AcDbBlockTableRecord
  2
*Model_Space
  0
BLOCK_RECORD
  5
213
100
AcDbSymbolTableRecord
100
AcDbBlockTableRecord
  2
*Paper_Space
  0
BLOCK_RECORD
  5
214
100
AcDbSymbolTableRecord
100
AcDbBlockTableRecord
  2
_FILLED
  0
ENDTAB
  0
TABLE
  2
DIMSTYLE
  5
A
100
AcDbSymbolTable
 70
1
100
AcDbDimStyleTable
 71
0
  0
DIMSTYLE
105
215
100
AcDbSymbolTableRecord
100
AcDbDimStyleTableRecord
  2
STANDARD
 70
0
  3

  4

 40
1.0
 41
14.0868460152
 42
1.0
 43
0.38
 44
1.0
 45
0.0
 46
0.0
 47
0.01
 48
0.01
140
19.7215844213
141
0.09
142
0.0
143
25.4
144
1.0
145
0.0
146
1.0
147
0.625
 71
1
 72
0
 73
0
 74
0
 75
0
 76
0
 77
1
 78
8
 79
2
170
0
171
1
172
0
173
0
174
0
175
0
176
0
177
0
178
0
270
2
179
2
271
2
272
2
273
2
274
2
275
0
280
0
281
0
282
0
283
1
284
8
285
0
286
0
287
3
288
0
340
11
278
46
341
214
342
214
343
214
344
214
  0
ENDTAB
  0
ENDSEC
  0
SECTION
  2
BLOCKS
  0
BLOCK
  5
20
100
AcDbEntity
  8
0
100
AcDbBlockBegin
  2
*Model_Space
 70
0
 10
0.0
 20
0.0
 30
0.0
  3
*Model_Space
  1

  0
ENDBLK
  5
21
100
AcDbEntity
  8
0
100
AcDbBlockEnd
  0
BLOCK
  5
1C
100
AcDbEntity
  8
0
100
AcDbBlockBegin
  2
*Paper_Space
 70
0
 10
0.0
 20
0.0
 30
0.0
  3
*Paper_Space
  1

  0
ENDBLK
  5
1D
100
AcDbEntity
  8
0
100
AcDbBlockEnd
  0
BLOCK
  5
216
100
AcDbEntity
  8
0
100
AcDbBlockBegin
  2
_FILLED
 70
64
 10
0.0
 20
0.0
  3
_FILLED
  1

  0
SOLID
  5
217
100
AcDbEntity
  8
0
  6
BYBLOCK
 62
0
100
AcDbTrace
 10
0.0
 20
0.0
 11
-1.0
 21
0.25
 12
-1.0
 22
-0.25
 13
-1.0
 23
-0.25
  0
ENDBLK
  5
218
100
AcDbEntity
  8
0
  6
BYBLOCK
 62
0
100
AcDbBlockEnd
  0
ENDSEC
  0
SECTION
  2
ENTITIES
  0
LINE
  5
219
100
AcDbEntity
  8
0
100
AcDbLine
 62
7
  6
BYLAYER
 10
702.5597083209
 20
111.6360994001
 11
696.9602850337
 21
111.6360994001
  0
LINE
  5
21A
100
AcDbEntity
  8
0
100
AcDbLine
 62
7
  6
BYLAYER
 10
660.5601833639
 20
111.6360994001
 11
654.9598099966
 21
111.6360994001
  0
LINE
  5
21B
100
AcDbEntity
  8
0
100
AcDbLine
 62
7
  6
BYLAYER
 10
554.9105774324
 20
111.6360994001
 11
549.3111541452
 21
111.6360994001
  0
LINE
  5
21C
100
AcDbEntity
  8
0
100
AcDbLine
 62
7
  6
BYLAYER
 10
512.9110524754
 20
111.6360994001
 11
507.3106791081
 21
111.6360994001
  0
LINE
  5
21D
100
AcDbEntity
  8
0
100
AcDbLine
 62
7
  6
BYLAYER
 10
507.1110527221
 20
111.7359892616
 11
507.9382585611
 21
111.7359892616
  0
LINE
  5
21E
100
AcDbEntity
  8
0
100
AcDbLine
 62
7
  6
BYLAYER
 10
513.283846883
 20
111.7359892616
 11
548.9382585582
 21
111.7359892616
  0
LINE
  5
21F
100
AcDbEntity
  8
0
100
AcDbLine
 62
7
  6
BYLAYER
 10
554.2838468801
 20
111.7359892616
 11
555.1110527221
 21
111.7359892616
  0
LINE
  5
220
100
AcDbEntity
  8
0
100
AcDbLine
 62
7
  6
BYLAYER
 10
654.7601836106
 20
111.7359892616
 11
655.5873894496
 21
111.7359892616
  0
LINE
  5
221
100
AcDbEntity
  8
0
100
AcDbLine
 62
7
  6
BYLAYER
 10
660.9329777715
 20
111.7359892616
 11
696.5873894467
 21
111.7359892616
  0
LINE
  5
222
100
AcDbEntity
  8
0
100
AcDbLine
 62
7
  6
BYLAYER
 10
701.9329777686
 20
111.7359892616
 11
702.7601836106
 21
111.7359892616
  0
LINE
  5
223
100
AcDbEntity
  8
0
100
AcDbLine
 62
7
  6
BYLAYER
 10
682.9016317909
 20
112.2359892616
 11
674.6196999564
 21
112.2359892616
  0
LINE
  5
224
100
AcDbEntity
  8
0
100
AcDbLine
 62
7
  6
BYLAYER
 10
535.2525009024
 20
112.2359892616
 11
526.9705690678
 21
112.2359892616
  0
LINE
  5
225
100
AcDbEntity
  8
0
100
AcDbLine
 62
7
  6
BYLAYER
 10
702.5601836077
 20
112.6360994001
 11
695.9601836077
 21
112.6360994001
  0
LINE
  5
226
100
AcDbEntity
  8
0
100
AcDbLine
 62
7
  6
BYLAYER
 10
661.5601836106
 20
112.6360994001
 11
654.9601836106
 21
112.6360994001
  0
LINE
  5
227
100
AcDbEntity
  8
0
100
AcDbLine
 62
7
  6
BYLAYER
 10
554.9110527192
 20
112.6360994001
 11
548.3110527192
 21
112.6360994001
  0
LINE
  5
228
100
AcDbEntity
  8
0
100
AcDbLine
 62
7
  6
BYLAYER
 10
513.9110527221
 20
112.6360994001
 11
507.3110527221
 21
112.6360994001
  0
LINE
  5
229
100
AcDbEntity
  8
0
100
AcDbLine
 62
7
  6
BYLAYER
 10
703.7601836106
 20
112.7359892616
 11
702.5601836077
 21
112.7359892616
  0
LINE
  5
22A
100
AcDbEntity
  8
0
100
AcDbLine
 62
7
  6
BYLAYER
 10
695.9601836077
 20
112.7359892616
 11
682.7601836106
 21
112.7359892683
  0
LINE
  5
22B
100
AcDbEntity
  8
0
100
AcDbLine
 62
7
  6
BYLAYER
 10
674.7601836106
 20
112.7359892617
 11
661.5601836106
 21
112.7359892616
  0
LINE
  5
22C
100
AcDbEntity
  8
0
100
AcDbLine
 62
7
  6
BYLAYER
 10
654.9601836106
 20
112.7359892616
 11
653.7601836106
 21
112.7359892616
  0
LINE
  5
22D
100
AcDbEntity
  8
0
100
AcDbLine
 62
7
  6
BYLAYER
 10
556.1110527221
 20
112.7359892616
 11
554.9110527192
 21
112.7359892616
  0
LINE
  5
22E
100
AcDbEntity
  8
0
100
AcDbLine
 62
7
  6
BYLAYER
 10
548.3110527192
 20
112.7359892616
 11
535.1110527221
 21
112.7359892683
  0
LINE
  5
22F
100
AcDbEntity
  8
0
100
AcDbLine
 62
7
  6
BYLAYER
 10
527.1110527221
 20
112.7359892617
 11
513.9110527221
 21
112.7359892616
  0
LINE
  5
230
100
AcDbEntity
  8
0
100
AcDbLine
 62
7
  6
BYLAYER
 10
507.3110527221
 20
112.7359892616
 11
506.1110527221
 21
112.7359892616
  0
LINE
  5
231
100
AcDbEntity
  8
0
100
AcDbLine
 62
7
  6
BYLAYER
 10
506.1110527221
 20
113.7359891927
 11
507.3110527221
 21
113.7359892616
  0
LINE
  5
232
100
AcDbEntity
  8
0
100
AcDbLine
 62
7
  6
BYLAYER
 10
513.9110527221
 20
113.7359892616
 11
515.1110527221
 21
113.7359891927
  0
LINE
  5
233
100
AcDbEntity
  8
0
100
AcDbLine
 62
7
  6
BYLAYER
 10
547.1110527221
 20
113.7359891927
 11
548.3110527192
 21
113.7359892616
  0
LINE
  5
234
100
AcDbEntity
  8
0
100
AcDbLine
 62
7
  6
BYLAYER
 10
554.9110527192
 20
113.7359892616
 11
556.1110527221
 21
113.7359891927
  0
LINE
  5
235
100
AcDbEntity
  8
0
100
AcDbLine
 62
7
  6
BYLAYER
 10
653.7601836106
 20
113.7359891927
 11
654.9601836106
 21
113.7359892616
  0
LINE
  5
236
100
AcDbEntity
  8
0
100
AcDbLine
 62
7
  6
BYLAYER
 10
661.5601836106
 20
113.7359892616
 11
662.7601836106
 21
113.7359891927
  0
LINE
  5
237
100
AcDbEntity
  8
0
100
AcDbLine
 62
7
  6
BYLAYER
 10
694.7601836106
 20
113.7359891927
 11
695.9601836077
 21
113.7359892616
  0
LINE
  5
238
100
AcDbEntity
  8
0
100
AcDbLine
 62
7
  6
BYLAYER
 10
702.5601836077
 20
113.7359892616
 11
703.7601836106
 21
113.7359891927
  0
LINE
  5
239
100
AcDbEntity
  8
0
100
AcDbLine
 62
7
  6
BYLAYER
 10
506.6110527221
 20
114.2359892616
 11
513.6110527221
 21
114.2359892616
  0
LINE
  5
23A
100
AcDbEntity
  8
0
100
AcDbLine
 62
7
  6
BYLAYER
 10
548.6110527221
 20
114.2359892616
 11
555.6110527221
 21
114.2359892616
  0
LINE
  5
23B
100
AcDbEntity
  8
0
100
AcDbLine
 62
7
  6
BYLAYER
 10
654.2601836106
 20
114.2359892616
 11
661.2601836106
 21
114.2359892616
  0
LINE
  5
23C
100
AcDbEntity
  8
0
100
AcDbLine
 62
7
  6
BYLAYER
 10
696.2601836106
 20
114.2359892616
 11
703.2601836106
 21
114.2359892616
  0
LINE
  5
23D
100
AcDbEntity
  8
0
100
AcDbLine
 62
7
  6
BYLAYER
 10
703.7601836106
 20
114.7359892616
 11
696.2601836106
 21
114.7359892616
  0
LINE
  5
23E
100
AcDbEntity
  8
0
100
AcDbLine
 62
7
  6
BYLAYER
 10
661.2601836106
 20
114.7359892616
 11
653.7601836106
 21
114.7359892616
  0
LINE
  5
23F
100
AcDbEntity
  8
0
100
AcDbLine
 62
7
  6
BYLAYER
 10
556.1110527221
 20
114.7359892616
 11
548.6110527221
 21
114.7359892616
  0
LINE
  5
240
100
AcDbEntity
  8
0
100
AcDbLine
 62
7
  6
BYLAYER
 10
513.6110527221
 20
114.7359892616
 11
506.1110527221
 21
114.7359892616
  0
LINE
  5
241
100
AcDbEntity
  8
0
100
AcDbLine
 62
7
  6
BYLAYER
 10
506.1110527221
 20
129.2359892616
 11
556.1110527221
 21
129.2359892616
  0
LINE
  5
242
100
AcDbEntity
  8
0
100
AcDbLine
 62
7
  6
BYLAYER
 10
653.7601836106
 20
129.2359892616
 11
703.7601836106
 21
129.2359892616
  0
LINE
  5
243
100
AcDbEntity
  8
3
100
AcDbLine
 62
7
  6
BYLAYER
 10
506.110577679
 20
129.2361122086
 11
556.110577679
 21
129.2361122086
  0
LINE
  5
244
100
AcDbEntity
  8
3
100
AcDbLine
 62
7
  6
BYLAYER
 10
653.7597085675
 20
129.2361122086
 11
703.7597085675
 21
129.2361122086
  0
LINE
  5
245
100
AcDbEntity
  8
4
100
AcDbLine
 62
7
  6
BYLAYER
 10
495.9218319956
 20
156.5842745234
 11
540.9218319956
 21
156.5842745234
  0
LINE
  5
246
100
AcDbEntity
  8
4
100
AcDbLine
 62
7
  6
BYLAYER
 10
643.5711269897
 20
156.5843974703
 11
688.5711269897
 21
156.5843974703
  0
LINE
  5
247
100
AcDbEntity
  8
4
100
AcDbLine
 62
7
  6
BYLAYER
 10
498.9218319956
 20
161.5842745234
 11
495.9218319956
 21
161.5842745234
  0
LINE
  5
248
100
AcDbEntity
  8
4
100
AcDbLine
 62
7
  6
BYLAYER
 10
646.5711269897
 20
161.5843974703
 11
643.5711269897
 21
161.5843974703
  0
LINE
  5
249
100
AcDbEntity
  8
3
100
AcDbLine
 62
7
  6
BYLAYER
 10
681.4601836091
 20
161.9077373429
 11
676.0601836091
 21
161.9077373429
  0
LINE
  5
24A
100
AcDbEntity
  8
4
100
AcDbLine
 62
7
  6
BYLAYER
 10
533.8110527206
 20
161.9077373429
 11
528.4110527206
 21
161.9077373429
  0
LINE
  5
24B
100
AcDbEntity
  8
4
100
AcDbLine
 62
7
  6
BYLAYER
 10
681.4603477148
 20
161.9078602899
 11
676.0603477148
 21
161.9078602899
  0
LINE
  5
24C
100
AcDbEntity
  8
4
100
AcDbLine
 62
7
  6
BYLAYER
 10
524.2218319956
 20
163.3342745234
 11
525.7067432518
 21
163.3342745234
  0
LINE
  5
24D
100
AcDbEntity
  8
4
100
AcDbLine
 62
7
  6
BYLAYER
 10
536.5150246498
 20
163.3342745234
 11
537.7218319956
 21
163.3342745234
  0
LINE
  5
24E
100
AcDbEntity
  8
4
100
AcDbLine
 62
7
  6
BYLAYER
 10
671.8711269897
 20
163.3343974703
 11
673.3558104507
 21
163.3343974703
  0
LINE
  5
24F
100
AcDbEntity
  8
4
100
AcDbLine
 62
7
  6
BYLAYER
 10
684.1642192552
 20
163.3343974703
 11
685.3711269897
 21
163.3343974703
  0
LINE
  5
250
100
AcDbEntity
  8
4
100
AcDbLine
 62
7
  6
BYLAYER
 10
537.7218319956
 20
169.8342745234
 11
536.5153621894
 21
169.8342745234
  0
LINE
  5
251
100
AcDbEntity
  8
4
100
AcDbLine
 62
7
  6
BYLAYER
 10
525.7070807914
 20
169.8342745234
 11
524.2218319956
 21
169.8342745234
  0
LINE
  5
252
100
AcDbEntity
  8
4
100
AcDbLine
 62
7
  6
BYLAYER
 10
685.3711269897
 20
169.8343974703
 11
684.1644293884
 21
169.8343974703
  0
LINE
  5
253
100
AcDbEntity
  8
4
100
AcDbLine
 62
7
  6
BYLAYER
 10
673.3562753967
 20
169.8343974703
 11
671.8711269897
 21
169.8343974703
  0
LINE
  5
254
100
AcDbEntity
  8
4
100
AcDbLine
 62
7
  6
BYLAYER
 10
528.4110527206
 20
171.2608117038
 11
533.8110527206
 21
171.2608117038
  0
LINE
  5
255
100
AcDbEntity
  8
3
100
AcDbLine
 62
7
  6
BYLAYER
 10
676.0601836091
 20
171.2608117038
 11
681.4601836091
 21
171.2608117038
  0
LINE
  5
256
100
AcDbEntity
  8
4
100
AcDbLine
 62
7
  6
BYLAYER
 10
676.0603477148
 20
171.2609346508
 11
681.4603477148
 21
171.2609346508
  0
LINE
  5
257
100
AcDbEntity
  8
3
100
AcDbLine
 62
7
  6
BYLAYER
 10
681.4601836091
 20
191.9077373429
 11
676.0601836091
 21
191.9077373429
  0
LINE
  5
258
100
AcDbEntity
  8
4
100
AcDbLine
 62
7
  6
BYLAYER
 10
533.8110527206
 20
191.9077373429
 11
528.4110527206
 21
191.9077373429
  0
LINE
  5
259
100
AcDbEntity
  8
4
100
AcDbLine
 62
7
  6
BYLAYER
 10
681.4603477148
 20
191.9078602899
 11
676.0603477148
 21
191.9078602899
  0
LINE
  5
25A
100
AcDbEntity
  8
4
100
AcDbLine
 62
7
  6
BYLAYER
 10
524.2218319956
 20
193.3342745234
 11
525.7067432518
 21
193.3342745234
  0
LINE
  5
25B
100
AcDbEntity
  8
4
100
AcDbLine
 62
7
  6
BYLAYER
 10
536.5150246498
 20
193.3342745234
 11
537.7218319956
 21
193.3342745234
  0
LINE
  5
25C
100
AcDbEntity
  8
4
100
AcDbLine
 62
7
  6
BYLAYER
 10
671.8711269897
 20
193.3343974703
 11
673.3558104507
 21
193.3343974703
  0
LINE
  5
25D
100
AcDbEntity
  8
4
100
AcDbLine
 62
7
  6
BYLAYER
 10
684.1642192552
 20
193.3343974703
 11
685.3711269897
 21
193.3343974703
  0
LINE
  5
25E
100
AcDbEntity
  8
4
100
AcDbLine
 62
7
  6
BYLAYER
 10
537.7218319956
 20
199.8342745234
 11
536.5153621894
 21
199.8342745234
  0
LINE
  5
25F
100
AcDbEntity
  8
4
100
AcDbLine
 62
7
  6
BYLAYER
 10
525.7070807914
 20
199.8342745234
 11
524.2218319956
 21
199.8342745234
  0
LINE
  5
260
100
AcDbEntity
  8
4
100
AcDbLine
 62
7
  6
BYLAYER
 10
685.3711269897
 20
199.8343974703
 11
684.1644293884
 21
199.8343974703
  0
LINE
  5
261
100
AcDbEntity
  8
4
100
AcDbLine
 62
7
  6
BYLAYER
 10
673.3562753967
 20
199.8343974703
 11
671.8711269897
 21
199.8343974703
  0
LINE
  5
262
100
AcDbEntity
  8
4
100
AcDbLine
 62
7
  6
BYLAYER
 10
528.4110527206
 20
201.2608117038
 11
533.8110527206
 21
201.2608117038
  0
LINE
  5
263
100
AcDbEntity
  8
3
100
AcDbLine
 62
7
  6
BYLAYER
 10
676.0601836091
 20
201.2608117038
 11
681.4601836091
 21
201.2608117038
  0
LINE
  5
264
100
AcDbEntity
  8
4
100
AcDbLine
 62
7
  6
BYLAYER
 10
676.0603477148
 20
201.2609346508
 11
681.4603477148
 21
201.2609346508
  0
LINE
  5
265
100
AcDbEntity
  8
4
100
AcDbLine
 62
7
  6
BYLAYER
 10
495.9218319956
 20
201.5842745234
 11
498.9218319956
 21
201.5842745234
  0
LINE
  5
266
100
AcDbEntity
  8
4
100
AcDbLine
 62
7
  6
BYLAYER
 10
643.5711269897
 20
201.5843974703
 11
646.5711269897
 21
201.5843974703
  0
LINE
  5
267
100
AcDbEntity
  8
4
100
AcDbLine
 62
7
  6
BYLAYER
 10
495.9218319956
 20
206.5842745234
 11
540.9218319956
 21
206.5842745234
  0
LINE
  5
268
100
AcDbEntity
  8
4
100
AcDbLine
 62
7
  6
BYLAYER
 10
643.5711269897
 20
206.5843974703
 11
688.5711269897
 21
206.5843974703
  0
LINE
  5
269
100
AcDbEntity
  8
0
100
AcDbLine
 62
7
  6
BYLAYER
 10
516.6103229324
 20
1555.7360994001
 11
516.110324911
 21
1555.2361015586
  0
LINE
  5
26A
100
AcDbEntity
  8
0
100
AcDbLine
 62
7
  6
BYLAYER
 10
514.860324911
 20
1551.7360994001
 11
514.360324911
 21
1551.2360994001
  0
LINE
  5
26B
100
AcDbEntity
  8
0
100
AcDbLine
 62
7
  6
BYLAYER
 10
532.860324911
 20
1551.7360994001
 11
532.360324911
 21
1551.2360994001
  0
LINE
  5
26C
100
AcDbEntity
  8
0
100
AcDbLine
 62
7
  6
BYLAYER
 10
664.2594538209
 20
1555.7360994001
 11
663.7594557995
 21
1555.2361015586
  0
LINE
  5
26D
100
AcDbEntity
  8
0
100
AcDbLine
 62
7
  6
BYLAYER
 10
662.5094557995
 20
1551.7360994001
 11
662.0094557995
 21
1551.2360994001
  0
LINE
  5
26E
100
AcDbEntity
  8
0
100
AcDbLine
 62
7
  6
BYLAYER
 10
680.5094557995
 20
1551.7360994001
 11
680.0094557995
 21
1551.2360994001
  0
LINE
  5
26F
100
AcDbEntity
  8
4
100
AcDbLine
 62
7
  6
BYLAYER
 10
528.4110527206
 20
1497.5957141646
 11
525.7110527206
 21
1492.9191769842
  0
LINE
  5
270
100
AcDbEntity
  8
4
100
AcDbLine
 62
7
  6
BYLAYER
 10
533.8110527206
 20
1488.2426398038
 11
536.5110527206
 21
1492.9191769842
  0
LINE
  5
271
100
AcDbEntity
  8
4
100
AcDbLine
 62
7
  6
BYLAYER
 10
525.7110527206
 20
166.5842745234
 11
528.4110527206
 21
161.9077373429
  0
LINE
  5
272
100
AcDbEntity
  8
4
100
AcDbLine
 62
7
  6
BYLAYER
 10
536.5110527206
 20
166.5842745234
 11
533.8110527206
 21
171.2608117038
  0
LINE
  5
273
100
AcDbEntity
  8
4
100
AcDbLine
 62
7
  6
BYLAYER
 10
525.7110527206
 20
196.5842745234
 11
528.4110527206
 21
191.9077373429
  0
LINE
  5
274
100
AcDbEntity
  8
4
100
AcDbLine
 62
7
  6
BYLAYER
 10
528.4110527206
 20
1467.5957141646
 11
525.7110527206
 21
1462.9191769842
  0
LINE
  5
275
100
AcDbEntity
  8
4
100
AcDbLine
 62
7
  6
BYLAYER
 10
533.8110527206
 20
1458.2426398038
 11
536.5110527206
 21
1462.9191769842
  0
LINE
  5
276
100
AcDbEntity
  8
4
100
AcDbLine
 62
7
  6
BYLAYER
 10
536.5110527206
 20
196.5842745234
 11
533.8110527206
 21
201.2608117038
  0
LINE
  5
277
100
AcDbEntity
  8
3
100
AcDbLine
 62
7
  6
BYLAYER
 10
676.0601836091
 20
1497.5957141646
 11
673.3601836091
 21
1492.9191769842
  0
LINE
  5
278
100
AcDbEntity
  8
3
100
AcDbLine
 62
7
  6
BYLAYER
 10
681.4601836091
 20
1488.2426398038
 11
684.1601836091
 21
1492.9191769842
  0
LINE
  5
279
100
AcDbEntity
  8
3
100
AcDbLine
 62
7
  6
BYLAYER
 10
676.0601836091
 20
1467.5957141646
 11
673.3601836091
 21
1462.9191769842
  0
LINE
  5
27A
100
AcDbEntity
  8
3
100
AcDbLine
 62
7
  6
BYLAYER
 10
681.4601836091
 20
1458.2426398038
 11
684.1601836091
 21
1462.9191769842
  0
LINE
  5
27B
100
AcDbEntity
  8
3
100
AcDbLine
 62
7
  6
BYLAYER
 10
673.3601836091
 20
166.5842745234
 11
676.0601836091
 21
161.9077373429
  0
LINE
  5
27C
100
AcDbEntity
  8
4
100
AcDbLine
 62
7
  6
BYLAYER
 10
673.3603477148
 20
166.5843974703
 11
676.0603477148
 21
161.9078602899
  0
LINE
  5
27D
100
AcDbEntity
  8
3
100
AcDbLine
 62
7
  6
BYLAYER
 10
684.1601836091
 20
166.5842745234
 11
681.4601836091
 21
171.2608117038
  0
LINE
  5
27E
100
AcDbEntity
  8
4
100
AcDbLine
 62
7
  6
BYLAYER
 10
684.1603477148
 20
166.5843974703
 11
681.4603477148
 21
171.2609346508
  0
LINE
  5
27F
100
AcDbEntity
  8
3
100
AcDbLine
 62
7
  6
BYLAYER
 10
673.3601836091
 20
196.5842745234
 11
676.0601836091
 21
191.9077373429
  0
LINE
  5
280
100
AcDbEntity
  8
4
100
AcDbLine
 62
7
  6
BYLAYER
 10
673.3603477148
 20
196.5843974703
 11
676.0603477148
 21
191.9078602899
  0
LINE
  5
281
100
AcDbEntity
  8
3
100
AcDbLine
 62
7
  6
BYLAYER
 10
684.1601836091
 20
196.5842745234
 11
681.4601836091
 21
201.2608117038
  0
LINE
  5
282
100
AcDbEntity
  8
4
100
AcDbLine
 62
7
  6
BYLAYER
 10
684.1603477148
 20
196.5843974703
 11
681.4603477148
 21
201.2609346508
  0
LINE
  5
283
100
AcDbEntity
  8
4
100
AcDbLine
 62
7
  6
BYLAYER
 10
495.9218319956
 20
156.5842745234
 11
495.9218319956
 21
206.5842745234
  0
LINE
  5
284
100
AcDbEntity
  8
4
100
AcDbLine
 62
7
  6
BYLAYER
 10
495.9218319956
 20
803.8684153631
 11
495.9218319956
 21
853.8684153631
  0
LINE
  5
285
100
AcDbEntity
  8
4
100
AcDbLine
 62
7
  6
BYLAYER
 10
495.9218319956
 20
1452.9191769842
 11
495.9218319956
 21
1502.9191769842
  0
LINE
  5
286
100
AcDbEntity
  8
4
100
AcDbLine
 62
7
  6
BYLAYER
 10
498.9218319956
 20
1502.9191769842
 11
498.9218319956
 21
1452.9191769842
  0
LINE
  5
287
100
AcDbEntity
  8
4
100
AcDbLine
 62
7
  6
BYLAYER
 10
498.9218319956
 20
853.8684153631
 11
498.9218319956
 21
803.8684153631
  0
LINE
  5
288
100
AcDbEntity
  8
4
100
AcDbLine
 62
7
  6
BYLAYER
 10
498.9218319956
 20
206.5842745234
 11
498.9218319956
 21
156.5842745234
  0
LINE
  5
289
100
AcDbEntity
  8
4
100
AcDbLine
 62
7
  6
BYLAYER
 10
502.9218319956
 20
156.5842745234
 11
502.9218319956
 21
206.5842745234
  0
LINE
  5
28A
100
AcDbEntity
  8
4
100
AcDbLine
 62
7
  6
BYLAYER
 10
502.9218319956
 20
803.8684153631
 11
502.9218319956
 21
853.8684153631
  0
LINE
  5
28B
100
AcDbEntity
  8
4
100
AcDbLine
 62
7
  6
BYLAYER
 10
502.9218319956
 20
1452.9191769842
 11
502.9218319956
 21
1502.9191769842
  0
LINE
  5
28C
100
AcDbEntity
  8
0
100
AcDbLine
 62
7
  6
BYLAYER
 10
506.1103266353
 20
1543.2361409998
 11
506.1103249099
 21
1542.437356452
  0
LINE
  5
28D
100
AcDbEntity
  8
0
100
AcDbLine
 62
7
  6
BYLAYER
 10
506.110324911
 20
1544.2360994001
 11
506.110324911
 21
1542.2480331059
  0
LINE
  5
28E
100
AcDbEntity
  8
0
100
AcDbLine
 62
7
  6
BYLAYER
 10
506.110324911
 20
1542.2360994001
 11
506.110324911
 21
1527.7360994001
  0
LINE
  5
28F
100
AcDbEntity
  8
3
100
AcDbLine
 62
7
  6
BYLAYER
 10
506.110577679
 20
1527.7361122086
 11
506.110577679
 21
1502.9191769842
  0
LINE
  5
290
100
AcDbEntity
  8
3
100
AcDbLine
 62
7
  6
BYLAYER
 10
506.110577679
 20
1452.9191769842
 11
506.110577679
 21
853.8684153631
  0
LINE
  5
291
100
AcDbEntity
  8
3
100
AcDbLine
 62
7
  6
BYLAYER
 10
506.110577679
 20
803.8684153631
 11
506.110577679
 21
206.5842745234
  0
LINE
  5
292
100
AcDbEntity
  8
3
100
AcDbLine
 62
7
  6
BYLAYER
 10
506.110577679
 20
156.5842745234
 11
506.110577679
 21
129.2361122086
  0
LINE
  5
293
100
AcDbEntity
  8
0
100
AcDbLine
 62
7
  6
BYLAYER
 10
506.1110527221
 20
112.7359892616
 11
506.1110527221
 21
129.2359892616
  0
LINE
  5
294
100
AcDbEntity
  8
0
100
AcDbLine
 62
7
  6
BYLAYER
 10
507.1103249093
 20
1543.2360994001
 11
507.110324911
 21
1545.2360994001
  0
LINE
  5
295
100
AcDbEntity
  8
0
100
AcDbLine
 62
7
  6
BYLAYER
 10
507.1110527221
 20
111.7359892616
 11
507.1110527204
 21
113.7359892616
  0
LINE
  5
296
100
AcDbEntity
  8
0
100
AcDbLine
 62
7
  6
BYLAYER
 10
507.310324911
 20
1542.7360994001
 11
507.310324911
 21
1544.3360994001
  0
LINE
  5
297
100
AcDbEntity
  8
0
100
AcDbLine
 62
7
  6
BYLAYER
 10
507.3110527221
 20
112.6360994001
 11
507.3110527221
 21
114.2360994001
  0
LINE
  5
298
100
AcDbEntity
  8
0
100
AcDbLine
 62
7
  6
BYLAYER
 10
510.110324911
 20
1527.7360994001
 11
510.110324911
 21
1542.7360994001
  0
LINE
  5
299
100
AcDbEntity
  8
3
100
AcDbLine
 62
7
  6
BYLAYER
 10
510.110577679
 20
129.2361122086
 11
510.110577679
 21
156.5842745234
  0
LINE
  5
29A
100
AcDbEntity
  8
3
100
AcDbLine
 62
7
  6
BYLAYER
 10
510.110577679
 20
206.5842745234
 11
510.110577679
 21
803.8684153631
  0
LINE
  5
29B
100
AcDbEntity
  8
3
100
AcDbLine
 62
7
  6
BYLAYER
 10
510.110577679
 20
853.8684153631
 11
510.110577679
 21
1452.9191769842
  0
LINE
  5
29C
100
AcDbEntity
  8
3
100
AcDbLine
 62
7
  6
BYLAYER
 10
510.110577679
 20
1502.9191769842
 11
510.110577679
 21
1527.7361122086
  0
LINE
  5
29D
100
AcDbEntity
  8
0
100
AcDbLine
 62
7
  6
BYLAYER
 10
510.1110527221
 20
114.2359892616
 11
510.1110527221
 21
129.2359892616
  0
LINE
  5
29E
100
AcDbEntity
  8
0
100
AcDbLine
 62
7
  6
BYLAYER
 10
513.6103248382
 20
1542.7360994001
 11
513.6103248382
 21
1542.2360994001
  0
LINE
  5
29F
100
AcDbEntity
  8
0
100
AcDbLine
 62
7
  6
BYLAYER
 10
513.6110526495
 20
114.7359892616
 11
513.6110526495
 21
114.2359892616
  0
LINE
  5
2A0
100
AcDbEntity
  8
0
100
AcDbLine
 62
7
  6
BYLAYER
 10
513.910324911
 20
1544.3360994001
 11
513.910324911
 21
1542.8402818349
  0
LINE
  5
2A1
100
AcDbEntity
  8
0
100
AcDbLine
 62
7
  6
BYLAYER
 10
513.9110527221
 20
114.1319222674
 11
513.9110527221
 21
112.6360994001
  0
LINE
  5
2A2
100
AcDbEntity
  8
0
100
AcDbLine
 62
7
  6
BYLAYER
 10
514.110324911
 20
1544.2360994001
 11
514.110324911
 21
1543.2360994001
  0
LINE
  5
2A3
100
AcDbEntity
  8
0
100
AcDbLine
 62
7
  6
BYLAYER
 10
514.1110527221
 20
113.7359892616
 11
514.1110527221
 21
112.7359892616
  0
LINE
  5
2A4
100
AcDbEntity
  8
0
100
AcDbLine
 62
7
  6
BYLAYER
 10
514.360324911
 20
1545.2360994001
 11
514.360324911
 21
1551.2360994001
  0
LINE
  5
2A5
100
AcDbEntity
  8
0
100
AcDbLine
 62
7
  6
BYLAYER
 10
515.110324911
 20
1543.2360994001
 11
515.110324911
 21
1545.2360994001
  0
LINE
  5
2A6
100
AcDbEntity
  8
0
100
AcDbLine
 62
7
  6
BYLAYER
 10
515.1110527221
 20
111.7359892616
 11
515.1110527221
 21
113.7359892616
  0
LINE
  5
2A7
100
AcDbEntity
  8
0
100
AcDbLine
 62
7
  6
BYLAYER
 10
516.110324911
 20
1551.7360994001
 11
516.110324911
 21
1555.2360984627
  0
LINE
  5
2A8
100
AcDbEntity
  8
0
100
AcDbLine
 62
7
  6
BYLAYER
 10
517.986104911
 20
1552.9360994001
 11
517.986104911
 21
1551.7360994001
  0
LINE
  5
2A9
100
AcDbEntity
  8
0
100
AcDbLine
 62
7
  6
BYLAYER
 10
526.236104911
 20
1552.9360994001
 11
526.236104911
 21
1551.7360994001
  0
LINE
  5
2AA
100
AcDbEntity
  8
0
100
AcDbLine
 62
7
  6
BYLAYER
 10
526.610324911
 20
1544.2360994001
 11
526.610324911
 21
1527.7360994001
  0
LINE
  5
2AB
100
AcDbEntity
  8
3
100
AcDbLine
 62
7
  6
BYLAYER
 10
526.610577679
 20
1527.7361122086
 11
526.610577679
 21
1502.9191769842
  0
LINE
  5
2AC
100
AcDbEntity
  8
3
100
AcDbLine
 62
7
  6
BYLAYER
 10
526.610577679
 20
1452.9191769842
 11
526.610577679
 21
853.8684153631
  0
LINE
  5
2AD
100
AcDbEntity
  8
3
100
AcDbLine
 62
7
  6
BYLAYER
 10
526.610577679
 20
803.8684153631
 11
526.610577679
 21
206.5842745234
  0
LINE
  5
2AE
100
AcDbEntity
  8
3
100
AcDbLine
 62
7
  6
BYLAYER
 10
526.610577679
 20
156.5842745234
 11
526.610577679
 21
129.2361122086
  0
LINE
  5
2AF
100
AcDbEntity
  8
0
100
AcDbLine
 62
7
  6
BYLAYER
 10
526.6110527221
 20
129.2359892616
 11
526.6110527221
 21
112.7359892616
  0
LINE
  5
2B0
100
AcDbEntity
  8
0
100
AcDbLine
 62
7
  6
BYLAYER
 10
527.110324911
 20
1527.7360994001
 11
527.110324911
 21
1544.2360994001
  0
LINE
  5
2B1
100
AcDbEntity
  8
3
100
AcDbLine
 62
7
  6
BYLAYER
 10
527.110577679
 20
129.2361122086
 11
527.110577679
 21
156.5842745234
  0
LINE
  5
2B2
100
AcDbEntity
  8
3
100
AcDbLine
 62
7
  6
BYLAYER
 10
527.110577679
 20
206.5842745234
 11
527.110577679
 21
803.8684153631
  0
LINE
  5
2B3
100
AcDbEntity
  8
3
100
AcDbLine
 62
7
  6
BYLAYER
 10
527.110577679
 20
853.8684153631
 11
527.110577679
 21
1452.9191769842
  0
LINE
  5
2B4
100
AcDbEntity
  8
3
100
AcDbLine
 62
7
  6
BYLAYER
 10
527.110577679
 20
1502.9191769842
 11
527.110577679
 21
1527.7361122086
  0
LINE
  5
2B5
100
AcDbEntity
  8
0
100
AcDbLine
 62
7
  6
BYLAYER
 10
527.1110527221
 20
112.7359892617
 11
527.1110527221
 21
129.2359892616
  0
LINE
  5
2B6
100
AcDbEntity
  8
0
100
AcDbLine
 62
7
  6
BYLAYER
 10
528.110324911
 20
1555.2360984627
 11
528.110324911
 21
1551.7360994001
  0
LINE
  5
2B7
100
AcDbEntity
  8
0
100
AcDbLine
 62
7
  6
BYLAYER
 10
529.860324911
 20
1545.2360994001
 11
529.860324911
 21
1551.2360994001
  0
LINE
  5
2B8
100
AcDbEntity
  8
0
100
AcDbLine
 62
7
  6
BYLAYER
 10
532.360324911
 20
1545.2360994001
 11
532.360324911
 21
1551.2360994001
  0
LINE
  5
2B9
100
AcDbEntity
  8
0
100
AcDbLine
 62
7
  6
BYLAYER
 10
535.110324911
 20
1544.2360994001
 11
535.110324911
 21
1527.7360994001
  0
LINE
  5
2BA
100
AcDbEntity
  8
3
100
AcDbLine
 62
7
  6
BYLAYER
 10
535.110577679
 20
1527.7361122086
 11
535.110577679
 21
1502.9191769842
  0
LINE
  5
2BB
100
AcDbEntity
  8
3
100
AcDbLine
 62
7
  6
BYLAYER
 10
535.110577679
 20
1452.9191769842
 11
535.110577679
 21
853.8684153631
  0
LINE
  5
2BC
100
AcDbEntity
  8
3
100
AcDbLine
 62
7
  6
BYLAYER
 10
535.110577679
 20
803.8684153631
 11
535.110577679
 21
206.5842745234
  0
LINE
  5
2BD
100
AcDbEntity
  8
3
100
AcDbLine
 62
7
  6
BYLAYER
 10
535.110577679
 20
156.5842745234
 11
535.110577679
 21
129.2361122086
  0
LINE
  5
2BE
100
AcDbEntity
  8
0
100
AcDbLine
 62
7
  6
BYLAYER
 10
535.1110527221
 20
129.2359892616
 11
535.1110527221
 21
112.7359892617
  0
LINE
  5
2BF
100
AcDbEntity
  8
0
100
AcDbLine
 62
7
  6
BYLAYER
 10
535.610324911
 20
1527.7360994001
 11
535.610324911
 21
1544.2360994001
  0
LINE
  5
2C0
100
AcDbEntity
  8
3
100
AcDbLine
 62
7
  6
BYLAYER
 10
535.610577679
 20
129.2361122086
 11
535.610577679
 21
156.5842745234
  0
LINE
  5
2C1
100
AcDbEntity
  8
3
100
AcDbLine
 62
7
  6
BYLAYER
 10
535.610577679
 20
206.5842745234
 11
535.610577679
 21
803.8684153631
  0
LINE
  5
2C2
100
AcDbEntity
  8
3
100
AcDbLine
 62
7
  6
BYLAYER
 10
535.610577679
 20
853.8684153631
 11
535.610577679
 21
1452.9191769842
  0
LINE
  5
2C3
100
AcDbEntity
  8
3
100
AcDbLine
 62
7
  6
BYLAYER
 10
535.610577679
 20
1502.9191769842
 11
535.610577679
 21
1527.7361122086
  0
LINE
  5
2C4
100
AcDbEntity
  8
0
100
AcDbLine
 62
7
  6
BYLAYER
 10
535.6110527221
 20
112.7359892616
 11
535.6110527221
 21
129.2359892616
  0
LINE
  5
2C5
100
AcDbEntity
  8
0
100
AcDbLine
 62
7
  6
BYLAYER
 10
535.987084911
 20
1552.9360994001
 11
535.987084911
 21
1551.7360994001
  0
LINE
  5
2C6
100
AcDbEntity
  8
0
100
AcDbLine
 62
7
  6
BYLAYER
 10
544.237084911
 20
1552.9360994001
 11
544.237084911
 21
1551.7360994001
  0
LINE
  5
2C7
100
AcDbEntity
  8
4
100
AcDbLine
 62
7
  6
BYLAYER
 10
545.9218319956
 20
1497.9191769842
 11
545.9218319956
 21
1457.9191769842
  0
LINE
  5
2C8
100
AcDbEntity
  8
4
100
AcDbLine
 62
7
  6
BYLAYER
 10
545.9218319956
 20
848.8684153631
 11
545.9218319956
 21
808.8684153631
  0
LINE
  5
2C9
100
AcDbEntity
  8
4
100
AcDbLine
 62
7
  6
BYLAYER
 10
545.9218319956
 20
201.5842745234
 11
545.9218319956
 21
161.5842745234
  0
LINE
  5
2CA
100
AcDbEntity
  8
0
100
AcDbLine
 62
7
  6
BYLAYER
 10
547.110324911
 20
1545.2360994001
 11
547.110324911
 21
1543.2360994001
  0
LINE
  5
2CB
100
AcDbEntity
  8
0
100
AcDbLine
 62
7
  6
BYLAYER
 10
547.1110527221
 20
113.7359892616
 11
547.1110527221
 21
111.7359892616
  0
LINE
  5
2CC
100
AcDbEntity
  8
0
100
AcDbLine
 62
7
  6
BYLAYER
 10
547.860324911
 20
1545.2360994001
 11
547.860324911
 21
1551.2360994001
  0
LINE
  5
2CD
100
AcDbEntity
  8
0
100
AcDbLine
 62
7
  6
BYLAYER
 10
548.110324911
 20
1543.2360994001
 11
548.110324911
 21
1544.2360994001
  0
LINE
  5
2CE
100
AcDbEntity
  8
0
100
AcDbLine
 62
7
  6
BYLAYER
 10
548.1110527221
 20
112.7359892616
 11
548.1110527221
 21
113.7359892616
  0
LINE
  5
2CF
100
AcDbEntity
  8
0
100
AcDbLine
 62
7
  6
BYLAYER
 10
548.310324911
 20
1542.8401663942
 11
548.310324911
 21
1544.3360994001
  0
LINE
  5
2D0
100
AcDbEntity
  8
0
100
AcDbLine
 62
7
  6
BYLAYER
 10
548.3110527192
 20
112.6360994001
 11
548.3110527192
 21
114.1318068249
  0
LINE
  5
2D1
100
AcDbEntity
  8
0
100
AcDbLine
 62
7
  6
BYLAYER
 10
548.6103249836
 20
1542.2360994001
 11
548.6103249836
 21
1542.7360994001
  0
LINE
  5
2D2
100
AcDbEntity
  8
0
100
AcDbLine
 62
7
  6
BYLAYER
 10
548.6110527949
 20
114.2359892616
 11
548.6110527949
 21
114.7359892616
  0
LINE
  5
2D3
100
AcDbEntity
  8
0
100
AcDbLine
 62
7
  6
BYLAYER
 10
552.110324911
 20
1542.7360994001
 11
552.110324911
 21
1527.7360994001
  0
LINE
  5
2D4
100
AcDbEntity
  8
3
100
AcDbLine
 62
7
  6
BYLAYER
 10
552.110577679
 20
1527.7361122086
 11
552.110577679
 21
129.2361122086
  0
LINE
  5
2D5
100
AcDbEntity
  8
0
100
AcDbLine
 62
7
  6
BYLAYER
 10
552.1110527221
 20
129.2359892616
 11
552.1110527221
 21
114.2359892616
  0
LINE
  5
2D6
100
AcDbEntity
  8
0
100
AcDbLine
 62
7
  6
BYLAYER
 10
554.910324911
 20
1544.3360994001
 11
554.910324911
 21
1542.7360994001
  0
LINE
  5
2D7
100
AcDbEntity
  8
0
100
AcDbLine
 62
7
  6
BYLAYER
 10
554.9110527192
 20
114.2360994001
 11
554.9110527192
 21
112.6360994001
  0
LINE
  5
2D8
100
AcDbEntity
  8
0
100
AcDbLine
 62
7
  6
BYLAYER
 10
555.110324911
 20
1545.2360994001
 11
555.1103249127
 21
1543.2360994001
  0
LINE
  5
2D9
100
AcDbEntity
  8
0
100
AcDbLine
 62
7
  6
BYLAYER
 10
555.1110527238
 20
113.7359892616
 11
555.1110527221
 21
111.7359892616
  0
LINE
  5
2DA
100
AcDbEntity
  8
0
100
AcDbLine
 62
7
  6
BYLAYER
 10
556.110324911
 20
1527.7360994001
 11
556.110324911
 21
1544.2360994001
  0
LINE
  5
2DB
100
AcDbEntity
  8
3
100
AcDbLine
 62
7
  6
BYLAYER
 10
556.110577679
 20
129.2361122086
 11
556.110577679
 21
1527.7361122086
  0
LINE
  5
2DC
100
AcDbEntity
  8
0
100
AcDbLine
 62
7
  6
BYLAYER
 10
556.1110527221
 20
112.7359892616
 11
556.1110527221
 21
129.2359892616
  0
LINE
  5
2DD
100
AcDbEntity
  8
4
100
AcDbLine
 62
7
  6
BYLAYER
 10
528.4110527206
 20
848.5449525436
 11
525.7110527206
 21
843.8684153631
  0
LINE
  5
2DE
100
AcDbEntity
  8
4
100
AcDbLine
 62
7
  6
BYLAYER
 10
533.8110527206
 20
839.1918781827
 11
536.5110527206
 21
843.8684153631
  0
LINE
  5
2DF
100
AcDbEntity
  8
4
100
AcDbLine
 62
7
  6
BYLAYER
 10
528.4110527206
 20
818.5449525436
 11
525.7110527206
 21
813.8684153631
  0
LINE
  5
2E0
100
AcDbEntity
  8
4
100
AcDbLine
 62
7
  6
BYLAYER
 10
533.8110527206
 20
809.1918781827
 11
536.5110527206
 21
813.8684153631
  0
LINE
  5
2E1
100
AcDbEntity
  8
4
100
AcDbLine
 62
7
  6
BYLAYER
 10
525.7110527206
 20
813.8684153631
 11
528.4110527206
 21
809.1918781827
  0
LINE
  5
2E2
100
AcDbEntity
  8
4
100
AcDbLine
 62
7
  6
BYLAYER
 10
536.5110527206
 20
813.8684153631
 11
533.8110527206
 21
818.5449525436
  0
LINE
  5
2E3
100
AcDbEntity
  8
4
100
AcDbLine
 62
7
  6
BYLAYER
 10
525.7110527206
 20
843.8684153631
 11
528.4110527206
 21
839.1918781827
  0
LINE
  5
2E4
100
AcDbEntity
  8
4
100
AcDbLine
 62
7
  6
BYLAYER
 10
536.5110527206
 20
843.8684153631
 11
533.8110527206
 21
848.5449525436
  0
LINE
  5
2E5
100
AcDbEntity
  8
4
100
AcDbLine
 62
7
  6
BYLAYER
 10
495.9218319956
 20
803.8684153631
 11
540.9218319956
 21
803.8684153631
  0
LINE
  5
2E6
100
AcDbEntity
  8
3
100
AcDbLine
 62
7
  6
BYLAYER
 10
643.5709628841
 20
803.8684153631
 11
688.5709628841
 21
803.8684153631
  0
LINE
  5
2E7
100
AcDbEntity
  8
3
100
AcDbLine
 62
7
  6
BYLAYER
 10
646.5709628841
 20
808.8684153631
 11
643.5709628841
 21
808.8684153631
  0
LINE
  5
2E8
100
AcDbEntity
  8
4
100
AcDbLine
 62
7
  6
BYLAYER
 10
498.9218319956
 20
808.8684153631
 11
495.9218319956
 21
808.8684153631
  0
LINE
  5
2E9
100
AcDbEntity
  8
3
100
AcDbLine
 62
7
  6
BYLAYER
 10
681.4601836091
 20
809.1918781827
 11
676.0601836091
 21
809.1918781827
  0
LINE
  5
2EA
100
AcDbEntity
  8
4
100
AcDbLine
 62
7
  6
BYLAYER
 10
533.8110527206
 20
809.1918781827
 11
528.4110527206
 21
809.1918781827
  0
LINE
  5
2EB
100
AcDbEntity
  8
4
100
AcDbLine
 62
7
  6
BYLAYER
 10
524.2218319956
 20
810.6184153631
 11
525.7067432518
 21
810.6184153631
  0
LINE
  5
2EC
100
AcDbEntity
  8
4
100
AcDbLine
 62
7
  6
BYLAYER
 10
536.5150246498
 20
810.6184153631
 11
537.7218319956
 21
810.6184153631
  0
LINE
  5
2ED
100
AcDbEntity
  8
3
100
AcDbLine
 62
7
  6
BYLAYER
 10
671.8709628841
 20
810.6184153631
 11
673.3558741403
 21
810.6184153631
  0
LINE
  5
2EE
100
AcDbEntity
  8
3
100
AcDbLine
 62
7
  6
BYLAYER
 10
684.1641555383
 20
810.6184153631
 11
685.3709628841
 21
810.6184153631
  0
LINE
  5
2EF
100
AcDbEntity
  8
3
100
AcDbLine
 62
7
  6
BYLAYER
 10
685.3709628841
 20
817.1184153631
 11
684.1644930779
 21
817.1184153631
  0
LINE
  5
2F0
100
AcDbEntity
  8
3
100
AcDbLine
 62
7
  6
BYLAYER
 10
673.3562116799
 20
817.1184153631
 11
671.8709628841
 21
817.1184153631
  0
LINE
  5
2F1
100
AcDbEntity
  8
4
100
AcDbLine
 62
7
  6
BYLAYER
 10
537.7218319956
 20
817.1184153631
 11
536.5153621894
 21
817.1184153631
  0
LINE
  5
2F2
100
AcDbEntity
  8
4
100
AcDbLine
 62
7
  6
BYLAYER
 10
525.7070807914
 20
817.1184153631
 11
524.2218319956
 21
817.1184153631
  0
LINE
  5
2F3
100
AcDbEntity
  8
4
100
AcDbLine
 62
7
  6
BYLAYER
 10
528.4110527206
 20
818.5449525436
 11
533.8110527206
 21
818.5449525436
  0
LINE
  5
2F4
100
AcDbEntity
  8
3
100
AcDbLine
 62
7
  6
BYLAYER
 10
676.0601836091
 20
818.5449525436
 11
681.4601836091
 21
818.5449525436
  0
LINE
  5
2F5
100
AcDbEntity
  8
3
100
AcDbLine
 62
7
  6
BYLAYER
 10
681.4601836091
 20
839.1918781827
 11
676.0601836091
 21
839.1918781827
  0
LINE
  5
2F6
100
AcDbEntity
  8
4
100
AcDbLine
 62
7
  6
BYLAYER
 10
533.8110527206
 20
839.1918781827
 11
528.4110527206
 21
839.1918781827
  0
LINE
  5
2F7
100
AcDbEntity
  8
3
100
AcDbLine
 62
7
  6
BYLAYER
 10
643.5709628841
 20
803.8684153631
 11
643.5709628841
 21
853.8684153631
  0
LINE
  5
2F8
100
AcDbEntity
  8
3
100
AcDbLine
 62
7
  6
BYLAYER
 10
643.5709628841
 20
1452.9191769842
 11
643.5709628841
 21
1502.9191769842
  0
LINE
  5
2F9
100
AcDbEntity
  8
4
100
AcDbLine
 62
7
  6
BYLAYER
 10
643.5711269897
 20
156.5843974703
 11
643.5711269897
 21
206.5843974703
  0
LINE
  5
2FA
100
AcDbEntity
  8
3
100
AcDbLine
 62
7
  6
BYLAYER
 10
646.5709628841
 20
1502.9191769842
 11
646.5709628841
 21
1452.9191769842
  0
LINE
  5
2FB
100
AcDbEntity
  8
3
100
AcDbLine
 62
7
  6
BYLAYER
 10
646.5709628841
 20
853.8684153631
 11
646.5709628841
 21
803.8684153631
  0
LINE
  5
2FC
100
AcDbEntity
  8
4
100
AcDbLine
 62
7
  6
BYLAYER
 10
646.5711269897
 20
206.5843974703
 11
646.5711269897
 21
156.5843974703
  0
LINE
  5
2FD
100
AcDbEntity
  8
3
100
AcDbLine
 62
7
  6
BYLAYER
 10
650.5709628841
 20
803.8684153631
 11
650.5709628841
 21
853.8684153631
  0
LINE
  5
2FE
100
AcDbEntity
  8
3
100
AcDbLine
 62
7
  6
BYLAYER
 10
650.5709628841
 20
1452.9191769842
 11
650.5709628841
 21
1502.9191769842
  0
LINE
  5
2FF
100
AcDbEntity
  8
4
100
AcDbLine
 62
7
  6
BYLAYER
 10
650.5711269897
 20
156.5843974703
 11
650.5711269897
 21
206.5843974703
  0
LINE
  5
300
100
AcDbEntity
  8
0
100
AcDbLine
 62
7
  6
BYLAYER
 10
653.7594575293
 20
1543.2361416662
 11
653.7594557985
 21
1542.4369255928
  0
LINE
  5
301
100
AcDbEntity
  8
0
100
AcDbLine
 62
7
  6
BYLAYER
 10
653.7594557995
 20
1544.2360994001
 11
653.7594557995
 21
1542.2479497315
  0
LINE
  5
302
100
AcDbEntity
  8
0
100
AcDbLine
 62
7
  6
BYLAYER
 10
653.7594557995
 20
1542.2360994001
 11
653.7594557995
 21
1527.7360994001
  0
LINE
  5
303
100
AcDbEntity
  8
3
100
AcDbLine
 62
7
  6
BYLAYER
 10
653.7597085675
 20
1527.7361122086
 11
653.7597085675
 21
1502.9191769842
  0
LINE
  5
304
100
AcDbEntity
  8
3
100
AcDbLine
 62
7
  6
BYLAYER
 10
653.7597085675
 20
1452.9191769842
 11
653.7597085675
 21
853.8684153631
  0
LINE
  5
305
100
AcDbEntity
  8
3
100
AcDbLine
 62
7
  6
BYLAYER
 10
653.7597085675
 20
803.8684153631
 11
653.7597085675
 21
206.5843974703
  0
LINE
  5
306
100
AcDbEntity
  8
3
100
AcDbLine
 62
7
  6
BYLAYER
 10
653.7597085675
 20
156.5843974703
 11
653.7597085675
 21
129.2361122086
  0
LINE
  5
307
100
AcDbEntity
  8
0
100
AcDbLine
 62
7
  6
BYLAYER
 10
653.7601836106
 20
112.7359892616
 11
653.7601836106
 21
129.2359892616
  0
LINE
  5
308
100
AcDbEntity
  8
0
100
AcDbLine
 62
7
  6
BYLAYER
 10
654.7594557978
 20
1543.2360994001
 11
654.7594557995
 21
1545.2360994001
  0
LINE
  5
309
100
AcDbEntity
  8
0
100
AcDbLine
 62
7
  6
BYLAYER
 10
654.7601836106
 20
111.7359892616
 11
654.7601836089
 21
113.7359892616
  0
LINE
  5
30A
100
AcDbEntity
  8
0
100
AcDbLine
 62
7
  6
BYLAYER
 10
654.9594557995
 20
1542.7360994001
 11
654.9594557995
 21
1544.3360994001
  0
LINE
  5
30B
100
AcDbEntity
  8
0
100
AcDbLine
 62
7
  6
BYLAYER
 10
654.9601836106
 20
112.6360994001
 11
654.9601836106
 21
114.2360994001
  0
LINE
  5
30C
100
AcDbEntity
  8
4
100
AcDbLine
 62
7
  6
BYLAYER
 10
524.2218319956
 20
840.6184153631
 11
525.7067432518
 21
840.6184153631
  0
LINE
  5
30D
100
AcDbEntity
  8
4
100
AcDbLine
 62
7
  6
BYLAYER
 10
536.5150246498
 20
840.6184153631
 11
537.7218319956
 21
840.6184153631
  0
LINE
  5
30E
100
AcDbEntity
  8
3
100
AcDbLine
 62
7
  6
BYLAYER
 10
671.8709628841
 20
840.6184153631
 11
673.3558741403
 21
840.6184153631
  0
LINE
  5
30F
100
AcDbEntity
  8
3
100
AcDbLine
 62
7
  6
BYLAYER
 10
684.1641555383
 20
840.6184153631
 11
685.3709628841
 21
840.6184153631
  0
LINE
  5
310
100
AcDbEntity
  8
3
100
AcDbLine
 62
7
  6
BYLAYER
 10
685.3709628841
 20
847.1184153631
 11
684.1644930779
 21
847.1184153631
  0
LINE
  5
311
100
AcDbEntity
  8
3
100
AcDbLine
 62
7
  6
BYLAYER
 10
673.3562116799
 20
847.1184153631
 11
671.8709628841
 21
847.1184153631
  0
LINE
  5
312
100
AcDbEntity
  8
4
100
AcDbLine
 62
7
  6
BYLAYER
 10
537.7218319956
 20
847.1184153631
 11
536.5153621894
 21
847.1184153631
  0
LINE
  5
313
100
AcDbEntity
  8
4
100
AcDbLine
 62
7
  6
BYLAYER
 10
525.7070807914
 20
847.1184153631
 11
524.2218319956
 21
847.1184153631
  0
LINE
  5
314
100
AcDbEntity
  8
4
100
AcDbLine
 62
7
  6
BYLAYER
 10
528.4110527206
 20
848.5449525436
 11
533.8110527206
 21
848.5449525436
  0
LINE
  5
315
100
AcDbEntity
  8
3
100
AcDbLine
 62
7
  6
BYLAYER
 10
676.0601836091
 20
848.5449525436
 11
681.4601836091
 21
848.5449525436
  0
LINE
  5
316
100
AcDbEntity
  8
4
100
AcDbLine
 62
7
  6
BYLAYER
 10
495.9218319956
 20
848.8684153631
 11
498.9218319956
 21
848.8684153631
  0
LINE
  5
317
100
AcDbEntity
  8
3
100
AcDbLine
 62
7
  6
BYLAYER
 10
643.5709628841
 20
848.8684153631
 11
646.5709628841
 21
848.8684153631
  0
LINE
  5
318
100
AcDbEntity
  8
4
100
AcDbLine
 62
7
  6
BYLAYER
 10
495.9218319956
 20
853.8684153631
 11
540.9218319956
 21
853.8684153631
  0
LINE
  5
319
100
AcDbEntity
  8
3
100
AcDbLine
 62
7
  6
BYLAYER
 10
643.5709628841
 20
853.8684153631
 11
688.5709628841
 21
853.8684153631
  0
LINE
  5
31A
100
AcDbEntity
  8
3
100
AcDbLine
 62
7
  6
BYLAYER
 10
673.3601836091
 20
813.8684153631
 11
676.0601836091
 21
809.1918781827
  0
LINE
  5
31B
100
AcDbEntity
  8
0
100
AcDbLine
 62
7
  6
BYLAYER
 10
657.7594557995
 20
1527.7360994001
 11
657.7594557995
 21
1542.7360994001
  0
LINE
  5
31C
100
AcDbEntity
  8
3
100
AcDbLine
 62
7
  6
BYLAYER
 10
657.7597085675
 20
129.2361122086
 11
657.7597085675
 21
156.5843974703
  0
LINE
  5
31D
100
AcDbEntity
  8
3
100
AcDbLine
 62
7
  6
BYLAYER
 10
657.7597085675
 20
206.5843974703
 11
657.7597085675
 21
803.8684153631
  0
LINE
  5
31E
100
AcDbEntity
  8
3
100
AcDbLine
 62
7
  6
BYLAYER
 10
657.7597085675
 20
853.8684153631
 11
657.7597085675
 21
1452.9191769842
  0
LINE
  5
31F
100
AcDbEntity
  8
3
100
AcDbLine
 62
7
  6
BYLAYER
 10
657.7597085675
 20
1502.9191769842
 11
657.7597085675
 21
1527.7361122086
  0
LINE
  5
320
100
AcDbEntity
  8
0
100
AcDbLine
 62
7
  6
BYLAYER
 10
657.7601836106
 20
114.2359892616
 11
657.7601836106
 21
129.2359892616
  0
LINE
  5
321
100
AcDbEntity
  8
0
100
AcDbLine
 62
7
  6
BYLAYER
 10
661.2594557267
 20
1542.7360994001
 11
661.2594557267
 21
1542.2360994001
  0
LINE
  5
322
100
AcDbEntity
  8
0
100
AcDbLine
 62
7
  6
BYLAYER
 10
661.2601835381
 20
114.7359892616
 11
661.2601835381
 21
114.2359892616
  0
LINE
  5
323
100
AcDbEntity
  8
0
100
AcDbLine
 62
7
  6
BYLAYER
 10
661.5594557995
 20
1544.3360994001
 11
661.5594557995
 21
1542.8402818349
  0
LINE
  5
324
100
AcDbEntity
  8
0
100
AcDbLine
 62
7
  6
BYLAYER
 10
661.5601836106
 20
114.1319222674
 11
661.5601836106
 21
112.6360994001
  0
LINE
  5
325
100
AcDbEntity
  8
0
100
AcDbLine
 62
7
  6
BYLAYER
 10
661.7594557995
 20
1544.2360994001
 11
661.7594557995
 21
1543.2360994001
  0
LINE
  5
326
100
AcDbEntity
  8
0
100
AcDbLine
 62
7
  6
BYLAYER
 10
661.7601836106
 20
113.7359892616
 11
661.7601836106
 21
112.7359892616
  0
LINE
  5
327
100
AcDbEntity
  8
0
100
AcDbLine
 62
7
  6
BYLAYER
 10
662.0094557995
 20
1545.2360994001
 11
662.0094557995
 21
1551.2360994001
  0
LINE
  5
328
100
AcDbEntity
  8
0
100
AcDbLine
 62
7
  6
BYLAYER
 10
662.7594557995
 20
1543.2360994001
 11
662.7594557995
 21
1545.2360994001
  0
LINE
  5
329
100
AcDbEntity
  8
0
100
AcDbLine
 62
7
  6
BYLAYER
 10
662.7601836106
 20
111.7359892616
 11
662.7601836106
 21
113.7359892616
  0
LINE
  5
32A
100
AcDbEntity
  8
0
100
AcDbLine
 62
7
  6
BYLAYER
 10
663.7594557995
 20
1551.7360994001
 11
663.7594557995
 21
1555.2360984627
  0
LINE
  5
32B
100
AcDbEntity
  8
0
100
AcDbLine
 62
7
  6
BYLAYER
 10
665.6352357995
 20
1552.9360994001
 11
665.6352357995
 21
1551.7360994001
  0
LINE
  5
32C
100
AcDbEntity
  8
0
100
AcDbLine
 62
7
  6
BYLAYER
 10
673.8852357995
 20
1552.9360994001
 11
673.8852357995
 21
1551.7360994001
  0
LINE
  5
32D
100
AcDbEntity
  8
0
100
AcDbLine
 62
7
  6
BYLAYER
 10
674.2594557995
 20
1544.2360994001
 11
674.2594557995
 21
1527.7360994001
  0
LINE
  5
32E
100
AcDbEntity
  8
3
100
AcDbLine
 62
7
  6
BYLAYER
 10
674.2597085675
 20
1527.7361122086
 11
674.2597085675
 21
1502.9191769842
  0
LINE
  5
32F
100
AcDbEntity
  8
3
100
AcDbLine
 62
7
  6
BYLAYER
 10
674.2597085675
 20
1452.9191769842
 11
674.2597085675
 21
853.8684153631
  0
LINE
  5
330
100
AcDbEntity
  8
3
100
AcDbLine
 62
7
  6
BYLAYER
 10
674.2597085675
 20
803.8684153631
 11
674.2597085675
 21
206.5843974703
  0
LINE
  5
331
100
AcDbEntity
  8
3
100
AcDbLine
 62
7
  6
BYLAYER
 10
674.2597085675
 20
156.5843974703
 11
674.2597085675
 21
129.2361122086
  0
LINE
  5
332
100
AcDbEntity
  8
0
100
AcDbLine
 62
7
  6
BYLAYER
 10
674.2601836106
 20
129.2359892616
 11
674.2601836106
 21
112.7359892616
  0
LINE
  5
333
100
AcDbEntity
  8
0
100
AcDbLine
 62
7
  6
BYLAYER
 10
674.7594557995
 20
1527.7360994001
 11
674.7594557995
 21
1544.2360994001
  0
LINE
  5
334
100
AcDbEntity
  8
3
100
AcDbLine
 62
7
  6
BYLAYER
 10
674.7597085675
 20
129.2361122086
 11
674.7597085675
 21
156.5843974703
  0
LINE
  5
335
100
AcDbEntity
  8
3
100
AcDbLine
 62
7
  6
BYLAYER
 10
674.7597085675
 20
206.5843974703
 11
674.7597085675
 21
803.8684153631
  0
LINE
  5
336
100
AcDbEntity
  8
3
100
AcDbLine
 62
7
  6
BYLAYER
 10
674.7597085675
 20
853.8684153631
 11
674.7597085675
 21
1452.9191769842
  0
LINE
  5
337
100
AcDbEntity
  8
3
100
AcDbLine
 62
7
  6
BYLAYER
 10
674.7597085675
 20
1502.9191769842
 11
674.7597085675
 21
1527.7361122086
  0
LINE
  5
338
100
AcDbEntity
  8
0
100
AcDbLine
 62
7
  6
BYLAYER
 10
674.7601836106
 20
112.7359892617
 11
674.7601836106
 21
129.2359892616
  0
LINE
  5
339
100
AcDbEntity
  8
0
100
AcDbLine
 62
7
  6
BYLAYER
 10
675.7594557995
 20
1555.2360984627
 11
675.7594557995
 21
1551.7360994001
  0
LINE
  5
33A
100
AcDbEntity
  8
0
100
AcDbLine
 62
7
  6
BYLAYER
 10
677.5094557995
 20
1545.2360994001
 11
677.5094557995
 21
1551.2360994001
  0
LINE
  5
33B
100
AcDbEntity
  8
0
100
AcDbLine
 62
7
  6
BYLAYER
 10
680.0094557995
 20
1545.2360994001
 11
680.0094557995
 21
1551.2360994001
  0
LINE
  5
33C
100
AcDbEntity
  8
0
100
AcDbLine
 62
7
  6
BYLAYER
 10
682.7594557995
 20
1544.2360994001
 11
682.7594557995
 21
1527.7360994001
  0
LINE
  5
33D
100
AcDbEntity
  8
3
100
AcDbLine
 62
7
  6
BYLAYER
 10
682.7597085675
 20
1527.7361122086
 11
682.7597085675
 21
1502.9191769842
  0
LINE
  5
33E
100
AcDbEntity
  8
3
100
AcDbLine
 62
7
  6
BYLAYER
 10
682.7597085675
 20
1452.9191769842
 11
682.7597085675
 21
853.8684153631
  0
LINE
  5
33F
100
AcDbEntity
  8
3
100
AcDbLine
 62
7
  6
BYLAYER
 10
682.7597085675
 20
803.8684153631
 11
682.7597085675
 21
206.5843974703
  0
LINE
  5
340
100
AcDbEntity
  8
3
100
AcDbLine
 62
7
  6
BYLAYER
 10
682.7597085675
 20
156.5843974703
 11
682.7597085675
 21
129.2361122086
  0
LINE
  5
341
100
AcDbEntity
  8
0
100
AcDbLine
 62
7
  6
BYLAYER
 10
682.7601836106
 20
129.2359892616
 11
682.7601836106
 21
112.7359892617
  0
LINE
  5
342
100
AcDbEntity
  8
0
100
AcDbLine
 62
7
  6
BYLAYER
 10
683.2594557995
 20
1527.7360994001
 11
683.2594557995
 21
1544.2360994001
  0
LINE
  5
343
100
AcDbEntity
  8
3
100
AcDbLine
 62
7
  6
BYLAYER
 10
683.2597085675
 20
129.2361122086
 11
683.2597085675
 21
156.5843974703
  0
LINE
  5
344
100
AcDbEntity
  8
3
100
AcDbLine
 62
7
  6
BYLAYER
 10
683.2597085675
 20
206.5843974703
 11
683.2597085675
 21
803.8684153631
  0
LINE
  5
345
100
AcDbEntity
  8
3
100
AcDbLine
 62
7
  6
BYLAYER
 10
683.2597085675
 20
853.8684153631
 11
683.2597085675
 21
1452.9191769842
  0
LINE
  5
346
100
AcDbEntity
  8
3
100
AcDbLine
 62
7
  6
BYLAYER
 10
683.2597085675
 20
1502.9191769842
 11
683.2597085675
 21
1527.7361122086
  0
LINE
  5
347
100
AcDbEntity
  8
0
100
AcDbLine
 62
7
  6
BYLAYER
 10
683.2601836106
 20
112.7359892616
 11
683.2601836106
 21
129.2359892616
  0
LINE
  5
348
100
AcDbEntity
  8
0
100
AcDbLine
 62
7
  6
BYLAYER
 10
683.6362157995
 20
1552.9360994001
 11
683.6362157995
 21
1551.7360994001
  0
LINE
  5
349
100
AcDbEntity
  8
0
100
AcDbLine
 62
7
  6
BYLAYER
 10
691.8862157995
 20
1552.9360994001
 11
691.8862157995
 21
1551.7360994001
  0
LINE
  5
34A
100
AcDbEntity
  8
3
100
AcDbLine
 62
7
  6
BYLAYER
 10
693.5709628841
 20
1497.9191769842
 11
693.5709628841
 21
1457.9191769842
  0
LINE
  5
34B
100
AcDbEntity
  8
3
100
AcDbLine
 62
7
  6
BYLAYER
 10
693.5709628841
 20
848.8684153631
 11
693.5709628841
 21
808.8684153631
  0
LINE
  5
34C
100
AcDbEntity
  8
4
100
AcDbLine
 62
7
  6
BYLAYER
 10
693.5711269897
 20
201.5843974703
 11
693.5711269897
 21
161.5843974703
  0
LINE
  5
34D
100
AcDbEntity
  8
0
100
AcDbLine
 62
7
  6
BYLAYER
 10
694.7594557995
 20
1545.2360994001
 11
694.7594557995
 21
1543.2360994001
  0
LINE
  5
34E
100
AcDbEntity
  8
0
100
AcDbLine
 62
7
  6
BYLAYER
 10
694.7601836106
 20
113.7359892616
 11
694.7601836106
 21
111.7359892616
  0
LINE
  5
34F
100
AcDbEntity
  8
0
100
AcDbLine
 62
7
  6
BYLAYER
 10
695.5094557995
 20
1545.2360994001
 11
695.5094557995
 21
1551.2360994001
  0
LINE
  5
350
100
AcDbEntity
  8
0
100
AcDbLine
 62
7
  6
BYLAYER
 10
695.7594557995
 20
1543.2360994001
 11
695.7594557995
 21
1544.2360994001
  0
LINE
  5
351
100
AcDbEntity
  8
0
100
AcDbLine
 62
7
  6
BYLAYER
 10
695.7601836106
 20
112.7359892616
 11
695.7601836106
 21
113.7359892616
  0
LINE
  5
352
100
AcDbEntity
  8
0
100
AcDbLine
 62
7
  6
BYLAYER
 10
695.9594557995
 20
1542.8401663942
 11
695.9594557995
 21
1544.3360994001
  0
LINE
  5
353
100
AcDbEntity
  8
0
100
AcDbLine
 62
7
  6
BYLAYER
 10
695.9601836077
 20
112.6360994001
 11
695.9601836077
 21
114.1318068249
  0
LINE
  5
354
100
AcDbEntity
  8
0
100
AcDbLine
 62
7
  6
BYLAYER
 10
696.2594558721
 20
1542.2360994001
 11
696.2594558721
 21
1542.7360994001
  0
LINE
  5
355
100
AcDbEntity
  8
0
100
AcDbLine
 62
7
  6
BYLAYER
 10
696.2601836834
 20
114.2359892616
 11
696.2601836834
 21
114.7359892616
  0
LINE
  5
356
100
AcDbEntity
  8
0
100
AcDbLine
 62
7
  6
BYLAYER
 10
699.7594557995
 20
1542.7360994001
 11
699.7594557995
 21
1527.7360994001
  0
LINE
  5
357
100
AcDbEntity
  8
3
100
AcDbLine
 62
7
  6
BYLAYER
 10
699.7597085675
 20
1527.7361122086
 11
699.7597085675
 21
129.2361122086
  0
LINE
  5
358
100
AcDbEntity
  8
0
100
AcDbLine
 62
7
  6
BYLAYER
 10
699.7601836106
 20
129.2359892616
 11
699.7601836106
 21
114.2359892616
  0
LINE
  5
359
100
AcDbEntity
  8
0
100
AcDbLine
 62
7
  6
BYLAYER
 10
702.5594557995
 20
1544.3360994001
 11
702.5594557995
 21
1542.7360994001
  0
LINE
  5
35A
100
AcDbEntity
  8
0
100
AcDbLine
 62
7
  6
BYLAYER
 10
702.5601836077
 20
114.2360994001
 11
702.5601836077
 21
112.6360994001
  0
LINE
  5
35B
100
AcDbEntity
  8
0
100
AcDbLine
 62
7
  6
BYLAYER
 10
702.7594557995
 20
1545.2360994001
 11
702.7594558012
 21
1543.2360994001
  0
LINE
  5
35C
100
AcDbEntity
  8
0
100
AcDbLine
 62
7
  6
BYLAYER
 10
702.7601836123
 20
113.7359892616
 11
702.7601836106
 21
111.7359892616
  0
LINE
  5
35D
100
AcDbEntity
  8
3
100
AcDbLine
 62
7
  6
BYLAYER
 10
676.0601836091
 20
848.5449525436
 11
673.3601836091
 21
843.8684153631
  0
LINE
  5
35E
100
AcDbEntity
  8
3
100
AcDbLine
 62
7
  6
BYLAYER
 10
681.4601836091
 20
839.1918781827
 11
684.1601836091
 21
843.8684153631
  0
LINE
  5
35F
100
AcDbEntity
  8
3
100
AcDbLine
 62
7
  6
BYLAYER
 10
676.0601836091
 20
818.5449525436
 11
673.3601836091
 21
813.8684153631
  0
LINE
  5
360
100
AcDbEntity
  8
3
100
AcDbLine
 62
7
  6
BYLAYER
 10
681.4601836091
 20
809.1918781827
 11
684.1601836091
 21
813.8684153631
  0
LINE
  5
361
100
AcDbEntity
  8
3
100
AcDbLine
 62
7
  6
BYLAYER
 10
684.1601836091
 20
813.8684153631
 11
681.4601836091
 21
818.5449525436
  0
LINE
  5
362
100
AcDbEntity
  8
3
100
AcDbLine
 62
7
  6
BYLAYER
 10
673.3601836091
 20
843.8684153631
 11
676.0601836091
 21
839.1918781827
  0
LINE
  5
363
100
AcDbEntity
  8
3
100
AcDbLine
 62
7
  6
BYLAYER
 10
684.1601836091
 20
843.8684153631
 11
681.4601836091
 21
848.5449525436
  0
LINE
  5
364
100
AcDbEntity
  8
0
100
AcDbLine
 62
7
  6
BYLAYER
 10
703.7594557995
 20
1527.7360994001
 11
703.7594557995
 21
1544.2360994001
  0
LINE
  5
365
100
AcDbEntity
  8
3
100
AcDbLine
 62
7
  6
BYLAYER
 10
703.7597085675
 20
129.2361122086
 11
703.7597085675
 21
1527.7361122086
  0
LINE
  5
366
100
AcDbEntity
  8
0
100
AcDbLine
 62
7
  6
BYLAYER
 10
703.7601836106
 20
112.7359892616
 11
703.7601836106
 21
129.2359892616
  0
LINE
  5
367
100
AcDbEntity
  8
4
100
AcDbLine
 62
7
  6
BYLAYER
 10
528.4110527206
 20
201.2608117038
 11
525.7110527206
 21
196.5842745234
  0
LINE
  5
368
100
AcDbEntity
  8
4
100
AcDbLine
 62
7
  6
BYLAYER
 10
533.8110527206
 20
191.9077373429
 11
536.5110527206
 21
196.5842745234
  0
LINE
  5
369
100
AcDbEntity
  8
4
100
AcDbLine
 62
7
  6
BYLAYER
 10
528.4110527206
 20
171.2608117038
 11
525.7110527206
 21
166.5842745234
  0
LINE
  5
36A
100
AcDbEntity
  8
4
100
AcDbLine
 62
7
  6
BYLAYER
 10
533.8110527206
 20
161.9077373429
 11
536.5110527206
 21
166.5842745234
  0
LINE
  5
36B
100
AcDbEntity
  8
4
100
AcDbLine
 62
7
  6
BYLAYER
 10
525.7110527206
 20
1462.9191769842
 11
528.4110527206
 21
1458.2426398038
  0
LINE
  5
36C
100
AcDbEntity
  8
4
100
AcDbLine
 62
7
  6
BYLAYER
 10
536.5110527206
 20
1462.9191769842
 11
533.8110527206
 21
1467.5957141646
  0
LINE
  5
36D
100
AcDbEntity
  8
4
100
AcDbLine
 62
7
  6
BYLAYER
 10
525.7110527206
 20
1492.9191769842
 11
528.4110527206
 21
1488.2426398038
  0
LINE
  5
36E
100
AcDbEntity
  8
4
100
AcDbLine
 62
7
  6
BYLAYER
 10
536.5110527206
 20
1492.9191769842
 11
533.8110527206
 21
1497.5957141646
  0
LINE
  5
36F
100
AcDbEntity
  8
3
100
AcDbLine
 62
7
  6
BYLAYER
 10
676.0601836091
 20
201.2608117038
 11
673.3601836091
 21
196.5842745234
  0
LINE
  5
370
100
AcDbEntity
  8
4
100
AcDbLine
 62
7
  6
BYLAYER
 10
676.0603477148
 20
201.2609346508
 11
673.3603477148
 21
196.5843974703
  0
LINE
  5
371
100
AcDbEntity
  8
3
100
AcDbLine
 62
7
  6
BYLAYER
 10
681.4601836091
 20
191.9077373429
 11
684.1601836091
 21
196.5842745234
  0
LINE
  5
372
100
AcDbEntity
  8
4
100
AcDbLine
 62
7
  6
BYLAYER
 10
681.4603477148
 20
191.9078602899
 11
684.1603477148
 21
196.5843974703
  0
LINE
  5
373
100
AcDbEntity
  8
3
100
AcDbLine
 62
7
  6
BYLAYER
 10
673.3601836091
 20
1462.9191769842
 11
676.0601836091
 21
1458.2426398038
  0
LINE
  5
374
100
AcDbEntity
  8
3
100
AcDbLine
 62
7
  6
BYLAYER
 10
684.1601836091
 20
1462.9191769842
 11
681.4601836091
 21
1467.5957141646
  0
LINE
  5
375
100
AcDbEntity
  8
3
100
AcDbLine
 62
7
  6
BYLAYER
 10
673.3601836091
 20
1492.9191769842
 11
676.0601836091
 21
1488.2426398038
  0
LINE
  5
376
100
AcDbEntity
  8
3
100
AcDbLine
 62
7
  6
BYLAYER
 10
676.0601836091
 20
171.2608117038
 11
673.3601836091
 21
166.5842745234
  0
LINE
  5
377
100
AcDbEntity
  8
4
100
AcDbLine
 62
7
  6
BYLAYER
 10
676.0603477148
 20
171.2609346508
 11
673.3603477148
 21
166.5843974703
  0
LINE
  5
378
100
AcDbEntity
  8
3
100
AcDbLine
 62
7
  6
BYLAYER
 10
681.4601836091
 20
161.9077373429
 11
684.1601836091
 21
166.5842745234
  0
LINE
  5
379
100
AcDbEntity
  8
4
100
AcDbLine
 62
7
  6
BYLAYER
 10
681.4603477148
 20
161.9078602899
 11
684.1603477148
 21
166.5843974703
  0
LINE
  5
37A
100
AcDbEntity
  8
3
100
AcDbLine
 62
7
  6
BYLAYER
 10
684.1601836091
 20
1492.9191769842
 11
681.4601836091
 21
1497.5957141646
  0
LINE
  5
37B
100
AcDbEntity
  8
0
100
AcDbLine
 62
7
  6
BYLAYER
 10
529.360324911
 20
1551.7360994001
 11
529.860324911
 21
1551.2360994001
  0
LINE
  5
37C
100
AcDbEntity
  8
0
100
AcDbLine
 62
7
  6
BYLAYER
 10
527.6103268897
 20
1555.7360994001
 11
528.110324911
 21
1555.2361015586
  0
LINE
  5
37D
100
AcDbEntity
  8
0
100
AcDbLine
 62
7
  6
BYLAYER
 10
547.360324911
 20
1551.7360994001
 11
547.860324911
 21
1551.2360994001
  0
LINE
  5
37E
100
AcDbEntity
  8
0
100
AcDbLine
 62
7
  6
BYLAYER
 10
677.0094557995
 20
1551.7360994001
 11
677.5094557995
 21
1551.2360994001
  0
LINE
  5
37F
100
AcDbEntity
  8
0
100
AcDbLine
 62
7
  6
BYLAYER
 10
675.2594577782
 20
1555.7360994001
 11
675.7594557995
 21
1555.2361015586
  0
LINE
  5
380
100
AcDbEntity
  8
0
100
AcDbLine
 62
7
  6
BYLAYER
 10
695.0094557995
 20
1551.7360994001
 11
695.5094557995
 21
1551.2360994001
  0
LINE
  5
381
100
AcDbEntity
  8
4
100
AcDbLine
 62
7
  6
BYLAYER
 10
495.9218319956
 20
1452.9191769842
 11
540.9218319956
 21
1452.9191769842
  0
LINE
  5
382
100
AcDbEntity
  8
3
100
AcDbLine
 62
7
  6
BYLAYER
 10
643.5709628841
 20
1452.9191769842
 11
688.5709628841
 21
1452.9191769842
  0
LINE
  5
383
100
AcDbEntity
  8
3
100
AcDbLine
 62
7
  6
BYLAYER
 10
646.5709628841
 20
1457.9191769842
 11
643.5709628841
 21
1457.9191769842
  0
LINE
  5
384
100
AcDbEntity
  8
4
100
AcDbLine
 62
7
  6
BYLAYER
 10
498.9218319956
 20
1457.9191769842
 11
495.9218319956
 21
1457.9191769842
  0
LINE
  5
385
100
AcDbEntity
  8
3
100
AcDbLine
 62
7
  6
BYLAYER
 10
681.4601836091
 20
1458.2426398038
 11
676.0601836091
 21
1458.2426398038
  0
LINE
  5
386
100
AcDbEntity
  8
4
100
AcDbLine
 62
7
  6
BYLAYER
 10
533.8110527206
 20
1458.2426398038
 11
528.4110527206
 21
1458.2426398038
  0
LINE
  5
387
100
AcDbEntity
  8
4
100
AcDbLine
 62
7
  6
BYLAYER
 10
524.2218319956
 20
1459.6691769842
 11
525.7067432518
 21
1459.6691769842
  0
LINE
  5
388
100
AcDbEntity
  8
4
100
AcDbLine
 62
7
  6
BYLAYER
 10
536.5150246498
 20
1459.6691769842
 11
537.7218319956
 21
1459.6691769842
  0
LINE
  5
389
100
AcDbEntity
  8
3
100
AcDbLine
 62
7
  6
BYLAYER
 10
671.8709628841
 20
1459.6691769842
 11
673.3558741403
 21
1459.6691769842
  0
LINE
  5
38A
100
AcDbEntity
  8
3
100
AcDbLine
 62
7
  6
BYLAYER
 10
684.1641555383
 20
1459.6691769842
 11
685.3709628841
 21
1459.6691769842
  0
LINE
  5
38B
100
AcDbEntity
  8
3
100
AcDbLine
 62
7
  6
BYLAYER
 10
685.3709628841
 20
1466.1691769842
 11
684.1644930779
 21
1466.1691769842
  0
LINE
  5
38C
100
AcDbEntity
  8
3
100
AcDbLine
 62
7
  6
BYLAYER
 10
673.3562116799
 20
1466.1691769842
 11
671.8709628841
 21
1466.1691769842
  0
LINE
  5
38D
100
AcDbEntity
  8
4
100
AcDbLine
 62
7
  6
BYLAYER
 10
537.7218319956
 20
1466.1691769842
 11
536.5153621894
 21
1466.1691769842
  0
LINE
  5
38E
100
AcDbEntity
  8
4
100
AcDbLine
 62
7
  6
BYLAYER
 10
525.7070807914
 20
1466.1691769842
 11
524.2218319956
 21
1466.1691769842
  0
LINE
  5
38F
100
AcDbEntity
  8
4
100
AcDbLine
 62
7
  6
BYLAYER
 10
528.4110527206
 20
1467.5957141646
 11
533.8110527206
 21
1467.5957141646
  0
LINE
  5
390
100
AcDbEntity
  8
3
100
AcDbLine
 62
7
  6
BYLAYER
 10
676.0601836091
 20
1467.5957141646
 11
681.4601836091
 21
1467.5957141646
  0
LINE
  5
391
100
AcDbEntity
  8
3
100
AcDbLine
 62
7
  6
BYLAYER
 10
681.4601836091
 20
1488.2426398038
 11
676.0601836091
 21
1488.2426398038
  0
LINE
  5
392
100
AcDbEntity
  8
4
100
AcDbLine
 62
7
  6
BYLAYER
 10
533.8110527206
 20
1488.2426398038
 11
528.4110527206
 21
1488.2426398038
  0
LINE
  5
393
100
AcDbEntity
  8
4
100
AcDbLine
 62
7
  6
BYLAYER
 10
524.2218319956
 20
1489.6691769842
 11
525.7067432518
 21
1489.6691769842
  0
LINE
  5
394
100
AcDbEntity
  8
4
100
AcDbLine
 62
7
  6
BYLAYER
 10
536.5150246498
 20
1489.6691769842
 11
537.7218319956
 21
1489.6691769842
  0
LINE
  5
395
100
AcDbEntity
  8
3
100
AcDbLine
 62
7
  6
BYLAYER
 10
671.8709628841
 20
1489.6691769842
 11
673.3558741403
 21
1489.6691769842
  0
LINE
  5
396
100
AcDbEntity
  8
3
100
AcDbLine
 62
7
  6
BYLAYER
 10
684.1641555383
 20
1489.6691769842
 11
685.3709628841
 21
1489.6691769842
  0
LINE
  5
397
100
AcDbEntity
  8
3
100
AcDbLine
 62
7
  6
BYLAYER
 10
685.3709628841
 20
1496.1691769842
 11
684.1644930779
 21
1496.1691769842
  0
LINE
  5
398
100
AcDbEntity
  8
3
100
AcDbLine
 62
7
  6
BYLAYER
 10
673.3562116799
 20
1496.1691769842
 11
671.8709628841
 21
1496.1691769842
  0
LINE
  5
399
100
AcDbEntity
  8
4
100
AcDbLine
 62
7
  6
BYLAYER
 10
537.7218319956
 20
1496.1691769842
 11
536.5153621894
 21
1496.1691769842
  0
LINE
  5
39A
100
AcDbEntity
  8
4
100
AcDbLine
 62
7
  6
BYLAYER
 10
525.7070807914
 20
1496.1691769842
 11
524.2218319956
 21
1496.1691769842
  0
LINE
  5
39B
100
AcDbEntity
  8
4
100
AcDbLine
 62
7
  6
BYLAYER
 10
528.4110527206
 20
1497.5957141646
 11
533.8110527206
 21
1497.5957141646
  0
LINE
  5
39C
100
AcDbEntity
  8
3
100
AcDbLine
 62
7
  6
BYLAYER
 10
676.0601836091
 20
1497.5957141646
 11
681.4601836091
 21
1497.5957141646
  0
LINE
  5
39D
100
AcDbEntity
  8
4
100
AcDbLine
 62
7
  6
BYLAYER
 10
495.9218319956
 20
1497.9191769842
 11
498.9218319956
 21
1497.9191769842
  0
LINE
  5
39E
100
AcDbEntity
  8
3
100
AcDbLine
 62
7
  6
BYLAYER
 10
643.5709628841
 20
1497.9191769842
 11
646.5709628841
 21
1497.9191769842
  0
LINE
  5
39F
100
AcDbEntity
  8
4
100
AcDbLine
 62
7
  6
BYLAYER
 10
495.9218319956
 20
1502.9191769842
 11
540.9218319956
 21
1502.9191769842
  0
LINE
  5
3A0
100
AcDbEntity
  8
3
100
AcDbLine
 62
7
  6
BYLAYER
 10
643.5709628841
 20
1502.9191769842
 11
688.5709628841
 21
1502.9191769842
  0
LINE
  5
3A1
100
AcDbEntity
  8
0
100
AcDbLine
 62
7
  6
BYLAYER
 10
506.110324911
 20
1527.7360994001
 11
556.110324911
 21
1527.7360994001
  0
LINE
  5
3A2
100
AcDbEntity
  8
3
100
AcDbLine
 62
7
  6
BYLAYER
 10
506.110577679
 20
1527.7361122086
 11
556.110577679
 21
1527.7361122086
  0
LINE
  5
3A3
100
AcDbEntity
  8
0
100
AcDbLine
 62
7
  6
BYLAYER
 10
653.7594557995
 20
1527.7360994001
 11
703.7594557995
 21
1527.7360994001
  0
LINE
  5
3A4
100
AcDbEntity
  8
3
100
AcDbLine
 62
7
  6
BYLAYER
 10
653.7597085675
 20
1527.7361122086
 11
703.7597085675
 21
1527.7361122086
  0
LINE
  5
3A5
100
AcDbEntity
  8
0
100
AcDbLine
 62
7
  6
BYLAYER
 10
695.7594557995
 20
1541.2360994001
 11
679.7594726135
 21
1541.2360994001
  0
LINE
  5
3A6
100
AcDbEntity
  8
0
100
AcDbLine
 62
7
  6
BYLAYER
 10
677.7594557995
 20
1541.2360994001
 11
661.7594726135
 21
1541.2360994001
  0
LINE
  5
3A7
100
AcDbEntity
  8
0
100
AcDbLine
 62
7
  6
BYLAYER
 10
548.110324911
 20
1541.2360994001
 11
532.110341725
 21
1541.2360994001
  0
LINE
  5
3A8
100
AcDbEntity
  8
0
100
AcDbLine
 62
7
  6
BYLAYER
 10
530.110324911
 20
1541.2360994001
 11
514.110341725
 21
1541.2360994001
  0
LINE
  5
3A9
100
AcDbEntity
  8
0
100
AcDbLine
 62
7
  6
BYLAYER
 10
695.6542467707
 20
1541.2472936511
 11
679.8646814212
 21
1541.2472936511
  0
LINE
  5
3AA
100
AcDbEntity
  8
0
100
AcDbLine
 62
7
  6
BYLAYER
 10
677.6542467707
 20
1541.2472936511
 11
661.8646814212
 21
1541.2472936511
  0
LINE
  5
3AB
100
AcDbEntity
  8
0
100
AcDbLine
 62
7
  6
BYLAYER
 10
548.0051158822
 20
1541.2472936511
 11
532.2155505327
 21
1541.2472936511
  0
LINE
  5
3AC
100
AcDbEntity
  8
0
100
AcDbLine
 62
7
  6
BYLAYER
 10
530.0051158822
 20
1541.2472936511
 11
514.2155505327
 21
1541.2472936511
  0
LINE
  5
3AD
100
AcDbEntity
  8
0
100
AcDbLine
 62
7
  6
BYLAYER
 10
514.0048302508
 20
1542.2248435834
 11
530.2158025356
 21
1542.2248435834
  0
LINE
  5
3AE
100
AcDbEntity
  8
0
100
AcDbLine
 62
7
  6
BYLAYER
 10
532.0050284264
 20
1542.2248863172
 11
548.2156043604
 21
1542.2248863172
  0
LINE
  5
3AF
100
AcDbEntity
  8
0
100
AcDbLine
 62
7
  6
BYLAYER
 10
661.6539611393
 20
1542.2248435834
 11
677.8649334241
 21
1542.2248435834
  0
LINE
  5
3B0
100
AcDbEntity
  8
0
100
AcDbLine
 62
7
  6
BYLAYER
 10
679.6541593149
 20
1542.2248863172
 11
695.864735249
 21
1542.2248863172
  0
LINE
  5
3B1
100
AcDbEntity
  8
0
100
AcDbLine
 62
7
  6
BYLAYER
 10
506.110324911
 20
1542.2360994001
 11
513.610324911
 21
1542.2360994001
  0
LINE
  5
3B2
100
AcDbEntity
  8
0
100
AcDbLine
 62
7
  6
BYLAYER
 10
548.610324911
 20
1542.2360994001
 11
556.110324911
 21
1542.2360994001
  0
LINE
  5
3B3
100
AcDbEntity
  8
0
100
AcDbLine
 62
7
  6
BYLAYER
 10
653.7594557995
 20
1542.2360994001
 11
661.2594557995
 21
1542.2360994001
  0
LINE
  5
3B4
100
AcDbEntity
  8
0
100
AcDbLine
 62
7
  6
BYLAYER
 10
696.2594557995
 20
1542.2360994001
 11
703.7594557995
 21
1542.2360994001
  0
LINE
  5
3B5
100
AcDbEntity
  8
0
100
AcDbLine
 62
7
  6
BYLAYER
 10
506.610324911
 20
1542.7360994001
 11
513.610324911
 21
1542.7360994001
  0
LINE
  5
3B6
100
AcDbEntity
  8
0
100
AcDbLine
 62
7
  6
BYLAYER
 10
548.610324911
 20
1542.7360994001
 11
555.610324911
 21
1542.7360994001
  0
LINE
  5
3B7
100
AcDbEntity
  8
0
100
AcDbLine
 62
7
  6
BYLAYER
 10
654.2594557995
 20
1542.7360994001
 11
661.2594557995
 21
1542.7360994001
  0
LINE
  5
3B8
100
AcDbEntity
  8
0
100
AcDbLine
 62
7
  6
BYLAYER
 10
696.2594557995
 20
1542.7360994001
 11
703.2594557995
 21
1542.7360994001
  0
LINE
  5
3B9
100
AcDbEntity
  8
0
100
AcDbLine
 62
7
  6
BYLAYER
 10
703.7594557995
 20
1543.236099469
 11
702.5594557995
 21
1543.2360994001
  0
LINE
  5
3BA
100
AcDbEntity
  8
0
100
AcDbLine
 62
7
  6
BYLAYER
 10
695.9594557995
 20
1543.2360994001
 11
694.7594557995
 21
1543.2360994691
  0
LINE
  5
3BB
100
AcDbEntity
  8
0
100
AcDbLine
 62
7
  6
BYLAYER
 10
662.7594557995
 20
1543.236099469
 11
661.5594557995
 21
1543.2360994001
  0
LINE
  5
3BC
100
AcDbEntity
  8
0
100
AcDbLine
 62
7
  6
BYLAYER
 10
654.9594557995
 20
1543.2360994001
 11
653.7594557995
 21
1543.2360994691
  0
LINE
  5
3BD
100
AcDbEntity
  8
0
100
AcDbLine
 62
7
  6
BYLAYER
 10
556.110324911
 20
1543.236099469
 11
554.910324911
 21
1543.2360994001
  0
LINE
  5
3BE
100
AcDbEntity
  8
0
100
AcDbLine
 62
7
  6
BYLAYER
 10
548.310324911
 20
1543.2360994001
 11
547.110324911
 21
1543.2360994691
  0
LINE
  5
3BF
100
AcDbEntity
  8
0
100
AcDbLine
 62
7
  6
BYLAYER
 10
515.110324911
 20
1543.236099469
 11
513.910324911
 21
1543.2360994001
  0
LINE
  5
3C0
100
AcDbEntity
  8
0
100
AcDbLine
 62
7
  6
BYLAYER
 10
507.310324911
 20
1543.2360994001
 11
506.110324911
 21
1543.2360994691
  0
LINE
  5
3C1
100
AcDbEntity
  8
0
100
AcDbLine
 62
7
  6
BYLAYER
 10
506.110324911
 20
1544.2360994001
 11
507.310324911
 21
1544.2360994001
  0
LINE
  5
3C2
100
AcDbEntity
  8
0
100
AcDbLine
 62
7
  6
BYLAYER
 10
513.910324911
 20
1544.2360994001
 11
527.110324911
 21
1544.2360993935
  0
LINE
  5
3C3
100
AcDbEntity
  8
0
100
AcDbLine
 62
7
  6
BYLAYER
 10
535.110324911
 20
1544.2360994001
 11
548.310324911
 21
1544.2360994001
  0
LINE
  5
3C4
100
AcDbEntity
  8
0
100
AcDbLine
 62
7
  6
BYLAYER
 10
554.910324911
 20
1544.2360994001
 11
556.110324911
 21
1544.2360994001
  0
LINE
  5
3C5
100
AcDbEntity
  8
0
100
AcDbLine
 62
7
  6
BYLAYER
 10
653.7594557995
 20
1544.2360994001
 11
654.9594557995
 21
1544.2360994001
  0
LINE
  5
3C6
100
AcDbEntity
  8
0
100
AcDbLine
 62
7
  6
BYLAYER
 10
661.5594557995
 20
1544.2360994001
 11
674.7594557995
 21
1544.2360993935
  0
LINE
  5
3C7
100
AcDbEntity
  8
0
100
AcDbLine
 62
7
  6
BYLAYER
 10
682.7594557995
 20
1544.2360994001
 11
695.9594557995
 21
1544.2360994001
  0
LINE
  5
3C8
100
AcDbEntity
  8
0
100
AcDbLine
 62
7
  6
BYLAYER
 10
702.5594557995
 20
1544.2360994001
 11
703.7594557995
 21
1544.2360994001
  0
LINE
  5
3C9
100
AcDbEntity
  8
0
100
AcDbLine
 62
7
  6
BYLAYER
 10
507.310324911
 20
1544.3360994001
 11
513.910324911
 21
1544.3360994001
  0
LINE
  5
3CA
100
AcDbEntity
  8
0
100
AcDbLine
 62
7
  6
BYLAYER
 10
548.310324911
 20
1544.3360994001
 11
554.910324911
 21
1544.3360994001
  0
LINE
  5
3CB
100
AcDbEntity
  8
0
100
AcDbLine
 62
7
  6
BYLAYER
 10
654.9594557995
 20
1544.3360994001
 11
661.5594557995
 21
1544.3360994001
  0
LINE
  5
3CC
100
AcDbEntity
  8
0
100
AcDbLine
 62
7
  6
BYLAYER
 10
695.9594557995
 20
1544.3360994001
 11
702.5594557995
 21
1544.3360994001
  0
LINE
  5
3CD
100
AcDbEntity
  8
0
100
AcDbLine
 62
7
  6
BYLAYER
 10
526.9688767308
 20
1544.7360994001
 11
535.2508085652
 21
1544.7360994001
  0
LINE
  5
3CE
100
AcDbEntity
  8
0
100
AcDbLine
 62
7
  6
BYLAYER
 10
674.6180076193
 20
1544.7360994001
 11
682.8999394538
 21
1544.7360994001
  0
LINE
  5
3CF
100
AcDbEntity
  8
0
100
AcDbLine
 62
7
  6
BYLAYER
 10
702.7594557995
 20
1545.2360994001
 11
701.932661003
 21
1545.2360994001
  0
LINE
  5
3D0
100
AcDbEntity
  8
0
100
AcDbLine
 62
7
  6
BYLAYER
 10
655.5862505961
 20
1545.2360994001
 11
654.7594557995
 21
1545.2360994001
  0
LINE
  5
3D1
100
AcDbEntity
  8
0
100
AcDbLine
 62
7
  6
BYLAYER
 10
555.110324911
 20
1545.2360994001
 11
554.2835301145
 21
1545.2360994001
  0
LINE
  5
3D2
100
AcDbEntity
  8
0
100
AcDbLine
 62
7
  6
BYLAYER
 10
507.9371197075
 20
1545.2360994001
 11
507.110324911
 21
1545.2360994001
  0
LINE
  5
3D3
100
AcDbEntity
  8
0
100
AcDbLine
 62
7
  6
BYLAYER
 10
513.2835301145
 20
1545.2360994001
 11
548.9371197075
 21
1545.2360994001
  0
LINE
  5
3D4
100
AcDbEntity
  8
0
100
AcDbLine
 62
7
  6
BYLAYER
 10
660.932661003
 20
1545.2360994001
 11
696.5862505961
 21
1545.2360994001
  0
LINE
  5
3D5
100
AcDbEntity
  8
0
100
AcDbLine
 62
7
  6
BYLAYER
 10
507.3103251577
 20
1545.3360994001
 11
512.910223485
 21
1545.3360994001
  0
LINE
  5
3D6
100
AcDbEntity
  8
0
100
AcDbLine
 62
7
  6
BYLAYER
 10
549.3103251577
 20
1545.3360994001
 11
554.910223485
 21
1545.3360994001
  0
LINE
  5
3D7
100
AcDbEntity
  8
0
100
AcDbLine
 62
7
  6
BYLAYER
 10
654.9594560462
 20
1545.3360994001
 11
660.5593543735
 21
1545.3360994001
  0
LINE
  5
3D8
100
AcDbEntity
  8
0
100
AcDbLine
 62
7
  6
BYLAYER
 10
696.9594560462
 20
1545.3360994001
 11
702.5593543735
 21
1545.3360994001
  0
LINE
  5
3D9
100
AcDbEntity
  8
0
100
AcDbLine
 62
7
  6
BYLAYER
 10
695.5094557995
 20
1546.7360994001
 11
680.0094557995
 21
1546.7360994001
  0
LINE
  5
3DA
100
AcDbEntity
  8
0
100
AcDbLine
 62
7
  6
BYLAYER
 10
677.5094557995
 20
1546.7360994001
 11
662.0094557995
 21
1546.7360994001
  0
LINE
  5
3DB
100
AcDbEntity
  8
0
100
AcDbLine
 62
7
  6
BYLAYER
 10
547.860324911
 20
1546.7360994001
 11
532.360324911
 21
1546.7360994001
  0
LINE
  5
3DC
100
AcDbEntity
  8
0
100
AcDbLine
 62
7
  6
BYLAYER
 10
529.860324911
 20
1546.7360994001
 11
514.360324911
 21
1546.7360994001
  0
LINE
  5
3DD
100
AcDbEntity
  8
0
100
AcDbLine
 62
7
  6
BYLAYER
 10
695.5094515167
 20
1549.7360994001
 11
680.0094600824
 21
1549.7360994001
  0
LINE
  5
3DE
100
AcDbEntity
  8
0
100
AcDbLine
 62
7
  6
BYLAYER
 10
677.5094515167
 20
1549.7360994001
 11
662.0094600824
 21
1549.7360994001
  0
LINE
  5
3DF
100
AcDbEntity
  8
0
100
AcDbLine
 62
7
  6
BYLAYER
 10
547.8603206282
 20
1549.7360994001
 11
532.3603291938
 21
1549.7360994001
  0
LINE
  5
3E0
100
AcDbEntity
  8
0
100
AcDbLine
 62
7
  6
BYLAYER
 10
529.8603206282
 20
1549.7360994001
 11
514.3603291938
 21
1549.7360994001
  0
LINE
  5
3E1
100
AcDbEntity
  8
0
100
AcDbLine
 62
7
  6
BYLAYER
 10
514.360324911
 20
1551.2360994001
 11
529.860324911
 21
1551.2360994001
  0
LINE
  5
3E2
100
AcDbEntity
  8
0
100
AcDbLine
 62
7
  6
BYLAYER
 10
532.360324911
 20
1551.2360994001
 11
547.860324911
 21
1551.2360994001
  0
LINE
  5
3E3
100
AcDbEntity
  8
0
100
AcDbLine
 62
7
  6
BYLAYER
 10
662.0094557995
 20
1551.2360994001
 11
677.5094557995
 21
1551.2360994001
  0
LINE
  5
3E4
100
AcDbEntity
  8
0
100
AcDbLine
 62
7
  6
BYLAYER
 10
680.0094557995
 20
1551.2360994001
 11
695.5094557995
 21
1551.2360994001
  0
LINE
  5
3E5
100
AcDbEntity
  8
0
100
AcDbLine
 62
7
  6
BYLAYER
 10
514.8603289138
 20
1551.7360994001
 11
529.3603209082
 21
1551.7360994001
  0
LINE
  5
3E6
100
AcDbEntity
  8
0
100
AcDbLine
 62
7
  6
BYLAYER
 10
532.8603289138
 20
1551.7360994001
 11
547.3603209082
 21
1551.7360994001
  0
LINE
  5
3E7
100
AcDbEntity
  8
0
100
AcDbLine
 62
7
  6
BYLAYER
 10
662.5094598023
 20
1551.7360994001
 11
677.0094517968
 21
1551.7360994001
  0
LINE
  5
3E8
100
AcDbEntity
  8
0
100
AcDbLine
 62
7
  6
BYLAYER
 10
680.5094598023
 20
1551.7360994001
 11
695.0094517968
 21
1551.7360994001
  0
LINE
  5
3E9
100
AcDbEntity
  8
0
100
AcDbLine
 62
7
  6
BYLAYER
 10
517.986104911
 20
1552.9360994001
 11
526.236104911
 21
1552.9360994001
  0
LINE
  5
3EA
100
AcDbEntity
  8
0
100
AcDbLine
 62
7
  6
BYLAYER
 10
535.987084911
 20
1552.9360994001
 11
544.237084911
 21
1552.9360994001
  0
LINE
  5
3EB
100
AcDbEntity
  8
0
100
AcDbLine
 62
7
  6
BYLAYER
 10
665.6352357995
 20
1552.9360994001
 11
673.8852357995
 21
1552.9360994001
  0
LINE
  5
3EC
100
AcDbEntity
  8
0
100
AcDbLine
 62
7
  6
BYLAYER
 10
683.6362157995
 20
1552.9360994001
 11
691.8862157995
 21
1552.9360994001
  0
LINE
  5
3ED
100
AcDbEntity
  8
0
100
AcDbLine
 62
7
  6
BYLAYER
 10
518.2861923871
 20
1553.2360994001
 11
525.9361235282
 21
1553.2360994001
  0
LINE
  5
3EE
100
AcDbEntity
  8
0
100
AcDbLine
 62
7
  6
BYLAYER
 10
536.2870245431
 20
1553.2360994001
 11
543.9371068023
 21
1553.2360994001
  0
LINE
  5
3EF
100
AcDbEntity
  8
0
100
AcDbLine
 62
7
  6
BYLAYER
 10
665.9353232756
 20
1553.2360994001
 11
673.5852544167
 21
1553.2360994001
  0
LINE
  5
3F0
100
AcDbEntity
  8
0
100
AcDbLine
 62
7
  6
BYLAYER
 10
683.9361554316
 20
1553.2360994001
 11
691.5862376909
 21
1553.2360994001
  0
LINE
  5
3F1
100
AcDbEntity
  8
0
100
AcDbLine
 62
7
  6
BYLAYER
 10
516.110324911
 20
1555.2360984627
 11
528.110324911
 21
1555.2360984627
  0
LINE
  5
3F2
100
AcDbEntity
  8
0
100
AcDbLine
 62
7
  6
BYLAYER
 10
663.7594557995
 20
1555.2360984627
 11
675.7594557995
 21
1555.2360984627
  0
LINE
  5
3F3
100
AcDbEntity
  8
0
100
AcDbLine
 62
7
  6
BYLAYER
 10
516.6103302124
 20
1555.7360994001
 11
527.6103254753
 21
1555.7360994001
  0
LINE
  5
3F4
100
AcDbEntity
  8
0
100
AcDbLine
 62
7
  6
BYLAYER
 10
664.2594611009
 20
1555.7360994001
 11
675.2594563638
 21
1555.7360994001
  0
ARC
  5
3F5
100
AcDbEntity
  8
4
100
AcDbCircle
 62
7
  6
BYLAYER
 10
524.2218319956
 20
166.5842745234
 40
3.25
100
AcDbArc
 50
90.0
 51
270.0
  0
ARC
  5
3F6
100
AcDbEntity
  8
4
100
AcDbCircle
 62
7
  6
BYLAYER
 10
524.2218319956
 20
196.5842745234
 40
3.25
100
AcDbArc
 50
90.0
 51
270.0
  0
ARC
  5
3F7
100
AcDbEntity
  8
0
100
AcDbCircle
 62
7
  6
BYLAYER
 10
507.3105776821
 20
112.6360994001
 40
1.0
100
AcDbArc
 50
234.2503109337
 51
270.0
  0
ARC
  5
3F8
100
AcDbEntity
  8
0
100
AcDbCircle
 62
7
  6
BYLAYER
 10
512.9110527221
 20
112.6360994001
 40
1.0
100
AcDbArc
 50
270.0
 51
360.0
  0
ARC
  5
3F9
100
AcDbEntity
  8
0
100
AcDbCircle
 62
7
  6
BYLAYER
 10
508.3110527221
 20
112.6360994001
 40
1.0
100
AcDbArc
 50
180.0
 51
270.0
  0
ARC
  5
3FA
100
AcDbEntity
  8
0
100
AcDbCircle
 62
7
  6
BYLAYER
 10
515.1110527221
 20
112.7359892616
 40
1.0
100
AcDbArc
 50
180.0
 51
270.0
  0
ARC
  5
3FB
100
AcDbEntity
  8
0
100
AcDbCircle
 62
7
  6
BYLAYER
 10
507.1110527221
 20
112.7359892616
 40
1.0
100
AcDbArc
 50
179.9999999999
 51
270.0
  0
ARC
  5
3FC
100
AcDbEntity
  8
0
100
AcDbCircle
 62
7
  6
BYLAYER
 10
526.1110527221
 20
112.7359892616
 40
1.0
100
AcDbArc
 50
270.0
 51
360.0
  0
ARC
  5
3FD
100
AcDbEntity
  8
0
100
AcDbCircle
 62
7
  6
BYLAYER
 10
506.6110527221
 20
114.7359892616
 40
0.5
100
AcDbArc
 50
180.0
 51
270.0
  0
ARC
  5
3FE
100
AcDbEntity
  8
0
100
AcDbCircle
 62
7
  6
BYLAYER
 10
513.6110527221
 20
113.7359892616
 40
0.5
100
AcDbArc
 50
0.0
 51
90.0
  0
ARC
  5
3FF
100
AcDbEntity
  8
4
100
AcDbCircle
 62
7
  6
BYLAYER
 10
524.2218319956
 20
813.8684153631
 40
3.25
100
AcDbArc
 50
90.0
 51
270.0
  0
ARC
  5
400
100
AcDbEntity
  8
0
100
AcDbCircle
 62
7
  6
BYLAYER
 10
536.1110527221
 20
112.7359892616
 40
1.0
100
AcDbArc
 50
179.9999999984
 51
270.0
  0
CIRCLE
  5
401
100
AcDbEntity
  8
4
100
AcDbCircle
 62
7
  6
BYLAYER
 10
531.1110527206
 20
166.5842745234
 40
6.3525
  0
CIRCLE
  5
402
100
AcDbEntity
  8
4
100
AcDbCircle
 62
7
  6
BYLAYER
 10
531.1110527206
 20
196.5842745234
 40
6.3525
  0
ARC
  5
403
100
AcDbEntity
  8
4
100
AcDbCircle
 62
7
  6
BYLAYER
 10
540.9218319956
 20
161.5842745234
 40
5.0
100
AcDbArc
 50
270.0
 51
360.0
  0
ARC
  5
404
100
AcDbEntity
  8
4
100
AcDbCircle
 62
7
  6
BYLAYER
 10
540.9218319956
 20
201.5842745234
 40
5.0
100
AcDbArc
 50
0.0
 51
90.0
  0
ARC
  5
405
100
AcDbEntity
  8
4
100
AcDbCircle
 62
7
  6
BYLAYER
 10
537.7218319956
 20
166.5842745234
 40
3.25
100
AcDbArc
 50
270.0
 51
90.0
  0
ARC
  5
406
100
AcDbEntity
  8
4
100
AcDbCircle
 62
7
  6
BYLAYER
 10
537.7218319956
 20
196.5842745234
 40
3.25
100
AcDbArc
 50
270.0
 51
90.0
  0
CIRCLE
  5
407
100
AcDbEntity
  8
4
100
AcDbCircle
 62
7
  6
BYLAYER
 10
531.1110527206
 20
166.5842745234
 40
3.0
  0
CIRCLE
  5
408
100
AcDbEntity
  8
4
100
AcDbCircle
 62
7
  6
BYLAYER
 10
531.1110527206
 20
196.5842745234
 40
3.0
  0
ARC
  5
409
100
AcDbEntity
  8
0
100
AcDbCircle
 62
7
  6
BYLAYER
 10
554.9105776791
 20
112.6360994001
 40
1.0
100
AcDbArc
 50
270.0
 51
305.7190868301
  0
ARC
  5
40A
100
AcDbEntity
  8
0
100
AcDbCircle
 62
7
  6
BYLAYER
 10
553.9110527192
 20
112.6360994001
 40
1.0
100
AcDbArc
 50
270.0
 51
360.0
  0
ARC
  5
40B
100
AcDbEntity
  8
0
100
AcDbCircle
 62
7
  6
BYLAYER
 10
549.3110527192
 20
112.6360994001
 40
1.0
100
AcDbArc
 50
180.0
 51
270.0
  0
ARC
  5
40C
100
AcDbEntity
  8
0
100
AcDbCircle
 62
7
  6
BYLAYER
 10
547.1110527221
 20
112.7359892616
 40
1.0
100
AcDbArc
 50
270.0
 51
360.0
  0
ARC
  5
40D
100
AcDbEntity
  8
0
100
AcDbCircle
 62
7
  6
BYLAYER
 10
555.1110527221
 20
112.7359892616
 40
1.0
100
AcDbArc
 50
270.0
 51
360.0
  0
ARC
  5
40E
100
AcDbEntity
  8
0
100
AcDbCircle
 62
7
  6
BYLAYER
 10
548.6110527221
 20
113.7359892616
 40
0.5
100
AcDbArc
 50
90.0
 51
180.0
  0
ARC
  5
40F
100
AcDbEntity
  8
0
100
AcDbCircle
 62
7
  6
BYLAYER
 10
555.6110527221
 20
114.7359892616
 40
0.5
100
AcDbArc
 50
270.0
 51
360.0
  0
CIRCLE
  5
410
100
AcDbEntity
  8
4
100
AcDbCircle
 62
7
  6
BYLAYER
 10
531.1110527206
 20
813.8684153631
 40
6.3525
  0
ARC
  5
411
100
AcDbEntity
  8
4
100
AcDbCircle
 62
7
  6
BYLAYER
 10
540.9218319956
 20
808.8684153631
 40
5.0
100
AcDbArc
 50
270.0
 51
360.0
  0
ARC
  5
412
100
AcDbEntity
  8
4
100
AcDbCircle
 62
7
  6
BYLAYER
 10
537.7218319956
 20
813.8684153631
 40
3.25
100
AcDbArc
 50
270.0
 51
90.0
  0
CIRCLE
  5
413
100
AcDbEntity
  8
4
100
AcDbCircle
 62
7
  6
BYLAYER
 10
531.1110527206
 20
813.8684153631
 40
3.0
  0
ARC
  5
414
100
AcDbEntity
  8
4
100
AcDbCircle
 62
7
  6
BYLAYER
 10
524.2218319956
 20
843.8684153631
 40
3.25
100
AcDbArc
 50
90.0
 51
270.0
  0
ARC
  5
415
100
AcDbEntity
  8
0
100
AcDbCircle
 62
7
  6
BYLAYER
 10
507.310324911
 20
1544.3360994001
 40
1.0
100
AcDbArc
 50
90.0
 51
125.746880854
  0
ARC
  5
416
100
AcDbEntity
  8
0
100
AcDbCircle
 62
7
  6
BYLAYER
 10
508.310324911
 20
1544.3360994001
 40
1.0
100
AcDbArc
 50
90.0
 51
180.0
  0
ARC
  5
417
100
AcDbEntity
  8
0
100
AcDbCircle
 62
7
  6
BYLAYER
 10
512.910324911
 20
1544.3360994001
 40
1.0
100
AcDbArc
 50
0.0
 51
90.0
  0
ARC
  5
418
100
AcDbEntity
  8
0
100
AcDbCircle
 62
7
  6
BYLAYER
 10
507.110324911
 20
1544.2360994001
 40
1.0
100
AcDbArc
 50
90.0
 51
180.0
  0
ARC
  5
419
100
AcDbEntity
  8
0
100
AcDbCircle
 62
7
  6
BYLAYER
 10
515.110324911
 20
1544.2360994001
 40
1.0
100
AcDbArc
 50
90.0
 51
180.0
  0
ARC
  5
41A
100
AcDbEntity
  8
0
100
AcDbCircle
 62
7
  6
BYLAYER
 10
513.610324911
 20
1543.2360994001
 40
0.5
100
AcDbArc
 50
270.0
 51
360.0
  0
ARC
  5
41B
100
AcDbEntity
  8
0
100
AcDbCircle
 62
7
  6
BYLAYER
 10
506.610324911
 20
1542.2360994001
 40
0.5
100
AcDbArc
 50
90.0
 51
180.0
  0
ARC
  5
41C
100
AcDbEntity
  8
0
100
AcDbCircle
 62
7
  6
BYLAYER
 10
514.1103425729
 20
1541.7360995831
 40
0.4999999532
100
AcDbArc
 50
102.1804098123
 51
282.180210997
  0
ARC
  5
41D
100
AcDbEntity
  8
0
100
AcDbCircle
 62
7
  6
BYLAYER
 10
518.286104911
 20
1552.9360994001
 40
0.3
100
AcDbArc
 50
90.0
 51
180.0
  0
ARC
  5
41E
100
AcDbEntity
  8
4
100
AcDbCircle
 62
7
  6
BYLAYER
 10
524.2218319956
 20
1462.9191769842
 40
3.25
100
AcDbArc
 50
90.0
 51
270.0
  0
ARC
  5
41F
100
AcDbEntity
  8
4
100
AcDbCircle
 62
7
  6
BYLAYER
 10
524.2218319956
 20
1492.9191769842
 40
3.25
100
AcDbArc
 50
90.0
 51
270.0
  0
ARC
  5
420
100
AcDbEntity
  8
0
100
AcDbCircle
 62
7
  6
BYLAYER
 10
526.110324911
 20
1544.2360994001
 40
1.0
100
AcDbArc
 50
0.0
 51
90.0
  0
ARC
  5
421
100
AcDbEntity
  8
0
100
AcDbCircle
 62
7
  6
BYLAYER
 10
530.1103072491
 20
1541.7360995831
 40
0.4999999532
100
AcDbArc
 50
257.819789003
 51
77.8195901877
  0
ARC
  5
422
100
AcDbEntity
  8
0
100
AcDbCircle
 62
7
  6
BYLAYER
 10
525.936104911
 20
1552.9360994001
 40
0.3
100
AcDbArc
 50
0.0
 51
90.0
  0
CIRCLE
  5
423
100
AcDbEntity
  8
4
100
AcDbCircle
 62
7
  6
BYLAYER
 10
531.1110527206
 20
843.8684153631
 40
6.3525
  0
ARC
  5
424
100
AcDbEntity
  8
4
100
AcDbCircle
 62
7
  6
BYLAYER
 10
540.9218319956
 20
848.8684153631
 40
5.0
100
AcDbArc
 50
0.0
 51
90.0
  0
ARC
  5
425
100
AcDbEntity
  8
4
100
AcDbCircle
 62
7
  6
BYLAYER
 10
537.7218319956
 20
843.8684153631
 40
3.25
100
AcDbArc
 50
270.0
 51
90.0
  0
CIRCLE
  5
426
100
AcDbEntity
  8
4
100
AcDbCircle
 62
7
  6
BYLAYER
 10
531.1110527206
 20
843.8684153631
 40
3.0
  0
CIRCLE
  5
427
100
AcDbEntity
  8
4
100
AcDbCircle
 62
7
  6
BYLAYER
 10
531.1110527206
 20
1462.9191769842
 40
6.3525
  0
CIRCLE
  5
428
100
AcDbEntity
  8
4
100
AcDbCircle
 62
7
  6
BYLAYER
 10
531.1110527206
 20
1492.9191769842
 40
6.3525
  0
ARC
  5
429
100
AcDbEntity
  8
4
100
AcDbCircle
 62
7
  6
BYLAYER
 10
540.9218319956
 20
1457.9191769842
 40
5.0
100
AcDbArc
 50
270.0
 51
360.0
  0
ARC
  5
42A
100
AcDbEntity
  8
4
100
AcDbCircle
 62
7
  6
BYLAYER
 10
540.9218319956
 20
1497.9191769842
 40
5.0
100
AcDbArc
 50
0.0
 51
90.0
  0
ARC
  5
42B
100
AcDbEntity
  8
4
100
AcDbCircle
 62
7
  6
BYLAYER
 10
537.7218319956
 20
1462.9191769842
 40
3.25
100
AcDbArc
 50
270.0
 51
90.0
  0
ARC
  5
42C
100
AcDbEntity
  8
4
100
AcDbCircle
 62
7
  6
BYLAYER
 10
537.7218319956
 20
1492.9191769842
 40
3.25
100
AcDbArc
 50
270.0
 51
90.0
  0
CIRCLE
  5
42D
100
AcDbEntity
  8
4
100
AcDbCircle
 62
7
  6
BYLAYER
 10
531.1110527206
 20
1462.9191769842
 40
3.0
  0
CIRCLE
  5
42E
100
AcDbEntity
  8
4
100
AcDbCircle
 62
7
  6
BYLAYER
 10
531.1110527206
 20
1492.9191769842
 40
3.0
  0
ARC
  5
42F
100
AcDbEntity
  8
0
100
AcDbCircle
 62
7
  6
BYLAYER
 10
536.110324911
 20
1544.2360994001
 40
1.0
100
AcDbArc
 50
90.0
 51
180.0000000008
  0
ARC
  5
430
100
AcDbEntity
  8
0
100
AcDbCircle
 62
7
  6
BYLAYER
 10
532.1103425735
 20
1541.7360995829
 40
0.4999999534
100
AcDbArc
 50
102.1571786862
 51
282.1569797606
  0
ARC
  5
431
100
AcDbEntity
  8
0
100
AcDbCircle
 62
7
  6
BYLAYER
 10
536.287084911
 20
1552.9360994001
 40
0.3
100
AcDbArc
 50
90.0
 51
180.0
  0
ARC
  5
432
100
AcDbEntity
  8
0
100
AcDbCircle
 62
7
  6
BYLAYER
 10
554.910324911
 20
1544.3360994001
 40
1.0
100
AcDbArc
 50
54.2529864704
 51
90.0
  0
ARC
  5
433
100
AcDbEntity
  8
0
100
AcDbCircle
 62
7
  6
BYLAYER
 10
549.310324911
 20
1544.3360994001
 40
1.0
100
AcDbArc
 50
90.0
 51
180.0
  0
ARC
  5
434
100
AcDbEntity
  8
0
100
AcDbCircle
 62
7
  6
BYLAYER
 10
553.910324911
 20
1544.3360994001
 40
1.0
100
AcDbArc
 50
0.0
 51
90.0
  0
ARC
  5
435
100
AcDbEntity
  8
0
100
AcDbCircle
 62
7
  6
BYLAYER
 10
547.110324911
 20
1544.2360994001
 40
1.0
100
AcDbArc
 50
0.0
 51
90.0
  0
ARC
  5
436
100
AcDbEntity
  8
0
100
AcDbCircle
 62
7
  6
BYLAYER
 10
555.110324911
 20
1544.2360994001
 40
1.0
100
AcDbArc
 50
0.0
 51
90.0
  0
ARC
  5
437
100
AcDbEntity
  8
0
100
AcDbCircle
 62
7
  6
BYLAYER
 10
555.610324911
 20
1542.2360994001
 40
0.5
100
AcDbArc
 50
0.0
 51
90.0
  0
ARC
  5
438
100
AcDbEntity
  8
0
100
AcDbCircle
 62
7
  6
BYLAYER
 10
548.610324911
 20
1543.2360994001
 40
0.5
100
AcDbArc
 50
180.0
 51
270.0
  0
ARC
  5
439
100
AcDbEntity
  8
0
100
AcDbCircle
 62
7
  6
BYLAYER
 10
548.1103072486
 20
1541.7360995829
 40
0.4999999534
100
AcDbArc
 50
257.8430202394
 51
77.8428213138
  0
ARC
  5
43A
100
AcDbEntity
  8
0
100
AcDbCircle
 62
7
  6
BYLAYER
 10
543.937084911
 20
1552.9360994001
 40
0.3
100
AcDbArc
 50
0.0
 51
90.0
  0
ARC
  5
43B
100
AcDbEntity
  8
4
100
AcDbCircle
 62
7
  6
BYLAYER
 10
671.8711269897
 20
166.5843974703
 40
3.25
100
AcDbArc
 50
90.0
 51
270.0
  0
ARC
  5
43C
100
AcDbEntity
  8
4
100
AcDbCircle
 62
7
  6
BYLAYER
 10
671.8711269897
 20
196.5843974703
 40
3.25
100
AcDbArc
 50
90.0
 51
270.0
  0
ARC
  5
43D
100
AcDbEntity
  8
0
100
AcDbCircle
 62
7
  6
BYLAYER
 10
654.9597085706
 20
112.6360994001
 40
1.0
100
AcDbArc
 50
234.2503109337
 51
270.0
  0
ARC
  5
43E
100
AcDbEntity
  8
0
100
AcDbCircle
 62
7
  6
BYLAYER
 10
660.5601836106
 20
112.6360994001
 40
1.0
100
AcDbArc
 50
270.0
 51
360.0
  0
ARC
  5
43F
100
AcDbEntity
  8
0
100
AcDbCircle
 62
7
  6
BYLAYER
 10
655.9601836106
 20
112.6360994001
 40
1.0
100
AcDbArc
 50
180.0
 51
270.0
  0
ARC
  5
440
100
AcDbEntity
  8
0
100
AcDbCircle
 62
7
  6
BYLAYER
 10
662.7601836106
 20
112.7359892616
 40
1.0
100
AcDbArc
 50
180.0
 51
270.0
  0
ARC
  5
441
100
AcDbEntity
  8
0
100
AcDbCircle
 62
7
  6
BYLAYER
 10
654.7601836106
 20
112.7359892616
 40
1.0
100
AcDbArc
 50
179.9999999999
 51
270.0
  0
ARC
  5
442
100
AcDbEntity
  8
0
100
AcDbCircle
 62
7
  6
BYLAYER
 10
673.7601836106
 20
112.7359892616
 40
1.0
100
AcDbArc
 50
270.0
 51
360.0
  0
ARC
  5
443
100
AcDbEntity
  8
0
100
AcDbCircle
 62
7
  6
BYLAYER
 10
654.2601836106
 20
114.7359892616
 40
0.5
100
AcDbArc
 50
180.0
 51
270.0
  0
ARC
  5
444
100
AcDbEntity
  8
0
100
AcDbCircle
 62
7
  6
BYLAYER
 10
661.2601836106
 20
113.7359892616
 40
0.5
100
AcDbArc
 50
0.0
 51
90.0
  0
ARC
  5
445
100
AcDbEntity
  8
3
100
AcDbCircle
 62
7
  6
BYLAYER
 10
671.8709628841
 20
813.8684153631
 40
3.25
100
AcDbArc
 50
90.0
 51
270.0
  0
ARC
  5
446
100
AcDbEntity
  8
0
100
AcDbCircle
 62
7
  6
BYLAYER
 10
683.7601836106
 20
112.7359892616
 40
1.0
100
AcDbArc
 50
179.9999999984
 51
270.0
  0
CIRCLE
  5
447
100
AcDbEntity
  8
4
100
AcDbCircle
 62
7
  6
BYLAYER
 10
678.7603477148
 20
166.5843974703
 40
6.3525
  0
CIRCLE
  5
448
100
AcDbEntity
  8
3
100
AcDbCircle
 62
7
  6
BYLAYER
 10
678.7601836091
 20
166.5842745234
 40
6.3525
  0
CIRCLE
  5
449
100
AcDbEntity
  8
4
100
AcDbCircle
 62
7
  6
BYLAYER
 10
678.7603477148
 20
166.5843974703
 40
3.0
  0
CIRCLE
  5
44A
100
AcDbEntity
  8
3
100
AcDbCircle
 62
7
  6
BYLAYER
 10
678.7601836091
 20
166.5842745234
 40
3.0
  0
CIRCLE
  5
44B
100
AcDbEntity
  8
4
100
AcDbCircle
 62
7
  6
BYLAYER
 10
678.7603477148
 20
196.5843974703
 40
6.3525
  0
CIRCLE
  5
44C
100
AcDbEntity
  8
3
100
AcDbCircle
 62
7
  6
BYLAYER
 10
678.7601836091
 20
196.5842745234
 40
6.3525
  0
CIRCLE
  5
44D
100
AcDbEntity
  8
4
100
AcDbCircle
 62
7
  6
BYLAYER
 10
678.7603477148
 20
196.5843974703
 40
3.0
  0
CIRCLE
  5
44E
100
AcDbEntity
  8
3
100
AcDbCircle
 62
7
  6
BYLAYER
 10
678.7601836091
 20
196.5842745234
 40
3.0
  0
ARC
  5
44F
100
AcDbEntity
  8
4
100
AcDbCircle
 62
7
  6
BYLAYER
 10
688.5711269897
 20
161.5843974703
 40
5.0
100
AcDbArc
 50
270.0
 51
360.0
  0
ARC
  5
450
100
AcDbEntity
  8
4
100
AcDbCircle
 62
7
  6
BYLAYER
 10
685.3711269897
 20
166.5843974703
 40
3.25
100
AcDbArc
 50
270.0
 51
90.0
  0
ARC
  5
451
100
AcDbEntity
  8
4
100
AcDbCircle
 62
7
  6
BYLAYER
 10
688.5711269897
 20
201.5843974703
 40
5.0
100
AcDbArc
 50
0.0
 51
90.0
  0
ARC
  5
452
100
AcDbEntity
  8
4
100
AcDbCircle
 62
7
  6
BYLAYER
 10
685.3711269897
 20
196.5843974703
 40
3.25
100
AcDbArc
 50
270.0
 51
90.0
  0
ARC
  5
453
100
AcDbEntity
  8
0
100
AcDbCircle
 62
7
  6
BYLAYER
 10
702.5597085676
 20
112.6360994001
 40
1.0
100
AcDbArc
 50
270.0
 51
305.7190868301
  0
ARC
  5
454
100
AcDbEntity
  8
0
100
AcDbCircle
 62
7
  6
BYLAYER
 10
701.5601836077
 20
112.6360994001
 40
1.0
100
AcDbArc
 50
270.0
 51
360.0
  0
ARC
  5
455
100
AcDbEntity
  8
0
100
AcDbCircle
 62
7
  6
BYLAYER
 10
696.9601836077
 20
112.6360994001
 40
1.0
100
AcDbArc
 50
180.0
 51
270.0
  0
ARC
  5
456
100
AcDbEntity
  8
0
100
AcDbCircle
 62
7
  6
BYLAYER
 10
694.7601836106
 20
112.7359892616
 40
1.0
100
AcDbArc
 50
270.0
 51
360.0
  0
ARC
  5
457
100
AcDbEntity
  8
0
100
AcDbCircle
 62
7
  6
BYLAYER
 10
702.7601836106
 20
112.7359892616
 40
1.0
100
AcDbArc
 50
270.0
 51
360.0
  0
ARC
  5
458
100
AcDbEntity
  8
0
100
AcDbCircle
 62
7
  6
BYLAYER
 10
696.2601836106
 20
113.7359892616
 40
0.5
100
AcDbArc
 50
90.0
 51
180.0
  0
ARC
  5
459
100
AcDbEntity
  8
0
100
AcDbCircle
 62
7
  6
BYLAYER
 10
703.2601836106
 20
114.7359892616
 40
0.5
100
AcDbArc
 50
270.0
 51
360.0
  0
CIRCLE
  5
45A
100
AcDbEntity
  8
3
100
AcDbCircle
 62
7
  6
BYLAYER
 10
678.7601836091
 20
813.8684153631
 40
6.3525
  0
ARC
  5
45B
100
AcDbEntity
  8
3
100
AcDbCircle
 62
7
  6
BYLAYER
 10
688.5709628841
 20
808.8684153631
 40
5.0
100
AcDbArc
 50
270.0
 51
360.0
  0
ARC
  5
45C
100
AcDbEntity
  8
3
100
AcDbCircle
 62
7
  6
BYLAYER
 10
685.3709628841
 20
813.8684153631
 40
3.25
100
AcDbArc
 50
270.0
 51
90.0
  0
CIRCLE
  5
45D
100
AcDbEntity
  8
3
100
AcDbCircle
 62
7
  6
BYLAYER
 10
678.7601836091
 20
813.8684153631
 40
3.0
  0
ARC
  5
45E
100
AcDbEntity
  8
3
100
AcDbCircle
 62
7
  6
BYLAYER
 10
671.8709628841
 20
843.8684153631
 40
3.25
100
AcDbArc
 50
90.0
 51
270.0
  0
ARC
  5
45F
100
AcDbEntity
  8
0
100
AcDbCircle
 62
7
  6
BYLAYER
 10
654.9594557995
 20
1544.3360994001
 40
1.0
100
AcDbArc
 50
90.0
 51
125.746880854
  0
ARC
  5
460
100
AcDbEntity
  8
0
100
AcDbCircle
 62
7
  6
BYLAYER
 10
655.9594557995
 20
1544.3360994001
 40
1.0
100
AcDbArc
 50
90.0
 51
180.0
  0
ARC
  5
461
100
AcDbEntity
  8
0
100
AcDbCircle
 62
7
  6
BYLAYER
 10
660.5594557995
 20
1544.3360994001
 40
1.0
100
AcDbArc
 50
0.0
 51
90.0
  0
ARC
  5
462
100
AcDbEntity
  8
0
100
AcDbCircle
 62
7
  6
BYLAYER
 10
654.7594557995
 20
1544.2360994001
 40
1.0
100
AcDbArc
 50
90.0
 51
180.0
  0
ARC
  5
463
100
AcDbEntity
  8
0
100
AcDbCircle
 62
7
  6
BYLAYER
 10
662.7594557995
 20
1544.2360994001
 40
1.0
100
AcDbArc
 50
90.0
 51
180.0
  0
ARC
  5
464
100
AcDbEntity
  8
0
100
AcDbCircle
 62
7
  6
BYLAYER
 10
661.2594557995
 20
1543.2360994001
 40
0.5
100
AcDbArc
 50
270.0
 51
360.0
  0
ARC
  5
465
100
AcDbEntity
  8
0
100
AcDbCircle
 62
7
  6
BYLAYER
 10
654.2594557995
 20
1542.2360994001
 40
0.5
100
AcDbArc
 50
90.0
 51
180.0
  0
ARC
  5
466
100
AcDbEntity
  8
0
100
AcDbCircle
 62
7
  6
BYLAYER
 10
661.7594734614
 20
1541.7360995831
 40
0.4999999532
100
AcDbArc
 50
102.1804098124
 51
282.180210997
  0
ARC
  5
467
100
AcDbEntity
  8
0
100
AcDbCircle
 62
7
  6
BYLAYER
 10
665.9352357995
 20
1552.9360994001
 40
0.3
100
AcDbArc
 50
90.0
 51
180.0
  0
ARC
  5
468
100
AcDbEntity
  8
3
100
AcDbCircle
 62
7
  6
BYLAYER
 10
671.8709628841
 20
1462.9191769842
 40
3.25
100
AcDbArc
 50
90.0
 51
270.0
  0
ARC
  5
469
100
AcDbEntity
  8
3
100
AcDbCircle
 62
7
  6
BYLAYER
 10
671.8709628841
 20
1492.9191769842
 40
3.25
100
AcDbArc
 50
90.0
 51
270.0
  0
ARC
  5
46A
100
AcDbEntity
  8
0
100
AcDbCircle
 62
7
  6
BYLAYER
 10
673.7594557995
 20
1544.2360994001
 40
1.0
100
AcDbArc
 50
0.0
 51
90.0
  0
ARC
  5
46B
100
AcDbEntity
  8
0
100
AcDbCircle
 62
7
  6
BYLAYER
 10
677.7594381376
 20
1541.7360995831
 40
0.4999999532
100
AcDbArc
 50
257.819789003
 51
77.8195901876
  0
ARC
  5
46C
100
AcDbEntity
  8
0
100
AcDbCircle
 62
7
  6
BYLAYER
 10
673.5852357995
 20
1552.9360994001
 40
0.3
100
AcDbArc
 50
0.0
 51
90.0
  0
CIRCLE
  5
46D
100
AcDbEntity
  8
3
100
AcDbCircle
 62
7
  6
BYLAYER
 10
678.7601836091
 20
843.8684153631
 40
6.3525
  0
ARC
  5
46E
100
AcDbEntity
  8
3
100
AcDbCircle
 62
7
  6
BYLAYER
 10
688.5709628841
 20
848.8684153631
 40
5.0
100
AcDbArc
 50
0.0
 51
90.0
  0
ARC
  5
46F
100
AcDbEntity
  8
3
100
AcDbCircle
 62
7
  6
BYLAYER
 10
685.3709628841
 20
843.8684153631
 40
3.25
100
AcDbArc
 50
270.0
 51
90.0
  0
CIRCLE
  5
470
100
AcDbEntity
  8
3
100
AcDbCircle
 62
7
  6
BYLAYER
 10
678.7601836091
 20
843.8684153631
 40
3.0
  0
CIRCLE
  5
471
100
AcDbEntity
  8
3
100
AcDbCircle
 62
7
  6
BYLAYER
 10
678.7601836091
 20
1462.9191769842
 40
6.3525
  0
CIRCLE
  5
472
100
AcDbEntity
  8
3
100
AcDbCircle
 62
7
  6
BYLAYER
 10
678.7601836091
 20
1492.9191769842
 40
6.3525
  0
ARC
  5
473
100
AcDbEntity
  8
3
100
AcDbCircle
 62
7
  6
BYLAYER
 10
688.5709628841
 20
1457.9191769842
 40
5.0
100
AcDbArc
 50
270.0
 51
360.0
  0
ARC
  5
474
100
AcDbEntity
  8
3
100
AcDbCircle
 62
7
  6
BYLAYER
 10
688.5709628841
 20
1497.9191769842
 40
5.0
100
AcDbArc
 50
0.0
 51
90.0
  0
ARC
  5
475
100
AcDbEntity
  8
3
100
AcDbCircle
 62
7
  6
BYLAYER
 10
685.3709628841
 20
1462.9191769842
 40
3.25
100
AcDbArc
 50
270.0
 51
90.0
  0
ARC
  5
476
100
AcDbEntity
  8
3
100
AcDbCircle
 62
7
  6
BYLAYER
 10
685.3709628841
 20
1492.9191769842
 40
3.25
100
AcDbArc
 50
270.0
 51
90.0
  0
CIRCLE
  5
477
100
AcDbEntity
  8
3
100
AcDbCircle
 62
7
  6
BYLAYER
 10
678.7601836091
 20
1462.9191769842
 40
3.0
  0
CIRCLE
  5
478
100
AcDbEntity
  8
3
100
AcDbCircle
 62
7
  6
BYLAYER
 10
678.7601836091
 20
1492.9191769842
 40
3.0
  0
ARC
  5
479
100
AcDbEntity
  8
0
100
AcDbCircle
 62
7
  6
BYLAYER
 10
683.7594557995
 20
1544.2360994001
 40
1.0
100
AcDbArc
 50
90.0
 51
180.0000000008
  0
ARC
  5
47A
100
AcDbEntity
  8
0
100
AcDbCircle
 62
7
  6
BYLAYER
 10
679.759473462
 20
1541.7360995829
 40
0.4999999534
100
AcDbArc
 50
102.1571786862
 51
282.1569797606
  0
ARC
  5
47B
100
AcDbEntity
  8
0
100
AcDbCircle
 62
7
  6
BYLAYER
 10
683.9362157995
 20
1552.9360994001
 40
0.3
100
AcDbArc
 50
90.0
 51
180.0
  0
ARC
  5
47C
100
AcDbEntity
  8
0
100
AcDbCircle
 62
7
  6
BYLAYER
 10
702.5594557995
 20
1544.3360994001
 40
1.0
100
AcDbArc
 50
54.2529864704
 51
90.0
  0
ARC
  5
47D
100
AcDbEntity
  8
0
100
AcDbCircle
 62
7
  6
BYLAYER
 10
696.9594557995
 20
1544.3360994001
 40
1.0
100
AcDbArc
 50
90.0
 51
180.0
  0
ARC
  5
47E
100
AcDbEntity
  8
0
100
AcDbCircle
 62
7
  6
BYLAYER
 10
701.5594557995
 20
1544.3360994001
 40
1.0
100
AcDbArc
 50
0.0
 51
90.0
  0
ARC
  5
47F
100
AcDbEntity
  8
0
100
AcDbCircle
 62
7
  6
BYLAYER
 10
694.7594557995
 20
1544.2360994001
 40
1.0
100
AcDbArc
 50
0.0
 51
90.0
  0
ARC
  5
480
100
AcDbEntity
  8
0
100
AcDbCircle
 62
7
  6
BYLAYER
 10
702.7594557995
 20
1544.2360994001
 40
1.0
100
AcDbArc
 50
0.0
 51
90.0
  0
ARC
  5
481
100
AcDbEntity
  8
0
100
AcDbCircle
 62
7
  6
BYLAYER
 10
703.2594557995
 20
1542.2360994001
 40
0.5
100
AcDbArc
 50
0.0
 51
90.0
  0
ARC
  5
482
100
AcDbEntity
  8
0
100
AcDbCircle
 62
7
  6
BYLAYER
 10
696.2594557995
 20
1543.2360994001
 40
0.5
100
AcDbArc
 50
180.0
 51
270.0
  0
ARC
  5
483
100
AcDbEntity
  8
0
100
AcDbCircle
 62
7
  6
BYLAYER
 10
695.7594381371
 20
1541.7360995829
 40
0.4999999534
100
AcDbArc
 50
257.8430202394
 51
77.8428213138
  0
ARC
  5
484
100
AcDbEntity
  8
0
100
AcDbCircle
 62
7
  6
BYLAYER
 10
691.5862157995
 20
1552.9360994001
 40
0.3
100
AcDbArc
 50
0.0
 51
90.0
  0
SPLINE
  5
485
100
AcDbEntity
  8
0
100
AcDbSpline
 62
7
  6
BYLAYER
 70
0
 71
3
 72
11
 73
7
 74
0
 42
0.0000001
 43
0.0000001
 44
0.0000000001
 40
0.0
 40
0.0
 40
0.0
 40
0.0
 40
0.1598605771
 40
0.3733762137
 40
0.6595504004
 40
1.0
 40
1.0
 40
1.0
 40
1.0
 10
683.7594578338
 20
1545.2360994005
 30
0.0
 10
683.6953137527
 20
1545.2360862692
 30
0.0
 10
683.5465503431
 20
1545.1705171924
 30
0.0
 10
683.3920710289
 20
1544.9476185203
 30
0.0
 10
683.2843184197
 20
1544.6253548147
 30
0.0
 10
683.2594569853
 20
1544.3727048572
 30
0.0
 10
683.2594563404
 20
1544.2360994002
 30
0.0
  0
SPLINE
  5
486
100
AcDbEntity
  8
0
100
AcDbSpline
 62
7
  6
BYLAYER
 70
0
 71
3
 72
11
 73
7
 74
0
 42
0.0000001
 43
0.0000001
 44
0.0000000001
 40
0.0
 40
0.0
 40
0.0
 40
0.0
 40
0.2478327053
 40
0.4979558062
 40
0.7486361583
 40
1.0
 40
1.0
 40
1.0
 40
1.0
 10
662.7594557995
 20
1543.2360994001
 30
0.0
 10
662.759455364
 20
1543.0719777846
 30
0.0
 10
662.6272958858
 20
1542.7418990707
 30
0.0
 10
662.2397787727
 20
1542.4153708937
 30
0.0
 10
661.7612127824
 20
1542.2426251736
 30
0.0
 10
661.4259158304
 20
1542.2360993588
 30
0.0
 10
661.2594557995
 20
1542.2360994001
 30
0.0
  0
SPLINE
  5
487
100
AcDbEntity
  8
0
100
AcDbSpline
 62
7
  6
BYLAYER
 70
0
 71
3
 72
15
 73
11
 74
0
 42
0.0000001
 43
0.0000001
 44
0.0000000001
 40
0.0
 40
0.0
 40
0.0
 40
0.0
 40
0.2636784781
 40
0.5741051372
 40
0.7239517191
 40
0.8562958621
 40
0.9120219732
 40
0.9572544159
 40
0.9883481867
 40
1.0
 40
1.0
 40
1.0
 40
1.0
 10
654.7594558112
 20
1543.2360994001
 30
0.0
 10
654.7594556563
 20
1543.1728053854
 30
0.0
 10
654.6651387198
 20
1543.0505107615
 30
0.0
 10
654.5381547676
 20
1542.9403091207
 30
0.0
 10
654.4267264558
 20
1542.8506420366
 30
0.0
 10
654.3617068181
 20
1542.8022679878
 30
0.0
 10
654.3159640678
 20
1542.7700034344
 30
0.0
 10
654.2886662048
 20
1542.7535937968
 30
0.0
 10
654.2719118414
 20
1542.7411234001
 30
0.0
 10
654.2611927308
 20
1542.738291642
 30
0.0
 10
654.2594558078
 20
1542.736099403
 30
0.0
  0
SPLINE
  5
488
100
AcDbEntity
  8
0
100
AcDbSpline
 62
7
  6
BYLAYER
 70
0
 71
3
 72
15
 73
11
 74
0
 42
0.0000001
 43
0.0000001
 44
0.0000000001
 40
0.0
 40
0.0
 40
0.0
 40
0.0
 40
0.0116518133
 40
0.0427455841
 40
0.0879780268
 40
0.143704138
 40
0.2760482811
 40
0.4258948631
 40
0.7363215223
 40
1.0
 40
1.0
 40
1.0
 40
1.0
 10
703.2594557921
 20
1542.736099403
 30
0.0
 10
703.257719743
 20
1542.738292334
 30
0.0
 10
703.2469986451
 20
1542.7411225183
 30
0.0
 10
703.2302459977
 20
1542.753594274
 30
0.0
 10
703.2029473041
 20
1542.7700032538
 30
0.0
 10
703.157204953
 20
1542.8022681234
 30
0.0
 10
703.0921850765
 20
1542.850641983
 30
0.0
 10
702.9807568757
 20
1542.940309155
 30
0.0
 10
702.8537728675
 20
1543.0505107513
 30
0.0
 10
702.7594559445
 20
1543.1728053856
 30
0.0
 10
702.7594557896
 20
1543.2360994001
 30
0.0
  0
SPLINE
  5
489
100
AcDbEntity
  8
0
100
AcDbSpline
 62
7
  6
BYLAYER
 70
0
 71
3
 72
11
 73
7
 74
0
 42
0.0000001
 43
0.0000001
 44
0.0000000001
 40
0.0
 40
0.0
 40
0.0
 40
0.0
 40
0.3404385698
 40
0.6266185405
 40
0.8401374976
 40
1.0
 40
1.0
 40
1.0
 40
1.0
 10
674.2594543764
 20
1544.2360994001
 30
0.0
 10
674.259454376
 20
1544.3727004183
 30
0.0
 10
674.234592862
 20
1544.6253482083
 30
0.0
 10
674.1268432918
 20
1544.9476115363
 30
0.0
 10
673.9723630268
 20
1545.1705162455
 30
0.0
 10
673.8235977059
 20
1545.2360849068
 30
0.0
 10
673.7594528587
 20
1545.2360994006
 30
0.0
  0
SPLINE
  5
48A
100
AcDbEntity
  8
0
100
AcDbSpline
 62
7
  6
BYLAYER
 70
0
 71
3
 72
11
 73
7
 74
0
 42
0.0000001
 43
0.0000001
 44
0.0000000001
 40
0.0
 40
0.0
 40
0.0
 40
0.0
 40
0.2478325037
 40
0.497955658
 40
0.7486362695
 40
1.0
 40
1.0
 40
1.0
 40
1.0
 10
694.7594557995
 20
1543.2360994001
 30
0.0
 10
694.7594562352
 20
1543.0719779179
 30
0.0
 10
694.8916155616
 20
1542.741899298
 30
0.0
 10
695.2791326521
 20
1542.4153709355
 30
0.0
 10
695.7576988002
 20
1542.2426251982
 30
0.0
 10
696.0929958421
 20
1542.2360993588
 30
0.0
 10
696.2594557995
 20
1542.2360994001
 30
0.0
  0
SPLINE
  5
48B
100
AcDbEntity
  8
0
100
AcDbSpline
 62
7
  6
BYLAYER
 70
0
 71
3
 72
11
 73
7
 74
0
 42
0.0000001
 43
0.0000001
 44
0.0000000001
 40
0.0
 40
0.0
 40
0.0
 40
0.0
 40
0.1598605771
 40
0.3733762137
 40
0.6595504004
 40
1.0
 40
1.0
 40
1.0
 40
1.0
 10
536.1103269453
 20
1545.2360994005
 30
0.0
 10
536.0461828642
 20
1545.2360862692
 30
0.0
 10
535.8974194546
 20
1545.1705171924
 30
0.0
 10
535.7429401404
 20
1544.9476185203
 30
0.0
 10
535.6351875311
 20
1544.6253548147
 30
0.0
 10
535.6103260968
 20
1544.3727048572
 30
0.0
 10
535.6103254519
 20
1544.2360994002
 30
0.0
  0
SPLINE
  5
48C
100
AcDbEntity
  8
0
100
AcDbSpline
 62
7
  6
BYLAYER
 70
0
 71
3
 72
11
 73
7
 74
0
 42
0.0000001
 43
0.0000001
 44
0.0000000001
 40
0.0
 40
0.0
 40
0.0
 40
0.0
 40
0.2478327053
 40
0.4979558062
 40
0.7486361583
 40
1.0
 40
1.0
 40
1.0
 40
1.0
 10
515.110324911
 20
1543.2360994001
 30
0.0
 10
515.1103244755
 20
1543.0719777846
 30
0.0
 10
514.9781649973
 20
1542.7418990707
 30
0.0
 10
514.5906478842
 20
1542.4153708937
 30
0.0
 10
514.1120818939
 20
1542.2426251737
 30
0.0
 10
513.7767849418
 20
1542.2360993588
 30
0.0
 10
513.610324911
 20
1542.2360994001
 30
0.0
  0
SPLINE
  5
48D
100
AcDbEntity
  8
0
100
AcDbSpline
 62
7
  6
BYLAYER
 70
0
 71
3
 72
15
 73
11
 74
0
 42
0.0000001
 43
0.0000001
 44
0.0000000001
 40
0.0
 40
0.0
 40
0.0
 40
0.0
 40
0.2636784781
 40
0.5741051372
 40
0.7239517191
 40
0.8562958621
 40
0.9120219732
 40
0.9572544159
 40
0.9883481867
 40
1.0
 40
1.0
 40
1.0
 40
1.0
 10
507.1103249227
 20
1543.2360994001
 30
0.0
 10
507.1103247678
 20
1543.1728053854
 30
0.0
 10
507.0160078311
 20
1543.0505107617
 30
0.0
 10
506.8890238799
 20
1542.94030912
 30
0.0
 10
506.7775955659
 20
1542.8506420377
 30
0.0
 10
506.7125759331
 20
1542.8022679851
 30
0.0
 10
506.6668331746
 20
1542.7700034381
 30
0.0
 10
506.6395353287
 20
1542.7535937869
 30
0.0
 10
506.62278093
 20
1542.7411234183
 30
0.0
 10
506.6120618602
 20
1542.7382916277
 30
0.0
 10
506.6103249193
 20
1542.736099403
 30
0.0
  0
SPLINE
  5
48E
100
AcDbEntity
  8
0
100
AcDbSpline
 62
7
  6
BYLAYER
 70
0
 71
3
 72
15
 73
11
 74
0
 42
0.0000001
 43
0.0000001
 44
0.0000000001
 40
0.0
 40
0.0
 40
0.0
 40
0.0
 40
0.0116518133
 40
0.0427455841
 40
0.0879780268
 40
0.143704138
 40
0.2760482811
 40
0.4258948631
 40
0.7363215223
 40
1.0
 40
1.0
 40
1.0
 40
1.0
 10
555.6103249036
 20
1542.736099403
 30
0.0
 10
555.6085888545
 20
1542.738292334
 30
0.0
 10
555.5978677566
 20
1542.7411225183
 30
0.0
 10
555.5811151092
 20
1542.753594274
 30
0.0
 10
555.5538164156
 20
1542.7700032538
 30
0.0
 10
555.5080740645
 20
1542.8022681234
 30
0.0
 10
555.443054188
 20
1542.850641983
 30
0.0
 10
555.3316259872
 20
1542.940309155
 30
0.0
 10
555.204641979
 20
1543.0505107513
 30
0.0
 10
555.110325056
 20
1543.1728053856
 30
0.0
 10
555.1103249011
 20
1543.2360994001
 30
0.0
  0
SPLINE
  5
48F
100
AcDbEntity
  8
0
100
AcDbSpline
 62
7
  6
BYLAYER
 70
0
 71
3
 72
11
 73
7
 74
0
 42
0.0000001
 43
0.0000001
 44
0.0000000001
 40
0.0
 40
0.0
 40
0.0
 40
0.0
 40
0.3404385698
 40
0.6266185405
 40
0.8401374976
 40
1.0
 40
1.0
 40
1.0
 40
1.0
 10
526.6103234879
 20
1544.2360994001
 30
0.0
 10
526.6103234874
 20
1544.3727004183
 30
0.0
 10
526.5854619735
 20
1544.6253482083
 30
0.0
 10
526.4777124033
 20
1544.9476115363
 30
0.0
 10
526.3232321383
 20
1545.1705162455
 30
0.0
 10
526.1744668174
 20
1545.2360849068
 30
0.0
 10
526.1103219702
 20
1545.2360994006
 30
0.0
  0
SPLINE
  5
490
100
AcDbEntity
  8
0
100
AcDbSpline
 62
7
  6
BYLAYER
 70
0
 71
3
 72
11
 73
7
 74
0
 42
0.0000001
 43
0.0000001
 44
0.0000000001
 40
0.0
 40
0.0
 40
0.0
 40
0.0
 40
0.2478325037
 40
0.497955658
 40
0.7486362695
 40
1.0
 40
1.0
 40
1.0
 40
1.0
 10
547.110324911
 20
1543.2360994001
 30
0.0
 10
547.1103253467
 20
1543.0719779179
 30
0.0
 10
547.2424846731
 20
1542.741899298
 30
0.0
 10
547.6300017636
 20
1542.4153709355
 30
0.0
 10
548.1085679117
 20
1542.2426251982
 30
0.0
 10
548.4438649536
 20
1542.2360993588
 30
0.0
 10
548.610324911
 20
1542.2360994001
 30
0.0
  0
SPLINE
  5
491
100
AcDbEntity
  8
0
100
AcDbSpline
 62
7
  6
BYLAYER
 70
0
 71
3
 72
11
 73
7
 74
0
 42
0.0000001
 43
0.0000001
 44
0.0000000001
 40
0.0
 40
0.0
 40
0.0
 40
0.0
 40
0.3404385699
 40
0.6266185405
 40
0.8401374976
 40
1.0
 40
1.0
 40
1.0
 40
1.0
 10
535.6110541452
 20
112.7359892616
 30
0.0
 10
535.6110541456
 20
112.5993882435
 30
0.0
 10
535.6359156596
 20
112.3467404534
 30
0.0
 10
535.7436652299
 20
112.0244771255
 30
0.0
 10
535.8981454948
 20
111.8015724162
 30
0.0
 10
536.0469108157
 20
111.7360037549
 30
0.0
 10
536.1110556629
 20
111.7359892612
 30
0.0
  0
SPLINE
  5
492
100
AcDbEntity
  8
0
100
AcDbSpline
 62
7
  6
BYLAYER
 70
0
 71
3
 72
11
 73
7
 74
0
 42
0.0000001
 43
0.0000001
 44
0.0000000001
 40
0.0
 40
0.0
 40
0.0
 40
0.0
 40
0.1598605678
 40
0.3733761936
 40
0.6595503807
 40
1.0
 40
1.0
 40
1.0
 40
1.0
 10
526.1110507802
 20
111.7359892613
 30
0.0
 10
526.1751948586
 20
111.7360023855
 30
0.0
 10
526.3239582696
 20
111.801571448
 30
0.0
 10
526.4784375905
 20
112.0244701123
 30
0.0
 10
526.5861902076
 20
112.3467338248
 30
0.0
 10
526.6110516451
 20
112.5993837945
 30
0.0
 10
526.6110522901
 20
112.7359892616
 30
0.0
  0
SPLINE
  5
493
100
AcDbEntity
  8
0
100
AcDbSpline
 62
7
  6
BYLAYER
 70
0
 71
3
 72
15
 73
11
 74
0
 42
0.0000001
 43
0.0000001
 44
0.0000000001
 40
0.0
 40
0.0
 40
0.0
 40
0.0
 40
0.0116518133
 40
0.0427455841
 40
0.0879780268
 40
0.143704138
 40
0.2760482811
 40
0.4258948631
 40
0.7363215223
 40
1.0
 40
1.0
 40
1.0
 40
1.0
 10
506.6110527295
 20
114.2359892588
 30
0.0
 10
506.6127887962
 20
114.2337963417
 30
0.0
 10
506.6235098541
 20
114.2309661257
 30
0.0
 10
506.640262536
 20
114.2184943974
 30
0.0
 10
506.6675612129
 20
114.2020854043
 30
0.0
 10
506.713303572
 20
114.1698205411
 30
0.0
 10
506.7783234437
 20
114.1214466776
 30
0.0
 10
506.8897516468
 20
114.0317795074
 30
0.0
 10
507.0167356538
 20
113.9215779102
 30
0.0
 10
507.1110525771
 20
113.7992832762
 30
0.0
 10
507.111052732
 20
113.7359892616
 30
0.0
  0
SPLINE
  5
494
100
AcDbEntity
  8
0
100
AcDbSpline
 62
7
  6
BYLAYER
 70
0
 71
3
 72
11
 73
7
 74
0
 42
0.0000001
 43
0.0000001
 44
0.0000000001
 40
0.0
 40
0.0
 40
0.0
 40
0.0
 40
0.2478325037
 40
0.497955658
 40
0.7486362695
 40
1.0
 40
1.0
 40
1.0
 40
1.0
 10
515.1110527221
 20
113.7359892616
 30
0.0
 10
515.1110522864
 20
113.9001107439
 30
0.0
 10
514.97889296
 20
114.2301893638
 30
0.0
 10
514.5913758695
 20
114.5567177262
 30
0.0
 10
514.1128097214
 20
114.7294634635
 30
0.0
 10
513.7775126795
 20
114.735989303
 30
0.0
 10
513.6110527221
 20
114.7359892616
 30
0.0
  0
SPLINE
  5
495
100
AcDbEntity
  8
0
100
AcDbSpline
 62
7
  6
BYLAYER
 70
0
 71
3
 72
11
 73
7
 74
0
 42
0.0000001
 43
0.0000001
 44
0.0000000001
 40
0.0
 40
0.0
 40
0.0
 40
0.0
 40
0.2478327053
 40
0.4979558062
 40
0.7486361583
 40
1.0
 40
1.0
 40
1.0
 40
1.0
 10
547.1110527221
 20
113.7359892616
 30
0.0
 10
547.1110531576
 20
113.9001108771
 30
0.0
 10
547.2432126358
 20
114.2301895911
 30
0.0
 10
547.6307297489
 20
114.556717768
 30
0.0
 10
548.1092957392
 20
114.7294634881
 30
0.0
 10
548.4445926912
 20
114.735989303
 30
0.0
 10
548.6110527221
 20
114.7359892616
 30
0.0
  0
SPLINE
  5
496
100
AcDbEntity
  8
0
100
AcDbSpline
 62
7
  6
BYLAYER
 70
0
 71
3
 72
15
 73
11
 74
0
 42
0.0000001
 43
0.0000001
 44
0.0000000001
 40
0.0
 40
0.0
 40
0.0
 40
0.0
 40
0.2636784781
 40
0.5741051372
 40
0.7239517191
 40
0.8562958621
 40
0.9120219732
 40
0.9572544159
 40
0.9883481867
 40
1.0
 40
1.0
 40
1.0
 40
1.0
 10
555.1110527104
 20
113.7359892616
 30
0.0
 10
555.1110528653
 20
113.7992832764
 30
0.0
 10
555.2053698026
 20
113.9215778996
 30
0.0
 10
555.3323537512
 20
114.0317795433
 30
0.0
 10
555.4437820702
 20
114.1214466217
 30
0.0
 10
555.5088016924
 20
114.1698206827
 30
0.0
 10
555.5545444687
 20
114.2020852155
 30
0.0
 10
555.5818422775
 20
114.2184948961
 30
0.0
 10
555.5985967528
 20
114.2309652041
 30
0.0
 10
555.6093157339
 20
114.2337970649
 30
0.0
 10
555.6110527138
 20
114.2359892588
 30
0.0
  0
SPLINE
  5
497
100
AcDbEntity
  8
0
100
AcDbSpline
 62
7
  6
BYLAYER
 70
0
 71
3
 72
11
 73
7
 74
0
 42
0.0000001
 43
0.0000001
 44
0.0000000001
 40
0.0
 40
0.0
 40
0.0
 40
0.0
 40
0.3404385698
 40
0.6266185405
 40
0.8401374976
 40
1.0
 40
1.0
 40
1.0
 40
1.0
 10
683.2601850338
 20
112.7359892616
 30
0.0
 10
683.2601850342
 20
112.5993882435
 30
0.0
 10
683.2850465481
 20
112.3467404534
 30
0.0
 10
683.3927961184
 20
112.0244771255
 30
0.0
 10
683.5472763833
 20
111.8015724162
 30
0.0
 10
683.6960417042
 20
111.7360037549
 30
0.0
 10
683.7601865514
 20
111.7359892612
 30
0.0
  0
SPLINE
  5
498
100
AcDbEntity
  8
0
100
AcDbSpline
 62
7
  6
BYLAYER
 70
0
 71
3
 72
11
 73
7
 74
0
 42
0.0000001
 43
0.0000001
 44
0.0000000001
 40
0.0
 40
0.0
 40
0.0
 40
0.0
 40
0.1598605678
 40
0.3733761936
 40
0.6595503807
 40
1.0
 40
1.0
 40
1.0
 40
1.0
 10
673.7601816687
 20
111.7359892613
 30
0.0
 10
673.8243257471
 20
111.7360023855
 30
0.0
 10
673.9730891581
 20
111.801571448
 30
0.0
 10
674.127568479
 20
112.0244701123
 30
0.0
 10
674.2353210962
 20
112.3467338248
 30
0.0
 10
674.2601825336
 20
112.5993837945
 30
0.0
 10
674.2601831786
 20
112.7359892616
 30
0.0
  0
SPLINE
  5
499
100
AcDbEntity
  8
0
100
AcDbSpline
 62
7
  6
BYLAYER
 70
0
 71
3
 72
15
 73
11
 74
0
 42
0.0000001
 43
0.0000001
 44
0.0000000001
 40
0.0
 40
0.0
 40
0.0
 40
0.0
 40
0.0116518133
 40
0.0427455841
 40
0.0879780268
 40
0.143704138
 40
0.2760482811
 40
0.4258948631
 40
0.7363215223
 40
1.0
 40
1.0
 40
1.0
 40
1.0
 10
654.260183618
 20
114.2359892588
 30
0.0
 10
654.2619196671
 20
114.2337963278
 30
0.0
 10
654.272640765
 20
114.2309661435
 30
0.0
 10
654.2893934124
 20
114.2184943878
 30
0.0
 10
654.316692106
 20
114.202085408
 30
0.0
 10
654.3624344571
 20
114.1698205383
 30
0.0
 10
654.4274543336
 20
114.1214466787
 30
0.0
 10
654.5388825344
 20
114.0317795067
 30
0.0
 10
654.6658665426
 20
113.9215779104
 30
0.0
 10
654.7601834656
 20
113.7992832762
 30
0.0
 10
654.7601836205
 20
113.7359892616
 30
0.0
  0
SPLINE
  5
49A
100
AcDbEntity
  8
0
100
AcDbSpline
 62
7
  6
BYLAYER
 70
0
 71
3
 72
11
 73
7
 74
0
 42
0.0000001
 43
0.0000001
 44
0.0000000001
 40
0.0
 40
0.0
 40
0.0
 40
0.0
 40
0.2478325037
 40
0.497955658
 40
0.7486362695
 40
1.0
 40
1.0
 40
1.0
 40
1.0
 10
662.7601836106
 20
113.7359892616
 30
0.0
 10
662.7601831749
 20
113.9001107439
 30
0.0
 10
662.6280238485
 20
114.2301893638
 30
0.0
 10
662.240506758
 20
114.5567177262
 30
0.0
 10
661.7619406099
 20
114.7294634635
 30
0.0
 10
661.426643568
 20
114.735989303
 30
0.0
 10
661.2601836106
 20
114.7359892616
 30
0.0
  0
SPLINE
  5
49B
100
AcDbEntity
  8
0
100
AcDbSpline
 62
7
  6
BYLAYER
 70
0
 71
3
 72
11
 73
7
 74
0
 42
0.0000001
 43
0.0000001
 44
0.0000000001
 40
0.0
 40
0.0
 40
0.0
 40
0.0
 40
0.2478327053
 40
0.4979558062
 40
0.7486361583
 40
1.0
 40
1.0
 40
1.0
 40
1.0
 10
694.7601836106
 20
113.7359892616
 30
0.0
 10
694.7601840461
 20
113.9001108771
 30
0.0
 10
694.8923435243
 20
114.2301895911
 30
0.0
 10
695.2798606374
 20
114.556717768
 30
0.0
 10
695.7584266277
 20
114.7294634881
 30
0.0
 10
696.0937235798
 20
114.735989303
 30
0.0
 10
696.2601836106
 20
114.7359892616
 30
0.0
  0
SPLINE
  5
49C
100
AcDbEntity
  8
0
100
AcDbSpline
 62
7
  6
BYLAYER
 70
0
 71
3
 72
15
 73
11
 74
0
 42
0.0000001
 43
0.0000001
 44
0.0000000001
 40
0.0
 40
0.0
 40
0.0
 40
0.0
 40
0.2636784781
 40
0.5741051372
 40
0.7239517191
 40
0.8562958621
 40
0.9120219732
 40
0.9572544159
 40
0.9883481867
 40
1.0
 40
1.0
 40
1.0
 40
1.0
 10
702.7601835989
 20
113.7359892616
 30
0.0
 10
702.7601837538
 20
113.7992832764
 30
0.0
 10
702.8545006911
 20
113.9215778996
 30
0.0
 10
702.9814846397
 20
114.0317795433
 30
0.0
 10
703.0929129588
 20
114.1214466217
 30
0.0
 10
703.1579325809
 20
114.1698206827
 30
0.0
 10
703.2036753572
 20
114.2020852155
 30
0.0
 10
703.230973166
 20
114.2184948961
 30
0.0
 10
703.2477276413
 20
114.2309652041
 30
0.0
 10
703.2584466224
 20
114.2337970649
 30
0.0
 10
703.2601836023
 20
114.2359892588
 30
0.0
  0
ENDSEC
  0
SECTION
  2
OBJECTS
  0
DICTIONARY
  5
C
100
AcDbDictionary
280
0
281
1
  3
ACAD_GROUP
350
D
  3
ACAD_MLINESTYLE
350
17
  3
ACAD_LAYOUT
350
1A
  3
ACAD_PLOTSETTINGS
350
19
  3
ACAD_PLOTSTYLENAME
350
E
  0
DICTIONARY
  5
D
102
{ACAD_REACTORS
330
C
102
}
100
AcDbDictionary
280
0
281
1
  0
ACDBDICTIONARYWDFLT
  5
E
102
{ACAD_REACTORS
330
C
102
}
100
AcDbDictionary
281
1
  3
Normal
350
F
100
AcDbDictionaryWithDefault
340
F
  0
DICTIONARY
  5
17
102
{ACAD_REACTORS
330
C
102
}
100
AcDbDictionary
280
0
281
1
  3
Standard
350
18
  0
DICTIONARY
  5
19
102
{ACAD_REACTORS
330
C
102
}
100
AcDbDictionary
281
1
  0
DICTIONARY
  5
1A
102
{ACAD_REACTORS
330
C
102
}
100
AcDbDictionary
281
1
  3
Model
350
49D
  3
Layout1
350
49E
  0
ACDBPLACEHOLDER
  5
F
102
{ACAD_REACTORS
330
E
102
}
  0
MLINESTYLE
  5
18
102
{ACAD_REACTORS
330
17
102
}
100
AcDbMlineStyle
  2
STANDARD
 70
0
  3

 62
256
 51
90.0
 52
90.0
 71
2
 49
0.5
 62
256
  6
BYLAYER
 49
-0.5
 62
256
  6
BYLAYER
  0
LAYOUT
  5
49D
102
{ACAD_REACTORS
330
1A
102
}
100
AcDbPlotSettings
  1

  2
none_device
  4

  6

 40
0.0
 41
0.0
 42
0.0
 43
0.0
 44
210.0
 45
297.0
 46
0.0
 47
0.0
 48
0.0
 49
0.0
140
0.0
141
0.0
142
1.0
143
1.0
 70
1024
 72
1
 73
0
 74
0
  7

 75
0
147
1.0
148
0.0
149
0.0
100
AcDbLayout
  1
Model
 70
0
 71
0
 10
0.0
 20
0.0
 11
210.0
 21
297.0
 12
0.0
 22
0.0
 32
0.0
 14
0.0
 24
0.0
 34
0.0
 15
0.0
 25
0.0
 35
0.0
146
0.0
 13
0.0
 23
0.0
 33
0.0
 16
1.0
 26
0.0
 36
0.0
 17
0.0
 27
1.0
 37
0.0
 76
0
330
212
345
0
346
0
  0
LAYOUT
  5
49E
102
{ACAD_REACTORS
330
1A
102
}
100
AcDbPlotSettings
  1

  2
none_device
  4

  6

 40
0.0
 41
0.0
 42
0.0
 43
0.0
 44
210.0
 45
297.0
 46
0.0
 47
0.0
 48
0.0
 49
0.0
140
0.0
141
0.0
142
1.0
143
1.0
 70
0
 72
1
 73
0
 74
0
  7

 75
0
147
1.0
148
0.0
149
0.0
100
AcDbLayout
  1
Layout1
 70
0
 71
1
 10
0.0
 20
0.0
 11
210.0
 21
297.0
 12
0.0
 22
0.0
 32
0.0
 14
0.0
 24
0.0
 34
0.0
 15
0.0
 25
0.0
 35
0.0
146
0.0
 13
0.0
 23
0.0
 33
0.0
 16
1.0
 26
0.0
 36
0.0
 17
0.0
 27
1.0
 37
0.0
 76
0
330
213
345
0
346
0
  0
ENDSEC
  0
EOF
