  0
SECTION
  2
HEADER
  9
$ACADVER
  1
AC1006
  9
$EXTMIN
 10
-2.261248
 20
-3.943937
  9
$EXTMAX
 10
2.261000
 20
3.947000
  9
$LTSCALE
 40
0.000394
  9
$PDMODE
 70
    35
  9
$PDSIZE
 40
0.000315
  0
ENDSEC
  0
SECTION
  2
TABLES
  0
TABLE
  2
LTYPE
 70
     9
  0
LTYPE
  2
CONTINUOUS
 70
    64
  3
Solid line
 72
    65
 73
     0
 40
0.000000
  0
LTYPE
  2
DASHED
 70
    64
  3
__ __ __ __ __ __ __ __ __ __ __ __ __ __ __
 72
    65
 73
     2
 40
0.000003
 49
0.000002
 49
-0.000001
  0
LTYPE
  2
HIDDEN
 70
    64
  3
 _ _ _ _ _ _ _ _ _ _ _ _ _ _ _ _ _ _ _ _ _ _
 72
    65
 73
     2
 40
0.000001
 49
0.000001
 49
-0.000000
  0
LTYPE
  2
CENTER
 70
    64
  3
____ _ ____ _ ____ _ ____ _ ____ _ ____ _ ____
 72
    65
 73
     4
 40
0.000008
 49
0.000005
 49
-0.000001
 49
0.000001
 49
-0.000001
  0
LTYPE
  2
PHANTOM
 70
    64
  3
_____ _ _ _____ _ _ _____ _ _ _____ _ _ ____
 72
    65
 73
     6
 40
0.000010
 49
0.000005
 49
-0.000001
 49
0.000001
 49
-0.000001
 49
0.000001
 49
-0.000001
  0
LTYPE
  2
DOT
 70
    64
  3
...............................................
 72
    65
 73
     2
 40
0.000001
 49
0.000000
 49
-0.000001
  0
LTYPE
  2
DASHDOT
 70
    64
  3
__ . __ . __ . __ . __ . __ . __ . __ . __ . __
 72
    65
 73
     4
 40
0.000004
 49
0.000002
 49
-0.000001
 49
0.000000
 49
-0.000001
  0
LTYPE
  2
BORDER
 70
    64
  3
__ __ . __ __ . __ __ . __ __ . __ __ . __ __
 72
    65
 73
     6
 40
0.000007
 49
0.000002
 49
-0.000001
 49
0.000002
 49
-0.000001
 49
0.000000
 49
-0.000001
  0
LTYPE
  2
DIVIDE
 70
    64
  3
__ . . __ . . __ . . __ . . __ . . __ . . __
 72
    65
 73
     6
 40
0.000005
 49
0.000002
 49
-0.000001
 49
0.000000
 49
-0.000001
 49
0.000000
 49
-0.000001
  0
LTYPE
  2
DOTDOT
 70
    64
  3
 . .  . .  . .  . .  . .  . . 
 72
    65
 73
     5
 40
0.000002
 49
-0.000001
 49
0.000000
 49
-0.000001
 49
0.000000
 49
-0.000001
  0
ENDTAB
  0
TABLE
  2
STYLE
 70
     0
  0
ENDTAB
  0
TABLE
  2
LAYER
 70
     3
  0
LAYER
  2
FOREGROUND
 70
    64
 62
     7
  6
CONTINUOUS
  0
LAYER
  2
BACKGROUND
 70
    65
 62
    -7
  6
CONTINUOUS
  0
LAYER
  2
PLAN_1
 70
    64
 62
     7
  6
CONTINUOUS
  0
ENDTAB
  0
ENDSEC
  0
SECTION
  2
ENTITIES
  0
POLYLINE
  8
PLAN_1
  6
CONTINUOUS
 66
     1
 40
0.003000
 41
0.003000
  0
VERTEX
  8
PLAN_1
  6
CONTINUOUS
 10
0.400217
 20
-3.909413
  0
VERTEX
  8
PLAN_1
  6
CONTINUOUS
 10
0.243386
 20
-3.909413
  0
VERTEX
  8
PLAN_1
  6
CONTINUOUS
 10
0.243386
 20
-3.886728
  0
VERTEX
  8
PLAN_1
  6
CONTINUOUS
 10
0.365201
 20
-3.733843
  0
VERTEX
  8
PLAN_1
  6
CONTINUOUS
 10
0.252264
 20
-3.733843
  0
VERTEX
  8
PLAN_1
  6
CONTINUOUS
 10
0.252264
 20
-3.710169
  0
VERTEX
  8
PLAN_1
  6
CONTINUOUS
 10
0.400217
 20
-3.710169
  0
VERTEX
  8
PLAN_1
  6
CONTINUOUS
 10
0.400217
 20
-3.733346
  0
VERTEX
  8
PLAN_1
  6
CONTINUOUS
 10
0.277417
 20
-3.885248
  0
VERTEX
  8
PLAN_1
  6
CONTINUOUS
 10
0.400217
 20
-3.885248
  0
VERTEX
  8
PLAN_1
  6
CONTINUOUS
 10
0.400217
 20
-3.909413
  0
SEQEND
  8
0
  0
POLYLINE
  8
PLAN_1
  6
CONTINUOUS
 66
     1
 40
0.003000
 41
0.003000
  0
VERTEX
  8
PLAN_1
  6
CONTINUOUS
 10
0.567409
 20
-3.769843
  0
VERTEX
  8
PLAN_1
  6
CONTINUOUS
 10
0.565929
 20
-3.763433
  0
VERTEX
  8
PLAN_1
  6
CONTINUOUS
 10
0.563957
 20
-3.758008
  0
VERTEX
  8
PLAN_1
  6
CONTINUOUS
 10
0.560996
 20
-3.753075
  0
VERTEX
  8
PLAN_1
  6
CONTINUOUS
 10
0.558531
 20
-3.748638
  0
VERTEX
  8
PLAN_1
  6
CONTINUOUS
 10
0.555079
 20
-3.744689
  0
VERTEX
  8
PLAN_1
  6
CONTINUOUS
 10
0.551626
 20
-3.741240
  0
VERTEX
  8
PLAN_1
  6
CONTINUOUS
 10
0.547681
 20
-3.738772
  0
VERTEX
  8
PLAN_1
  6
CONTINUOUS
 10
0.543736
 20
-3.736307
  0
VERTEX
  8
PLAN_1
  6
CONTINUOUS
 10
0.539791
 20
-3.733843
  0
VERTEX
  8
PLAN_1
  6
CONTINUOUS
 10
0.535843
 20
-3.732362
  0
VERTEX
  8
PLAN_1
  6
CONTINUOUS
 10
0.531406
 20
-3.730882
  0
VERTEX
  8
PLAN_1
  6
CONTINUOUS
 10
0.527461
 20
-3.729894
  0
VERTEX
  8
PLAN_1
  6
CONTINUOUS
 10
0.519075
 20
-3.728909
  0
VERTEX
  8
PLAN_1
  6
CONTINUOUS
 10
0.511677
 20
-3.728417
  0
VERTEX
  8
PLAN_1
  6
CONTINUOUS
 10
0.504772
 20
-3.728909
  0
VERTEX
  8
PLAN_1
  6
CONTINUOUS
 10
0.498362
 20
-3.729894
  0
VERTEX
  8
PLAN_1
  6
CONTINUOUS
 10
0.492445
 20
-3.731374
  0
VERTEX
  8
PLAN_1
  6
CONTINUOUS
 10
0.486031
 20
-3.733346
  0
VERTEX
  8
PLAN_1
  6
CONTINUOUS
 10
0.480606
 20
-3.736307
  0
VERTEX
  8
PLAN_1
  6
CONTINUOUS
 10
0.475181
 20
-3.739760
  0
VERTEX
  8
PLAN_1
  6
CONTINUOUS
 10
0.470252
 20
-3.743705
  0
VERTEX
  8
PLAN_1
  6
CONTINUOUS
 10
0.465319
 20
-3.748638
  0
VERTEX
  8
PLAN_1
  6
CONTINUOUS
 10
0.461374
 20
-3.753567
  0
VERTEX
  8
PLAN_1
  6
CONTINUOUS
 10
0.457429
 20
-3.759484
  0
VERTEX
  8
PLAN_1
  6
CONTINUOUS
 10
0.454469
 20
-3.765898
  0
VERTEX
  8
PLAN_1
  6
CONTINUOUS
 10
0.451508
 20
-3.773295
  0
VERTEX
  8
PLAN_1
  6
CONTINUOUS
 10
0.449535
 20
-3.780693
  0
VERTEX
  8
PLAN_1
  6
CONTINUOUS
 10
0.447563
 20
-3.789079
  0
VERTEX
  8
PLAN_1
  6
CONTINUOUS
 10
0.446579
 20
-3.797953
  0
VERTEX
  8
PLAN_1
  6
CONTINUOUS
 10
0.446579
 20
-3.807819
  0
VERTEX
  8
PLAN_1
  6
CONTINUOUS
 10
0.446579
 20
-3.816201
  0
VERTEX
  8
PLAN_1
  6
CONTINUOUS
 10
0.447071
 20
-3.824587
  0
VERTEX
  8
PLAN_1
  6
CONTINUOUS
 10
0.448551
 20
-3.832972
  0
VERTEX
  8
PLAN_1
  6
CONTINUOUS
 10
0.450031
 20
-3.840370
  0
VERTEX
  8
PLAN_1
  6
CONTINUOUS
 10
0.452004
 20
-3.847768
  0
VERTEX
  8
PLAN_1
  6
CONTINUOUS
 10
0.454469
 20
-3.854669
  0
VERTEX
  8
PLAN_1
  6
CONTINUOUS
 10
0.457429
 20
-3.861083
  0
VERTEX
  8
PLAN_1
  6
CONTINUOUS
 10
0.460882
 20
-3.866508
  0
VERTEX
  8
PLAN_1
  6
CONTINUOUS
 10
0.465319
 20
-3.871933
  0
VERTEX
  8
PLAN_1
  6
CONTINUOUS
 10
0.469756
 20
-3.876862
  0
VERTEX
  8
PLAN_1
  6
CONTINUOUS
 10
0.475181
 20
-3.880811
  0
VERTEX
  8
PLAN_1
  6
CONTINUOUS
 10
0.481594
 20
-3.884260
  0
VERTEX
  8
PLAN_1
  6
CONTINUOUS
 10
0.488004
 20
-3.887220
  0
VERTEX
  8
PLAN_1
  6
CONTINUOUS
 10
0.495402
 20
-3.889193
  0
VERTEX
  8
PLAN_1
  6
CONTINUOUS
 10
0.503787
 20
-3.890181
  0
VERTEX
  8
PLAN_1
  6
CONTINUOUS
 10
0.512665
 20
-3.890673
  0
VERTEX
  8
PLAN_1
  6
CONTINUOUS
 10
0.516118
 20
-3.890673
  0
VERTEX
  8
PLAN_1
  6
CONTINUOUS
 10
0.519567
 20
-3.890181
  0
VERTEX
  8
PLAN_1
  6
CONTINUOUS
 10
0.523516
 20
-3.889685
  0
VERTEX
  8
PLAN_1
  6
CONTINUOUS
 10
0.527461
 20
-3.888701
  0
VERTEX
  8
PLAN_1
  6
CONTINUOUS
 10
0.531406
 20
-3.887220
  0
VERTEX
  8
PLAN_1
  6
CONTINUOUS
 10
0.535843
 20
-3.885740
  0
VERTEX
  8
PLAN_1
  6
CONTINUOUS
 10
0.539791
 20
-3.883276
  0
VERTEX
  8
PLAN_1
  6
CONTINUOUS
 10
0.544228
 20
-3.880811
  0
VERTEX
  8
PLAN_1
  6
CONTINUOUS
 10
0.548173
 20
-3.877358
  0
VERTEX
  8
PLAN_1
  6
CONTINUOUS
 10
0.552118
 20
-3.873413
  0
VERTEX
  8
PLAN_1
  6
CONTINUOUS
 10
0.555571
 20
-3.868972
  0
VERTEX
  8
PLAN_1
  6
CONTINUOUS
 10
0.559024
 20
-3.864039
  0
VERTEX
  8
PLAN_1
  6
CONTINUOUS
 10
0.562476
 20
-3.858122
  0
VERTEX
  8
PLAN_1
  6
CONTINUOUS
 10
0.564941
 20
-3.851713
  0
VERTEX
  8
PLAN_1
  6
CONTINUOUS
 10
0.567409
 20
-3.844315
  0
VERTEX
  8
PLAN_1
  6
CONTINUOUS
 10
0.569382
 20
-3.835929
  0
VERTEX
  8
PLAN_1
  6
CONTINUOUS
 10
0.595520
 20
-3.835929
  0
VERTEX
  8
PLAN_1
  6
CONTINUOUS
 10
0.594531
 20
-3.842835
  0
VERTEX
  8
PLAN_1
  6
CONTINUOUS
 10
0.593055
 20
-3.849244
  0
VERTEX
  8
PLAN_1
  6
CONTINUOUS
 10
0.591079
 20
-3.855165
  0
VERTEX
  8
PLAN_1
  6
CONTINUOUS
 10
0.589106
 20
-3.861083
  0
VERTEX
  8
PLAN_1
  6
CONTINUOUS
 10
0.587134
 20
-3.866016
  0
VERTEX
  8
PLAN_1
  6
CONTINUOUS
 10
0.584669
 20
-3.870945
  0
VERTEX
  8
PLAN_1
  6
CONTINUOUS
 10
0.582205
 20
-3.875878
  0
VERTEX
  8
PLAN_1
  6
CONTINUOUS
 10
0.579244
 20
-3.879823
  0
VERTEX
  8
PLAN_1
  6
CONTINUOUS
 10
0.576283
 20
-3.883768
  0
VERTEX
  8
PLAN_1
  6
CONTINUOUS
 10
0.573327
 20
-3.887713
  0
VERTEX
  8
PLAN_1
  6
CONTINUOUS
 10
0.570366
 20
-3.890673
  0
VERTEX
  8
PLAN_1
  6
CONTINUOUS
 10
0.566913
 20
-3.894126
  0
VERTEX
  8
PLAN_1
  6
CONTINUOUS
 10
0.560504
 20
-3.899059
  0
VERTEX
  8
PLAN_1
  6
CONTINUOUS
 10
0.553598
 20
-3.903496
  0
VERTEX
  8
PLAN_1
  6
CONTINUOUS
 10
0.546201
 20
-3.906949
  0
VERTEX
  8
PLAN_1
  6
CONTINUOUS
 10
0.539791
 20
-3.909413
  0
VERTEX
  8
PLAN_1
  6
CONTINUOUS
 10
0.532886
 20
-3.911386
  0
VERTEX
  8
PLAN_1
  6
CONTINUOUS
 10
0.526969
 20
-3.912866
  0
VERTEX
  8
PLAN_1
  6
CONTINUOUS
 10
0.516118
 20
-3.914346
  0
VERTEX
  8
PLAN_1
  6
CONTINUOUS
 10
0.508224
 20
-3.914346
  0
VERTEX
  8
PLAN_1
  6
CONTINUOUS
 10
0.499843
 20
-3.914346
  0
VERTEX
  8
PLAN_1
  6
CONTINUOUS
 10
0.491457
 20
-3.912866
  0
VERTEX
  8
PLAN_1
  6
CONTINUOUS
 10
0.483075
 20
-3.911386
  0
VERTEX
  8
PLAN_1
  6
CONTINUOUS
 10
0.475181
 20
-3.908921
  0
VERTEX
  8
PLAN_1
  6
CONTINUOUS
 10
0.467291
 20
-3.905469
  0
VERTEX
  8
PLAN_1
  6
CONTINUOUS
 10
0.459894
 20
-3.901031
  0
VERTEX
  8
PLAN_1
  6
CONTINUOUS
 10
0.452988
 20
-3.896098
  0
VERTEX
  8
PLAN_1
  6
CONTINUOUS
 10
0.446579
 20
-3.890181
  0
VERTEX
  8
PLAN_1
  6
CONTINUOUS
 10
0.443618
 20
-3.886728
  0
VERTEX
  8
PLAN_1
  6
CONTINUOUS
 10
0.440661
 20
-3.883276
  0
VERTEX
  8
PLAN_1
  6
CONTINUOUS
 10
0.437701
 20
-3.879823
  0
VERTEX
  8
PLAN_1
  6
CONTINUOUS
 10
0.435236
 20
-3.875878
  0
VERTEX
  8
PLAN_1
  6
CONTINUOUS
 10
0.432768
 20
-3.871437
  0
VERTEX
  8
PLAN_1
  6
CONTINUOUS
 10
0.430303
 20
-3.867000
  0
VERTEX
  8
PLAN_1
  6
CONTINUOUS
 10
0.428331
 20
-3.862563
  0
VERTEX
  8
PLAN_1
  6
CONTINUOUS
 10
0.426358
 20
-3.857138
  0
VERTEX
  8
PLAN_1
  6
CONTINUOUS
 10
0.424386
 20
-3.852205
  0
VERTEX
  8
PLAN_1
  6
CONTINUOUS
 10
0.422906
 20
-3.846780
  0
VERTEX
  8
PLAN_1
  6
CONTINUOUS
 10
0.421917
 20
-3.840862
  0
VERTEX
  8
PLAN_1
  6
CONTINUOUS
 10
0.420933
 20
-3.834945
  0
VERTEX
  8
PLAN_1
  6
CONTINUOUS
 10
0.419945
 20
-3.829024
  0
VERTEX
  8
PLAN_1
  6
CONTINUOUS
 10
0.418961
 20
-3.822122
  0
VERTEX
  8
PLAN_1
  6
CONTINUOUS
 10
0.418961
 20
-3.815709
  0
VERTEX
  8
PLAN_1
  6
CONTINUOUS
 10
0.418465
 20
-3.808311
  0
VERTEX
  8
PLAN_1
  6
CONTINUOUS
 10
0.418961
 20
-3.796969
  0
VERTEX
  8
PLAN_1
  6
CONTINUOUS
 10
0.420441
 20
-3.786610
  0
VERTEX
  8
PLAN_1
  6
CONTINUOUS
 10
0.422413
 20
-3.776256
  0
VERTEX
  8
PLAN_1
  6
CONTINUOUS
 10
0.424878
 20
-3.766390
  0
VERTEX
  8
PLAN_1
  6
CONTINUOUS
 10
0.428331
 20
-3.757020
  0
VERTEX
  8
PLAN_1
  6
CONTINUOUS
 10
0.432768
 20
-3.748638
  0
VERTEX
  8
PLAN_1
  6
CONTINUOUS
 10
0.437701
 20
-3.740744
  0
VERTEX
  8
PLAN_1
  6
CONTINUOUS
 10
0.443618
 20
-3.733346
  0
VERTEX
  8
PLAN_1
  6
CONTINUOUS
 10
0.446579
 20
-3.730390
  0
VERTEX
  8
PLAN_1
  6
CONTINUOUS
 10
0.449535
 20
-3.726937
  0
VERTEX
  8
PLAN_1
  6
CONTINUOUS
 10
0.452988
 20
-3.723976
  0
VERTEX
  8
PLAN_1
  6
CONTINUOUS
 10
0.456933
 20
-3.721512
  0
VERTEX
  8
PLAN_1
  6
CONTINUOUS
 10
0.460386
 20
-3.718551
  0
VERTEX
  8
PLAN_1
  6
CONTINUOUS
 10
0.464331
 20
-3.716579
  0
VERTEX
  8
PLAN_1
  6
CONTINUOUS
 10
0.468280
 20
-3.714114
  0
VERTEX
  8
PLAN_1
  6
CONTINUOUS
 10
0.472717
 20
-3.712142
  0
VERTEX
  8
PLAN_1
  6
CONTINUOUS
 10
0.477154
 20
-3.710661
  0
VERTEX
  8
PLAN_1
  6
CONTINUOUS
 10
0.481594
 20
-3.709181
  0
VERTEX
  8
PLAN_1
  6
CONTINUOUS
 10
0.486031
 20
-3.707701
  0
VERTEX
  8
PLAN_1
  6
CONTINUOUS
 10
0.490965
 20
-3.706717
  0
VERTEX
  8
PLAN_1
  6
CONTINUOUS
 10
0.495898
 20
-3.705728
  0
VERTEX
  8
PLAN_1
  6
CONTINUOUS
 10
0.501323
 20
-3.705236
  0
VERTEX
  8
PLAN_1
  6
CONTINUOUS
 10
0.506252
 20
-3.704744
  0
VERTEX
  8
PLAN_1
  6
CONTINUOUS
 10
0.511677
 20
-3.704744
  0
VERTEX
  8
PLAN_1
  6
CONTINUOUS
 10
0.521047
 20
-3.705236
  0
VERTEX
  8
PLAN_1
  6
CONTINUOUS
 10
0.529925
 20
-3.706220
  0
VERTEX
  8
PLAN_1
  6
CONTINUOUS
 10
0.537815
 20
-3.707701
  0
VERTEX
  8
PLAN_1
  6
CONTINUOUS
 10
0.545709
 20
-3.710169
  0
VERTEX
  8
PLAN_1
  6
CONTINUOUS
 10
0.552610
 20
-3.713126
  0
VERTEX
  8
PLAN_1
  6
CONTINUOUS
 10
0.559024
 20
-3.716579
  0
VERTEX
  8
PLAN_1
  6
CONTINUOUS
 10
0.564941
 20
-3.720524
  0
VERTEX
  8
PLAN_1
  6
CONTINUOUS
 10
0.570366
 20
-3.724965
  0
VERTEX
  8
PLAN_1
  6
CONTINUOUS
 10
0.575299
 20
-3.729402
  0
VERTEX
  8
PLAN_1
  6
CONTINUOUS
 10
0.579736
 20
-3.734827
  0
VERTEX
  8
PLAN_1
  6
CONTINUOUS
 10
0.583189
 20
-3.739760
  0
VERTEX
  8
PLAN_1
  6
CONTINUOUS
 10
0.586150
 20
-3.745677
  0
VERTEX
  8
PLAN_1
  6
CONTINUOUS
 10
0.589106
 20
-3.751594
  0
VERTEX
  8
PLAN_1
  6
CONTINUOUS
 10
0.591079
 20
-3.757512
  0
VERTEX
  8
PLAN_1
  6
CONTINUOUS
 10
0.592559
 20
-3.763433
  0
VERTEX
  8
PLAN_1
  6
CONTINUOUS
 10
0.593547
 20
-3.769843
  0
VERTEX
  8
PLAN_1
  6
CONTINUOUS
 10
0.567409
 20
-3.769843
  0
SEQEND
  8
0
  0
POLYLINE
  8
PLAN_1
  6
CONTINUOUS
 66
     1
 40
0.003000
 41
0.003000
  0
VERTEX
  8
PLAN_1
  6
CONTINUOUS
 10
0.655193
 20
-3.909413
  0
VERTEX
  8
PLAN_1
  6
CONTINUOUS
 10
0.628071
 20
-3.909413
  0
VERTEX
  8
PLAN_1
  6
CONTINUOUS
 10
0.628071
 20
-3.710169
  0
VERTEX
  8
PLAN_1
  6
CONTINUOUS
 10
0.655193
 20
-3.710169
  0
VERTEX
  8
PLAN_1
  6
CONTINUOUS
 10
0.655193
 20
-3.806339
  0
VERTEX
  8
PLAN_1
  6
CONTINUOUS
 10
0.751858
 20
-3.710169
  0
VERTEX
  8
PLAN_1
  6
CONTINUOUS
 10
0.788846
 20
-3.710169
  0
VERTEX
  8
PLAN_1
  6
CONTINUOUS
 10
0.705992
 20
-3.790555
  0
VERTEX
  8
PLAN_1
  6
CONTINUOUS
 10
0.790819
 20
-3.909413
  0
VERTEX
  8
PLAN_1
  6
CONTINUOUS
 10
0.756295
 20
-3.909413
  0
VERTEX
  8
PLAN_1
  6
CONTINUOUS
 10
0.686264
 20
-3.809299
  0
VERTEX
  8
PLAN_1
  6
CONTINUOUS
 10
0.655193
 20
-3.839382
  0
VERTEX
  8
PLAN_1
  6
CONTINUOUS
 10
0.655193
 20
-3.909413
  0
SEQEND
  8
0
  0
POLYLINE
  8
PLAN_1
  6
CONTINUOUS
 66
     1
 40
0.003000
 41
0.003000
  0
VERTEX
  8
PLAN_1
  6
CONTINUOUS
 10
0.898335
 20
-3.909413
  0
VERTEX
  8
PLAN_1
  6
CONTINUOUS
 10
0.871209
 20
-3.909413
  0
VERTEX
  8
PLAN_1
  6
CONTINUOUS
 10
0.871209
 20
-3.829024
  0
VERTEX
  8
PLAN_1
  6
CONTINUOUS
 10
0.796244
 20
-3.710169
  0
VERTEX
  8
PLAN_1
  6
CONTINUOUS
 10
0.827315
 20
-3.710169
  0
VERTEX
  8
PLAN_1
  6
CONTINUOUS
 10
0.884524
 20
-3.805846
  0
VERTEX
  8
PLAN_1
  6
CONTINUOUS
 10
0.941732
 20
-3.710169
  0
VERTEX
  8
PLAN_1
  6
CONTINUOUS
 10
0.973299
 20
-3.710169
  0
VERTEX
  8
PLAN_1
  6
CONTINUOUS
 10
0.898335
 20
-3.829024
  0
VERTEX
  8
PLAN_1
  6
CONTINUOUS
 10
0.898335
 20
-3.909413
  0
SEQEND
  8
0
  0
POLYLINE
  8
PLAN_1
  6
CONTINUOUS
 66
     1
 40
0.003000
 41
0.003000
  0
VERTEX
  8
PLAN_1
  6
CONTINUOUS
 10
1.018177
 20
-3.795488
  0
VERTEX
  8
PLAN_1
  6
CONTINUOUS
 10
1.021630
 20
-3.793516
  0
VERTEX
  8
PLAN_1
  6
CONTINUOUS
 10
1.025083
 20
-3.791051
  0
VERTEX
  8
PLAN_1
  6
CONTINUOUS
 10
1.029520
 20
-3.789079
  0
VERTEX
  8
PLAN_1
  6
CONTINUOUS
 10
1.033961
 20
-3.787106
  0
VERTEX
  8
PLAN_1
  6
CONTINUOUS
 10
1.038398
 20
-3.785626
  0
VERTEX
  8
PLAN_1
  6
CONTINUOUS
 10
1.043823
 20
-3.784638
  0
VERTEX
  8
PLAN_1
  6
CONTINUOUS
 10
1.049740
 20
-3.783654
  0
VERTEX
  8
PLAN_1
  6
CONTINUOUS
 10
1.056154
 20
-3.783654
  0
VERTEX
  8
PLAN_1
  6
CONTINUOUS
 10
1.062071
 20
-3.783654
  0
VERTEX
  8
PLAN_1
  6
CONTINUOUS
 10
1.067988
 20
-3.784638
  0
VERTEX
  8
PLAN_1
  6
CONTINUOUS
 10
1.073906
 20
-3.785626
  0
VERTEX
  8
PLAN_1
  6
CONTINUOUS
 10
1.079331
 20
-3.787598
  0
VERTEX
  8
PLAN_1
  6
CONTINUOUS
 10
1.084756
 20
-3.790063
  0
VERTEX
  8
PLAN_1
  6
CONTINUOUS
 10
1.090181
 20
-3.792528
  0
VERTEX
  8
PLAN_1
  6
CONTINUOUS
 10
1.095114
 20
-3.795980
  0
VERTEX
  8
PLAN_1
  6
CONTINUOUS
 10
1.100047
 20
-3.799433
  0
VERTEX
  8
PLAN_1
  6
CONTINUOUS
 10
1.104484
 20
-3.803874
  0
VERTEX
  8
PLAN_1
  6
CONTINUOUS
 10
1.108429
 20
-3.808311
  0
VERTEX
  8
PLAN_1
  6
CONTINUOUS
 10
1.111882
 20
-3.813736
  0
VERTEX
  8
PLAN_1
  6
CONTINUOUS
 10
1.114843
 20
-3.819161
  0
VERTEX
  8
PLAN_1
  6
CONTINUOUS
 10
1.116815
 20
-3.825079
  0
VERTEX
  8
PLAN_1
  6
CONTINUOUS
 10
1.118787
 20
-3.831492
  0
VERTEX
  8
PLAN_1
  6
CONTINUOUS
 10
1.119772
 20
-3.838394
  0
VERTEX
  8
PLAN_1
  6
CONTINUOUS
 10
1.120268
 20
-3.845795
  0
VERTEX
  8
PLAN_1
  6
CONTINUOUS
 10
1.120268
 20
-3.850232
  0
VERTEX
  8
PLAN_1
  6
CONTINUOUS
 10
1.119772
 20
-3.855165
  0
VERTEX
  8
PLAN_1
  6
CONTINUOUS
 10
1.118787
 20
-3.860094
  0
VERTEX
  8
PLAN_1
  6
CONTINUOUS
 10
1.117799
 20
-3.866016
  0
VERTEX
  8
PLAN_1
  6
CONTINUOUS
 10
1.115827
 20
-3.871437
  0
VERTEX
  8
PLAN_1
  6
CONTINUOUS
 10
1.113854
 20
-3.877358
  0
VERTEX
  8
PLAN_1
  6
CONTINUOUS
 10
1.110898
 20
-3.882783
  0
VERTEX
  8
PLAN_1
  6
CONTINUOUS
 10
1.107937
 20
-3.888209
  0
VERTEX
  8
PLAN_1
  6
CONTINUOUS
 10
1.103500
 20
-3.893634
  0
VERTEX
  8
PLAN_1
  6
CONTINUOUS
 10
1.098567
 20
-3.898563
  0
VERTEX
  8
PLAN_1
  6
CONTINUOUS
 10
1.092650
 20
-3.903004
  0
VERTEX
  8
PLAN_1
  6
CONTINUOUS
 10
1.086236
 20
-3.906949
  0
VERTEX
  8
PLAN_1
  6
CONTINUOUS
 10
1.082291
 20
-3.908429
  0
VERTEX
  8
PLAN_1
  6
CONTINUOUS
 10
1.078839
 20
-3.909906
  0
VERTEX
  8
PLAN_1
  6
CONTINUOUS
 10
1.074402
 20
-3.911386
  0
VERTEX
  8
PLAN_1
  6
CONTINUOUS
 10
1.069961
 20
-3.912374
  0
VERTEX
  8
PLAN_1
  6
CONTINUOUS
 10
1.065031
 20
-3.913358
  0
VERTEX
  8
PLAN_1
  6
CONTINUOUS
 10
1.060098
 20
-3.913854
  0
VERTEX
  8
PLAN_1
  6
CONTINUOUS
 10
1.055165
 20
-3.914346
  0
VERTEX
  8
PLAN_1
  6
CONTINUOUS
 10
1.049248
 20
-3.914346
  0
VERTEX
  8
PLAN_1
  6
CONTINUOUS
 10
1.044315
 20
-3.914346
  0
VERTEX
  8
PLAN_1
  6
CONTINUOUS
 10
1.039386
 20
-3.913854
  0
VERTEX
  8
PLAN_1
  6
CONTINUOUS
 10
1.034453
 20
-3.913358
  0
VERTEX
  8
PLAN_1
  6
CONTINUOUS
 10
1.029520
 20
-3.912374
  0
VERTEX
  8
PLAN_1
  6
CONTINUOUS
 10
1.024591
 20
-3.910894
  0
VERTEX
  8
PLAN_1
  6
CONTINUOUS
 10
1.019657
 20
-3.908921
  0
VERTEX
  8
PLAN_1
  6
CONTINUOUS
 10
1.014724
 20
-3.906457
  0
VERTEX
  8
PLAN_1
  6
CONTINUOUS
 10
1.010287
 20
-3.903988
  0
VERTEX
  8
PLAN_1
  6
CONTINUOUS
 10
1.005846
 20
-3.900535
  0
VERTEX
  8
PLAN_1
  6
CONTINUOUS
 10
1.001902
 20
-3.897083
  0
VERTEX
  8
PLAN_1
  6
CONTINUOUS
 10
0.997957
 20
-3.892646
  0
VERTEX
  8
PLAN_1
  6
CONTINUOUS
 10
0.994504
 20
-3.887220
  0
VERTEX
  8
PLAN_1
  6
CONTINUOUS
 10
0.991547
 20
-3.881795
  0
VERTEX
  8
PLAN_1
  6
CONTINUOUS
 10
0.989571
 20
-3.875386
  0
VERTEX
  8
PLAN_1
  6
CONTINUOUS
 10
0.987598
 20
-3.868480
  0
VERTEX
  8
PLAN_1
  6
CONTINUOUS
 10
0.986614
 20
-3.860591
  0
VERTEX
  8
PLAN_1
  6
CONTINUOUS
 10
1.011768
 20
-3.860591
  0
VERTEX
  8
PLAN_1
  6
CONTINUOUS
 10
1.012260
 20
-3.865028
  0
VERTEX
  8
PLAN_1
  6
CONTINUOUS
 10
1.013244
 20
-3.868480
  0
VERTEX
  8
PLAN_1
  6
CONTINUOUS
 10
1.014724
 20
-3.871933
  0
VERTEX
  8
PLAN_1
  6
CONTINUOUS
 10
1.016205
 20
-3.875386
  0
VERTEX
  8
PLAN_1
  6
CONTINUOUS
 10
1.017685
 20
-3.878343
  0
VERTEX
  8
PLAN_1
  6
CONTINUOUS
 10
1.020150
 20
-3.880811
  0
VERTEX
  8
PLAN_1
  6
CONTINUOUS
 10
1.022614
 20
-3.883276
  0
VERTEX
  8
PLAN_1
  6
CONTINUOUS
 10
1.025083
 20
-3.885740
  0
VERTEX
  8
PLAN_1
  6
CONTINUOUS
 10
1.028039
 20
-3.887220
  0
VERTEX
  8
PLAN_1
  6
CONTINUOUS
 10
1.031000
 20
-3.889193
  0
VERTEX
  8
PLAN_1
  6
CONTINUOUS
 10
1.033961
 20
-3.890181
  0
VERTEX
  8
PLAN_1
  6
CONTINUOUS
 10
1.037413
 20
-3.891657
  0
VERTEX
  8
PLAN_1
  6
CONTINUOUS
 10
1.041358
 20
-3.892154
  0
VERTEX
  8
PLAN_1
  6
CONTINUOUS
 10
1.044811
 20
-3.893138
  0
VERTEX
  8
PLAN_1
  6
CONTINUOUS
 10
1.048756
 20
-3.893138
  0
VERTEX
  8
PLAN_1
  6
CONTINUOUS
 10
1.053193
 20
-3.893634
  0
VERTEX
  8
PLAN_1
  6
CONTINUOUS
 10
1.057634
 20
-3.893138
  0
VERTEX
  8
PLAN_1
  6
CONTINUOUS
 10
1.062071
 20
-3.892646
  0
VERTEX
  8
PLAN_1
  6
CONTINUOUS
 10
1.066016
 20
-3.891165
  0
VERTEX
  8
PLAN_1
  6
CONTINUOUS
 10
1.069961
 20
-3.889685
  0
VERTEX
  8
PLAN_1
  6
CONTINUOUS
 10
1.073906
 20
-3.888209
  0
VERTEX
  8
PLAN_1
  6
CONTINUOUS
 10
1.076866
 20
-3.885740
  0
VERTEX
  8
PLAN_1
  6
CONTINUOUS
 10
1.080319
 20
-3.883276
  0
VERTEX
  8
PLAN_1
  6
CONTINUOUS
 10
1.082783
 20
-3.880315
  0
VERTEX
  8
PLAN_1
  6
CONTINUOUS
 10
1.085744
 20
-3.876862
  0
VERTEX
  8
PLAN_1
  6
CONTINUOUS
 10
1.087717
 20
-3.873413
  0
VERTEX
  8
PLAN_1
  6
CONTINUOUS
 10
1.089689
 20
-3.869961
  0
VERTEX
  8
PLAN_1
  6
CONTINUOUS
 10
1.091169
 20
-3.866016
  0
VERTEX
  8
PLAN_1
  6
CONTINUOUS
 10
1.092650
 20
-3.862067
  0
VERTEX
  8
PLAN_1
  6
CONTINUOUS
 10
1.093142
 20
-3.857630
  0
VERTEX
  8
PLAN_1
  6
CONTINUOUS
 10
1.094126
 20
-3.853193
  0
VERTEX
  8
PLAN_1
  6
CONTINUOUS
 10
1.094126
 20
-3.848752
  0
VERTEX
  8
PLAN_1
  6
CONTINUOUS
 10
1.093634
 20
-3.843819
  0
VERTEX
  8
PLAN_1
  6
CONTINUOUS
 10
1.093142
 20
-3.838890
  0
VERTEX
  8
PLAN_1
  6
CONTINUOUS
 10
1.092154
 20
-3.834449
  0
VERTEX
  8
PLAN_1
  6
CONTINUOUS
 10
1.090677
 20
-3.830012
  0
VERTEX
  8
PLAN_1
  6
CONTINUOUS
 10
1.088701
 20
-3.826067
  0
VERTEX
  8
PLAN_1
  6
CONTINUOUS
 10
1.086728
 20
-3.822614
  0
VERTEX
  8
PLAN_1
  6
CONTINUOUS
 10
1.084264
 20
-3.819654
  0
VERTEX
  8
PLAN_1
  6
CONTINUOUS
 10
1.081303
 20
-3.816697
  0
VERTEX
  8
PLAN_1
  6
CONTINUOUS
 10
1.078346
 20
-3.814228
  0
VERTEX
  8
PLAN_1
  6
CONTINUOUS
 10
1.074894
 20
-3.811764
  0
VERTEX
  8
PLAN_1
  6
CONTINUOUS
 10
1.071441
 20
-3.809791
  0
VERTEX
  8
PLAN_1
  6
CONTINUOUS
 10
1.067496
 20
-3.808311
  0
VERTEX
  8
PLAN_1
  6
CONTINUOUS
 10
1.063551
 20
-3.806831
  0
VERTEX
  8
PLAN_1
  6
CONTINUOUS
 10
1.059606
 20
-3.806339
  0
VERTEX
  8
PLAN_1
  6
CONTINUOUS
 10
1.055165
 20
-3.805846
  0
VERTEX
  8
PLAN_1
  6
CONTINUOUS
 10
1.050728
 20
-3.805350
  0
VERTEX
  8
PLAN_1
  6
CONTINUOUS
 10
1.045303
 20
-3.805846
  0
VERTEX
  8
PLAN_1
  6
CONTINUOUS
 10
1.040370
 20
-3.806831
  0
VERTEX
  8
PLAN_1
  6
CONTINUOUS
 10
1.035437
 20
-3.808311
  0
VERTEX
  8
PLAN_1
  6
CONTINUOUS
 10
1.031000
 20
-3.810283
  0
VERTEX
  8
PLAN_1
  6
CONTINUOUS
 10
1.026563
 20
-3.812752
  0
VERTEX
  8
PLAN_1
  6
CONTINUOUS
 10
1.022122
 20
-3.816201
  0
VERTEX
  8
PLAN_1
  6
CONTINUOUS
 10
1.018177
 20
-3.819654
  0
VERTEX
  8
PLAN_1
  6
CONTINUOUS
 10
1.014724
 20
-3.824094
  0
VERTEX
  8
PLAN_1
  6
CONTINUOUS
 10
0.993520
 20
-3.823106
  0
VERTEX
  8
PLAN_1
  6
CONTINUOUS
 10
1.008315
 20
-3.718059
  0
VERTEX
  8
PLAN_1
  6
CONTINUOUS
 10
1.109417
 20
-3.718059
  0
VERTEX
  8
PLAN_1
  6
CONTINUOUS
 10
1.109417
 20
-3.742224
  0
VERTEX
  8
PLAN_1
  6
CONTINUOUS
 10
1.026563
 20
-3.742224
  0
VERTEX
  8
PLAN_1
  6
CONTINUOUS
 10
1.018177
 20
-3.795488
  0
SEQEND
  8
0
  0
POLYLINE
  8
PLAN_1
  6
CONTINUOUS
 66
     1
 40
0.003000
 41
0.003000
  0
VERTEX
  8
PLAN_1
  6
CONTINUOUS
 10
1.231724
 20
-3.909413
  0
VERTEX
  8
PLAN_1
  6
CONTINUOUS
 10
1.205587
 20
-3.909413
  0
VERTEX
  8
PLAN_1
  6
CONTINUOUS
 10
1.205587
 20
-3.770831
  0
VERTEX
  8
PLAN_1
  6
CONTINUOUS
 10
1.159720
 20
-3.770831
  0
VERTEX
  8
PLAN_1
  6
CONTINUOUS
 10
1.159720
 20
-3.751102
  0
VERTEX
  8
PLAN_1
  6
CONTINUOUS
 10
1.171063
 20
-3.750610
  0
VERTEX
  8
PLAN_1
  6
CONTINUOUS
 10
1.180433
 20
-3.749130
  0
VERTEX
  8
PLAN_1
  6
CONTINUOUS
 10
1.184382
 20
-3.748142
  0
VERTEX
  8
PLAN_1
  6
CONTINUOUS
 10
1.188327
 20
-3.747157
  0
VERTEX
  8
PLAN_1
  6
CONTINUOUS
 10
1.191780
 20
-3.745677
  0
VERTEX
  8
PLAN_1
  6
CONTINUOUS
 10
1.195232
 20
-3.743705
  0
VERTEX
  8
PLAN_1
  6
CONTINUOUS
 10
1.198189
 20
-3.741732
  0
VERTEX
  8
PLAN_1
  6
CONTINUOUS
 10
1.200654
 20
-3.739264
  0
VERTEX
  8
PLAN_1
  6
CONTINUOUS
 10
1.203122
 20
-3.736307
  0
VERTEX
  8
PLAN_1
  6
CONTINUOUS
 10
1.205587
 20
-3.732854
  0
VERTEX
  8
PLAN_1
  6
CONTINUOUS
 10
1.207559
 20
-3.729402
  0
VERTEX
  8
PLAN_1
  6
CONTINUOUS
 10
1.209039
 20
-3.724965
  0
VERTEX
  8
PLAN_1
  6
CONTINUOUS
 10
1.211012
 20
-3.719539
  0
VERTEX
  8
PLAN_1
  6
CONTINUOUS
 10
1.212492
 20
-3.714114
  0
VERTEX
  8
PLAN_1
  6
CONTINUOUS
 10
1.231724
 20
-3.714114
  0
VERTEX
  8
PLAN_1
  6
CONTINUOUS
 10
1.231724
 20
-3.909413
  0
SEQEND
  8
0
  0
SOLID
  8
PLAN_1
 10
1.286469
 20
-3.943937
 11
1.286469
 21
-3.930126
 12
1.440835
 22
-3.943937
 13
1.440835
 23
-3.930126
  0
POLYLINE
  8
PLAN_1
  6
CONTINUOUS
 66
     1
 40
0.003000
 41
0.003000
  0
VERTEX
  8
PLAN_1
  6
CONTINUOUS
 10
1.286469
 20
-3.943937
  0
VERTEX
  8
PLAN_1
  6
CONTINUOUS
 10
1.286469
 20
-3.930126
  0
VERTEX
  8
PLAN_1
  6
CONTINUOUS
 10
1.440835
 20
-3.930126
  0
VERTEX
  8
PLAN_1
  6
CONTINUOUS
 10
1.440835
 20
-3.943937
  0
VERTEX
  8
PLAN_1
  6
CONTINUOUS
 10
1.286469
 20
-3.943937
  0
SEQEND
  8
0
  0
POLYLINE
  8
PLAN_1
  6
CONTINUOUS
 66
     1
 40
0.003000
 41
0.003000
  0
VERTEX
  8
PLAN_1
  6
CONTINUOUS
 10
1.492126
 20
-3.909413
  0
VERTEX
  8
PLAN_1
  6
CONTINUOUS
 10
1.465000
 20
-3.909413
  0
VERTEX
  8
PLAN_1
  6
CONTINUOUS
 10
1.465000
 20
-3.710169
  0
VERTEX
  8
PLAN_1
  6
CONTINUOUS
 10
1.557228
 20
-3.710169
  0
VERTEX
  8
PLAN_1
  6
CONTINUOUS
 10
1.563638
 20
-3.710169
  0
VERTEX
  8
PLAN_1
  6
CONTINUOUS
 10
1.569555
 20
-3.710661
  0
VERTEX
  8
PLAN_1
  6
CONTINUOUS
 10
1.575476
 20
-3.711154
  0
VERTEX
  8
PLAN_1
  6
CONTINUOUS
 10
1.581394
 20
-3.712142
  0
VERTEX
  8
PLAN_1
  6
CONTINUOUS
 10
1.586819
 20
-3.713622
  0
VERTEX
  8
PLAN_1
  6
CONTINUOUS
 10
1.592244
 20
-3.715594
  0
VERTEX
  8
PLAN_1
  6
CONTINUOUS
 10
1.597669
 20
-3.718059
  0
VERTEX
  8
PLAN_1
  6
CONTINUOUS
 10
1.602106
 20
-3.721020
  0
VERTEX
  8
PLAN_1
  6
CONTINUOUS
 10
1.606547
 20
-3.723976
  0
VERTEX
  8
PLAN_1
  6
CONTINUOUS
 10
1.610492
 20
-3.727921
  0
VERTEX
  8
PLAN_1
  6
CONTINUOUS
 10
1.614437
 20
-3.732362
  0
VERTEX
  8
PLAN_1
  6
CONTINUOUS
 10
1.617394
 20
-3.737291
  0
VERTEX
  8
PLAN_1
  6
CONTINUOUS
 10
1.619370
 20
-3.742717
  0
VERTEX
  8
PLAN_1
  6
CONTINUOUS
 10
1.621343
 20
-3.749130
  0
VERTEX
  8
PLAN_1
  6
CONTINUOUS
 10
1.622327
 20
-3.756035
  0
VERTEX
  8
PLAN_1
  6
CONTINUOUS
 10
1.622819
 20
-3.763433
  0
VERTEX
  8
PLAN_1
  6
CONTINUOUS
 10
1.622819
 20
-3.768858
  0
VERTEX
  8
PLAN_1
  6
CONTINUOUS
 10
1.622327
 20
-3.773787
  0
VERTEX
  8
PLAN_1
  6
CONTINUOUS
 10
1.621343
 20
-3.778228
  0
VERTEX
  8
PLAN_1
  6
CONTINUOUS
 10
1.620354
 20
-3.782173
  0
VERTEX
  8
PLAN_1
  6
CONTINUOUS
 10
1.618874
 20
-3.786118
  0
VERTEX
  8
PLAN_1
  6
CONTINUOUS
 10
1.617394
 20
-3.789571
  0
VERTEX
  8
PLAN_1
  6
CONTINUOUS
 10
1.615421
 20
-3.792528
  0
VERTEX
  8
PLAN_1
  6
CONTINUOUS
 10
1.613945
 20
-3.795488
  0
VERTEX
  8
PLAN_1
  6
CONTINUOUS
 10
1.609504
 20
-3.800421
  0
VERTEX
  8
PLAN_1
  6
CONTINUOUS
 10
1.604571
 20
-3.804858
  0
VERTEX
  8
PLAN_1
  6
CONTINUOUS
 10
1.600134
 20
-3.808311
  0
VERTEX
  8
PLAN_1
  6
CONTINUOUS
 10
1.595201
 20
-3.811272
  0
VERTEX
  8
PLAN_1
  6
CONTINUOUS
 10
1.599150
 20
-3.813244
  0
VERTEX
  8
PLAN_1
  6
CONTINUOUS
 10
1.603587
 20
-3.815217
  0
VERTEX
  8
PLAN_1
  6
CONTINUOUS
 10
1.607531
 20
-3.817681
  0
VERTEX
  8
PLAN_1
  6
CONTINUOUS
 10
1.610984
 20
-3.821134
  0
VERTEX
  8
PLAN_1
  6
CONTINUOUS
 10
1.612465
 20
-3.823598
  0
VERTEX
  8
PLAN_1
  6
CONTINUOUS
 10
1.613945
 20
-3.826067
  0
VERTEX
  8
PLAN_1
  6
CONTINUOUS
 10
1.614929
 20
-3.828531
  0
VERTEX
  8
PLAN_1
  6
CONTINUOUS
 10
1.616409
 20
-3.831984
  0
VERTEX
  8
PLAN_1
  6
CONTINUOUS
 10
1.617394
 20
-3.835437
  0
VERTEX
  8
PLAN_1
  6
CONTINUOUS
 10
1.617890
 20
-3.839382
  0
VERTEX
  8
PLAN_1
  6
CONTINUOUS
 10
1.618382
 20
-3.843819
  0
VERTEX
  8
PLAN_1
  6
CONTINUOUS
 10
1.618874
 20
-3.848752
  0
VERTEX
  8
PLAN_1
  6
CONTINUOUS
 10
1.620354
 20
-3.884756
  0
VERTEX
  8
PLAN_1
  6
CONTINUOUS
 10
1.620846
 20
-3.888701
  0
VERTEX
  8
PLAN_1
  6
CONTINUOUS
 10
1.620846
 20
-3.892154
  0
VERTEX
  8
PLAN_1
  6
CONTINUOUS
 10
1.621835
 20
-3.894618
  0
VERTEX
  8
PLAN_1
  6
CONTINUOUS
 10
1.622327
 20
-3.897083
  0
VERTEX
  8
PLAN_1
  6
CONTINUOUS
 10
1.623807
 20
-3.899551
  0
VERTEX
  8
PLAN_1
  6
CONTINUOUS
 10
1.625780
 20
-3.901031
  0
VERTEX
  8
PLAN_1
  6
CONTINUOUS
 10
1.627752
 20
-3.903004
  0
VERTEX
  8
PLAN_1
  6
CONTINUOUS
 10
1.630713
 20
-3.904976
  0
VERTEX
  8
PLAN_1
  6
CONTINUOUS
 10
1.630713
 20
-3.909413
  0
VERTEX
  8
PLAN_1
  6
CONTINUOUS
 10
1.597669
 20
-3.909413
  0
VERTEX
  8
PLAN_1
  6
CONTINUOUS
 10
1.596189
 20
-3.903988
  0
VERTEX
  8
PLAN_1
  6
CONTINUOUS
 10
1.595201
 20
-3.897579
  0
VERTEX
  8
PLAN_1
  6
CONTINUOUS
 10
1.594217
 20
-3.890181
  0
VERTEX
  8
PLAN_1
  6
CONTINUOUS
 10
1.593724
 20
-3.882287
  0
VERTEX
  8
PLAN_1
  6
CONTINUOUS
 10
1.593228
 20
-3.875386
  0
VERTEX
  8
PLAN_1
  6
CONTINUOUS
 10
1.593228
 20
-3.868480
  0
VERTEX
  8
PLAN_1
  6
CONTINUOUS
 10
1.592736
 20
-3.863055
  0
VERTEX
  8
PLAN_1
  6
CONTINUOUS
 10
1.592736
 20
-3.859110
  0
VERTEX
  8
PLAN_1
  6
CONTINUOUS
 10
1.592736
 20
-3.853193
  0
VERTEX
  8
PLAN_1
  6
CONTINUOUS
 10
1.591748
 20
-3.846780
  0
VERTEX
  8
PLAN_1
  6
CONTINUOUS
 10
1.591256
 20
-3.843819
  0
VERTEX
  8
PLAN_1
  6
CONTINUOUS
 10
1.590272
 20
-3.840862
  0
VERTEX
  8
PLAN_1
  6
CONTINUOUS
 10
1.588791
 20
-3.837902
  0
VERTEX
  8
PLAN_1
  6
CONTINUOUS
 10
1.587311
 20
-3.835437
  0
VERTEX
  8
PLAN_1
  6
CONTINUOUS
 10
1.585339
 20
-3.832972
  0
VERTEX
  8
PLAN_1
  6
CONTINUOUS
 10
1.582874
 20
-3.830504
  0
VERTEX
  8
PLAN_1
  6
CONTINUOUS
 10
1.579913
 20
-3.828531
  0
VERTEX
  8
PLAN_1
  6
CONTINUOUS
 10
1.576461
 20
-3.827051
  0
VERTEX
  8
PLAN_1
  6
CONTINUOUS
 10
1.572516
 20
-3.825571
  0
VERTEX
  8
PLAN_1
  6
CONTINUOUS
 10
1.568079
 20
-3.824587
  0
VERTEX
  8
PLAN_1
  6
CONTINUOUS
 10
1.563146
 20
-3.824094
  0
VERTEX
  8
PLAN_1
  6
CONTINUOUS
 10
1.557228
 20
-3.823598
  0
VERTEX
  8
PLAN_1
  6
CONTINUOUS
 10
1.492126
 20
-3.823598
  0
VERTEX
  8
PLAN_1
  6
CONTINUOUS
 10
1.492126
 20
-3.909413
  0
SEQEND
  8
0
  0
POLYLINE
  8
PLAN_1
  6
CONTINUOUS
 66
     1
 40
0.003000
 41
0.003000
  0
VERTEX
  8
PLAN_1
  6
CONTINUOUS
 10
1.492126
 20
-3.800913
  0
VERTEX
  8
PLAN_1
  6
CONTINUOUS
 10
1.554760
 20
-3.800913
  0
VERTEX
  8
PLAN_1
  6
CONTINUOUS
 10
1.561665
 20
-3.800421
  0
VERTEX
  8
PLAN_1
  6
CONTINUOUS
 10
1.569063
 20
-3.799433
  0
VERTEX
  8
PLAN_1
  6
CONTINUOUS
 10
1.572516
 20
-3.798449
  0
VERTEX
  8
PLAN_1
  6
CONTINUOUS
 10
1.575969
 20
-3.797461
  0
VERTEX
  8
PLAN_1
  6
CONTINUOUS
 10
1.579421
 20
-3.795980
  0
VERTEX
  8
PLAN_1
  6
CONTINUOUS
 10
1.582378
 20
-3.794504
  0
VERTEX
  8
PLAN_1
  6
CONTINUOUS
 10
1.584846
 20
-3.792528
  0
VERTEX
  8
PLAN_1
  6
CONTINUOUS
 10
1.587311
 20
-3.790063
  0
VERTEX
  8
PLAN_1
  6
CONTINUOUS
 10
1.589776
 20
-3.787106
  0
VERTEX
  8
PLAN_1
  6
CONTINUOUS
 10
1.591256
 20
-3.784146
  0
VERTEX
  8
PLAN_1
  6
CONTINUOUS
 10
1.593228
 20
-3.780201
  0
VERTEX
  8
PLAN_1
  6
CONTINUOUS
 10
1.594217
 20
-3.776256
  0
VERTEX
  8
PLAN_1
  6
CONTINUOUS
 10
1.594709
 20
-3.771323
  0
VERTEX
  8
PLAN_1
  6
CONTINUOUS
 10
1.595201
 20
-3.766390
  0
VERTEX
  8
PLAN_1
  6
CONTINUOUS
 10
1.594709
 20
-3.760965
  0
VERTEX
  8
PLAN_1
  6
CONTINUOUS
 10
1.594217
 20
-3.756035
  0
VERTEX
  8
PLAN_1
  6
CONTINUOUS
 10
1.592736
 20
-3.751594
  0
VERTEX
  8
PLAN_1
  6
CONTINUOUS
 10
1.591256
 20
-3.748142
  0
VERTEX
  8
PLAN_1
  6
CONTINUOUS
 10
1.589283
 20
-3.744689
  0
VERTEX
  8
PLAN_1
  6
CONTINUOUS
 10
1.587311
 20
-3.742224
  0
VERTEX
  8
PLAN_1
  6
CONTINUOUS
 10
1.584846
 20
-3.739760
  0
VERTEX
  8
PLAN_1
  6
CONTINUOUS
 10
1.581886
 20
-3.738280
  0
VERTEX
  8
PLAN_1
  6
CONTINUOUS
 10
1.579421
 20
-3.736799
  0
VERTEX
  8
PLAN_1
  6
CONTINUOUS
 10
1.576461
 20
-3.735319
  0
VERTEX
  8
PLAN_1
  6
CONTINUOUS
 10
1.573504
 20
-3.734335
  0
VERTEX
  8
PLAN_1
  6
CONTINUOUS
 10
1.570543
 20
-3.733843
  0
VERTEX
  8
PLAN_1
  6
CONTINUOUS
 10
1.564626
 20
-3.733346
  0
VERTEX
  8
PLAN_1
  6
CONTINUOUS
 10
1.559201
 20
-3.732854
  0
VERTEX
  8
PLAN_1
  6
CONTINUOUS
 10
1.492126
 20
-3.732854
  0
VERTEX
  8
PLAN_1
  6
CONTINUOUS
 10
1.492126
 20
-3.800913
  0
SEQEND
  8
0
  0
SOLID
  8
PLAN_1
 10
1.694331
 20
-3.909413
 11
1.665236
 21
-3.909413
 12
1.694331
 22
-3.879823
 13
1.665236
 23
-3.879823
  0
POLYLINE
  8
PLAN_1
  6
CONTINUOUS
 66
     1
 40
0.003000
 41
0.003000
  0
VERTEX
  8
PLAN_1
  6
CONTINUOUS
 10
1.694331
 20
-3.909413
  0
VERTEX
  8
PLAN_1
  6
CONTINUOUS
 10
1.665236
 20
-3.909413
  0
VERTEX
  8
PLAN_1
  6
CONTINUOUS
 10
1.665236
 20
-3.879823
  0
VERTEX
  8
PLAN_1
  6
CONTINUOUS
 10
1.694331
 20
-3.879823
  0
VERTEX
  8
PLAN_1
  6
CONTINUOUS
 10
1.694331
 20
-3.909413
  0
SEQEND
  8
0
  0
POLYLINE
  8
PLAN_1
  6
CONTINUOUS
 66
     1
 40
0.003000
 41
0.003000
  0
VERTEX
  8
PLAN_1
  6
CONTINUOUS
 10
1.889138
 20
-3.909413
  0
VERTEX
  8
PLAN_1
  6
CONTINUOUS
 10
1.742169
 20
-3.909413
  0
VERTEX
  8
PLAN_1
  6
CONTINUOUS
 10
1.742169
 20
-3.710169
  0
VERTEX
  8
PLAN_1
  6
CONTINUOUS
 10
1.887661
 20
-3.710169
  0
VERTEX
  8
PLAN_1
  6
CONTINUOUS
 10
1.887661
 20
-3.733843
  0
VERTEX
  8
PLAN_1
  6
CONTINUOUS
 10
1.769295
 20
-3.733843
  0
VERTEX
  8
PLAN_1
  6
CONTINUOUS
 10
1.769295
 20
-3.794996
  0
VERTEX
  8
PLAN_1
  6
CONTINUOUS
 10
1.878291
 20
-3.794996
  0
VERTEX
  8
PLAN_1
  6
CONTINUOUS
 10
1.878291
 20
-3.818669
  0
VERTEX
  8
PLAN_1
  6
CONTINUOUS
 10
1.769295
 20
-3.818669
  0
VERTEX
  8
PLAN_1
  6
CONTINUOUS
 10
1.769295
 20
-3.885248
  0
VERTEX
  8
PLAN_1
  6
CONTINUOUS
 10
1.889138
 20
-3.885248
  0
VERTEX
  8
PLAN_1
  6
CONTINUOUS
 10
1.889138
 20
-3.909413
  0
SEQEND
  8
0
  0
POLYLINE
  8
PLAN_1
  6
CONTINUOUS
 66
     1
 40
0.003000
 41
0.003000
  0
VERTEX
  8
PLAN_1
  6
CONTINUOUS
 10
1.954240
 20
-3.909413
  0
VERTEX
  8
PLAN_1
  6
CONTINUOUS
 10
1.927606
 20
-3.909413
  0
VERTEX
  8
PLAN_1
  6
CONTINUOUS
 10
1.927606
 20
-3.710169
  0
VERTEX
  8
PLAN_1
  6
CONTINUOUS
 10
2.017366
 20
-3.710169
  0
VERTEX
  8
PLAN_1
  6
CONTINUOUS
 10
2.023780
 20
-3.710169
  0
VERTEX
  8
PLAN_1
  6
CONTINUOUS
 10
2.030189
 20
-3.711154
  0
VERTEX
  8
PLAN_1
  6
CONTINUOUS
 10
2.036110
 20
-3.712142
  0
VERTEX
  8
PLAN_1
  6
CONTINUOUS
 10
2.042028
 20
-3.714114
  0
VERTEX
  8
PLAN_1
  6
CONTINUOUS
 10
2.047453
 20
-3.716579
  0
VERTEX
  8
PLAN_1
  6
CONTINUOUS
 10
2.051890
 20
-3.719043
  0
VERTEX
  8
PLAN_1
  6
CONTINUOUS
 10
2.056331
 20
-3.722496
  0
VERTEX
  8
PLAN_1
  6
CONTINUOUS
 10
2.060768
 20
-3.725949
  0
VERTEX
  8
PLAN_1
  6
CONTINUOUS
 10
2.064220
 20
-3.729894
  0
VERTEX
  8
PLAN_1
  6
CONTINUOUS
 10
2.067177
 20
-3.734335
  0
VERTEX
  8
PLAN_1
  6
CONTINUOUS
 10
2.070138
 20
-3.738772
  0
VERTEX
  8
PLAN_1
  6
CONTINUOUS
 10
2.072110
 20
-3.743705
  0
VERTEX
  8
PLAN_1
  6
CONTINUOUS
 10
2.074083
 20
-3.748638
  0
VERTEX
  8
PLAN_1
  6
CONTINUOUS
 10
2.075071
 20
-3.754555
  0
VERTEX
  8
PLAN_1
  6
CONTINUOUS
 10
2.076055
 20
-3.759980
  0
VERTEX
  8
PLAN_1
  6
CONTINUOUS
 10
2.076055
 20
-3.765898
  0
VERTEX
  8
PLAN_1
  6
CONTINUOUS
 10
2.076055
 20
-3.771323
  0
VERTEX
  8
PLAN_1
  6
CONTINUOUS
 10
2.075563
 20
-3.776748
  0
VERTEX
  8
PLAN_1
  6
CONTINUOUS
 10
2.074575
 20
-3.781681
  0
VERTEX
  8
PLAN_1
  6
CONTINUOUS
 10
2.073098
 20
-3.787106
  0
VERTEX
  8
PLAN_1
  6
CONTINUOUS
 10
2.071126
 20
-3.792035
  0
VERTEX
  8
PLAN_1
  6
CONTINUOUS
 10
2.069154
 20
-3.796969
  0
VERTEX
  8
PLAN_1
  6
CONTINUOUS
 10
2.066193
 20
-3.801406
  0
VERTEX
  8
PLAN_1
  6
CONTINUOUS
 10
2.062740
 20
-3.805846
  0
VERTEX
  8
PLAN_1
  6
CONTINUOUS
 10
2.059287
 20
-3.810283
  0
VERTEX
  8
PLAN_1
  6
CONTINUOUS
 10
2.054850
 20
-3.813736
  0
VERTEX
  8
PLAN_1
  6
CONTINUOUS
 10
2.049917
 20
-3.817189
  0
VERTEX
  8
PLAN_1
  6
CONTINUOUS
 10
2.044492
 20
-3.819654
  0
VERTEX
  8
PLAN_1
  6
CONTINUOUS
 10
2.038575
 20
-3.822122
  0
VERTEX
  8
PLAN_1
  6
CONTINUOUS
 10
2.032161
 20
-3.823598
  0
VERTEX
  8
PLAN_1
  6
CONTINUOUS
 10
2.024764
 20
-3.824587
  0
VERTEX
  8
PLAN_1
  6
CONTINUOUS
 10
2.017366
 20
-3.825079
  0
VERTEX
  8
PLAN_1
  6
CONTINUOUS
 10
1.954240
 20
-3.825079
  0
VERTEX
  8
PLAN_1
  6
CONTINUOUS
 10
1.954240
 20
-3.909413
  0
SEQEND
  8
0
  0
POLYLINE
  8
PLAN_1
  6
CONTINUOUS
 66
     1
 40
0.003000
 41
0.003000
  0
VERTEX
  8
PLAN_1
  6
CONTINUOUS
 10
1.954240
 20
-3.801902
  0
VERTEX
  8
PLAN_1
  6
CONTINUOUS
 10
2.007996
 20
-3.801902
  0
VERTEX
  8
PLAN_1
  6
CONTINUOUS
 10
2.012437
 20
-3.801902
  0
VERTEX
  8
PLAN_1
  6
CONTINUOUS
 10
2.016874
 20
-3.801902
  0
VERTEX
  8
PLAN_1
  6
CONTINUOUS
 10
2.020819
 20
-3.800913
  0
VERTEX
  8
PLAN_1
  6
CONTINUOUS
 10
2.024764
 20
-3.800421
  0
VERTEX
  8
PLAN_1
  6
CONTINUOUS
 10
2.028217
 20
-3.799433
  0
VERTEX
  8
PLAN_1
  6
CONTINUOUS
 10
2.031669
 20
-3.797953
  0
VERTEX
  8
PLAN_1
  6
CONTINUOUS
 10
2.034630
 20
-3.795980
  0
VERTEX
  8
PLAN_1
  6
CONTINUOUS
 10
2.037094
 20
-3.794504
  0
VERTEX
  8
PLAN_1
  6
CONTINUOUS
 10
2.040055
 20
-3.792035
  0
VERTEX
  8
PLAN_1
  6
CONTINUOUS
 10
2.042028
 20
-3.789571
  0
VERTEX
  8
PLAN_1
  6
CONTINUOUS
 10
2.044000
 20
-3.786610
  0
VERTEX
  8
PLAN_1
  6
CONTINUOUS
 10
2.045480
 20
-3.783157
  0
VERTEX
  8
PLAN_1
  6
CONTINUOUS
 10
2.046957
 20
-3.779709
  0
VERTEX
  8
PLAN_1
  6
CONTINUOUS
 10
2.047945
 20
-3.775760
  0
VERTEX
  8
PLAN_1
  6
CONTINUOUS
 10
2.048437
 20
-3.771323
  0
VERTEX
  8
PLAN_1
  6
CONTINUOUS
 10
2.048437
 20
-3.766390
  0
VERTEX
  8
PLAN_1
  6
CONTINUOUS
 10
2.048437
 20
-3.761953
  0
VERTEX
  8
PLAN_1
  6
CONTINUOUS
 10
2.047945
 20
-3.757512
  0
VERTEX
  8
PLAN_1
  6
CONTINUOUS
 10
2.046957
 20
-3.754063
  0
VERTEX
  8
PLAN_1
  6
CONTINUOUS
 10
2.045480
 20
-3.750610
  0
VERTEX
  8
PLAN_1
  6
CONTINUOUS
 10
2.044000
 20
-3.747157
  0
VERTEX
  8
PLAN_1
  6
CONTINUOUS
 10
2.042028
 20
-3.744689
  0
VERTEX
  8
PLAN_1
  6
CONTINUOUS
 10
2.039559
 20
-3.742224
  0
VERTEX
  8
PLAN_1
  6
CONTINUOUS
 10
2.037094
 20
-3.740252
  0
VERTEX
  8
PLAN_1
  6
CONTINUOUS
 10
2.034134
 20
-3.738280
  0
VERTEX
  8
PLAN_1
  6
CONTINUOUS
 10
2.031177
 20
-3.736799
  0
VERTEX
  8
PLAN_1
  6
CONTINUOUS
 10
2.028217
 20
-3.735815
  0
VERTEX
  8
PLAN_1
  6
CONTINUOUS
 10
2.024764
 20
-3.734827
  0
VERTEX
  8
PLAN_1
  6
CONTINUOUS
 10
2.017366
 20
-3.733346
  0
VERTEX
  8
PLAN_1
  6
CONTINUOUS
 10
2.008984
 20
-3.732854
  0
VERTEX
  8
PLAN_1
  6
CONTINUOUS
 10
1.954240
 20
-3.732854
  0
VERTEX
  8
PLAN_1
  6
CONTINUOUS
 10
1.954240
 20
-3.801902
  0
SEQEND
  8
0
  0
POLYLINE
  8
PLAN_1
  6
CONTINUOUS
 66
     1
 40
0.003000
 41
0.003000
  0
VERTEX
  8
PLAN_1
  6
CONTINUOUS
 10
2.230421
 20
-3.768362
  0
VERTEX
  8
PLAN_1
  6
CONTINUOUS
 10
2.229437
 20
-3.762937
  0
VERTEX
  8
PLAN_1
  6
CONTINUOUS
 10
2.228449
 20
-3.757512
  0
VERTEX
  8
PLAN_1
  6
CONTINUOUS
 10
2.226969
 20
-3.753075
  0
VERTEX
  8
PLAN_1
  6
CONTINUOUS
 10
2.224996
 20
-3.749130
  0
VERTEX
  8
PLAN_1
  6
CONTINUOUS
 10
2.222531
 20
-3.745185
  0
VERTEX
  8
PLAN_1
  6
CONTINUOUS
 10
2.220067
 20
-3.741732
  0
VERTEX
  8
PLAN_1
  6
CONTINUOUS
 10
2.216614
 20
-3.738772
  0
VERTEX
  8
PLAN_1
  6
CONTINUOUS
 10
2.213161
 20
-3.736307
  0
VERTEX
  8
PLAN_1
  6
CONTINUOUS
 10
2.209709
 20
-3.734335
  0
VERTEX
  8
PLAN_1
  6
CONTINUOUS
 10
2.205764
 20
-3.732362
  0
VERTEX
  8
PLAN_1
  6
CONTINUOUS
 10
2.201819
 20
-3.730882
  0
VERTEX
  8
PLAN_1
  6
CONTINUOUS
 10
2.197874
 20
-3.729894
  0
VERTEX
  8
PLAN_1
  6
CONTINUOUS
 10
2.193433
 20
-3.728909
  0
VERTEX
  8
PLAN_1
  6
CONTINUOUS
 10
2.189488
 20
-3.728417
  0
VERTEX
  8
PLAN_1
  6
CONTINUOUS
 10
2.185051
 20
-3.727921
  0
VERTEX
  8
PLAN_1
  6
CONTINUOUS
 10
2.180610
 20
-3.727921
  0
VERTEX
  8
PLAN_1
  6
CONTINUOUS
 10
2.173705
 20
-3.727921
  0
VERTEX
  8
PLAN_1
  6
CONTINUOUS
 10
2.166307
 20
-3.728909
  0
VERTEX
  8
PLAN_1
  6
CONTINUOUS
 10
2.162858
 20
-3.729894
  0
VERTEX
  8
PLAN_1
  6
CONTINUOUS
 10
2.158909
 20
-3.730882
  0
VERTEX
  8
PLAN_1
  6
CONTINUOUS
 10
2.155461
 20
-3.732362
  0
VERTEX
  8
PLAN_1
  6
CONTINUOUS
 10
2.151512
 20
-3.733843
  0
VERTEX
  8
PLAN_1
  6
CONTINUOUS
 10
2.148059
 20
-3.735815
  0
VERTEX
  8
PLAN_1
  6
CONTINUOUS
 10
2.145102
 20
-3.738280
  0
VERTEX
  8
PLAN_1
  6
CONTINUOUS
 10
2.142638
 20
-3.741240
  0
VERTEX
  8
PLAN_1
  6
CONTINUOUS
 10
2.140169
 20
-3.744197
  0
VERTEX
  8
PLAN_1
  6
CONTINUOUS
 10
2.138197
 20
-3.748142
  0
VERTEX
  8
PLAN_1
  6
CONTINUOUS
 10
2.136717
 20
-3.752583
  0
VERTEX
  8
PLAN_1
  6
CONTINUOUS
 10
2.135732
 20
-3.757512
  0
VERTEX
  8
PLAN_1
  6
CONTINUOUS
 10
2.135240
 20
-3.762445
  0
VERTEX
  8
PLAN_1
  6
CONTINUOUS
 10
2.135240
 20
-3.765898
  0
VERTEX
  8
PLAN_1
  6
CONTINUOUS
 10
2.135732
 20
-3.768362
  0
VERTEX
  8
PLAN_1
  6
CONTINUOUS
 10
2.136224
 20
-3.770831
  0
VERTEX
  8
PLAN_1
  6
CONTINUOUS
 10
2.137213
 20
-3.773295
  0
VERTEX
  8
PLAN_1
  6
CONTINUOUS
 10
2.138197
 20
-3.775268
  0
VERTEX
  8
PLAN_1
  6
CONTINUOUS
 10
2.139677
 20
-3.777240
  0
VERTEX
  8
PLAN_1
  6
CONTINUOUS
 10
2.141157
 20
-3.779213
  0
VERTEX
  8
PLAN_1
  6
CONTINUOUS
 10
2.142638
 20
-3.780693
  0
VERTEX
  8
PLAN_1
  6
CONTINUOUS
 10
2.146087
 20
-3.783157
  0
VERTEX
  8
PLAN_1
  6
CONTINUOUS
 10
2.150035
 20
-3.785130
  0
VERTEX
  8
PLAN_1
  6
CONTINUOUS
 10
2.154472
 20
-3.786610
  0
VERTEX
  8
PLAN_1
  6
CONTINUOUS
 10
2.158909
 20
-3.788091
  0
VERTEX
  8
PLAN_1
  6
CONTINUOUS
 10
2.215626
 20
-3.800913
  0
VERTEX
  8
PLAN_1
  6
CONTINUOUS
 10
2.220559
 20
-3.802394
  0
VERTEX
  8
PLAN_1
  6
CONTINUOUS
 10
2.224996
 20
-3.803874
  0
VERTEX
  8
PLAN_1
  6
CONTINUOUS
 10
2.229437
 20
-3.805350
  0
VERTEX
  8
PLAN_1
  6
CONTINUOUS
 10
2.233874
 20
-3.807327
  0
VERTEX
  8
PLAN_1
  6
CONTINUOUS
 10
2.237819
 20
-3.809791
  0
VERTEX
  8
PLAN_1
  6
CONTINUOUS
 10
2.241272
 20
-3.812256
  0
VERTEX
  8
PLAN_1
  6
CONTINUOUS
 10
2.244724
 20
-3.815217
  0
VERTEX
  8
PLAN_1
  6
CONTINUOUS
 10
2.248177
 20
-3.818173
  0
VERTEX
  8
PLAN_1
  6
CONTINUOUS
 10
2.251138
 20
-3.821626
  0
VERTEX
  8
PLAN_1
  6
CONTINUOUS
 10
2.253602
 20
-3.825079
  0
VERTEX
  8
PLAN_1
  6
CONTINUOUS
 10
2.255575
 20
-3.829024
  0
VERTEX
  8
PLAN_1
  6
CONTINUOUS
 10
2.257547
 20
-3.833465
  0
VERTEX
  8
PLAN_1
  6
CONTINUOUS
 10
2.259028
 20
-3.837902
  0
VERTEX
  8
PLAN_1
  6
CONTINUOUS
 10
2.260012
 20
-3.843327
  0
VERTEX
  8
PLAN_1
  6
CONTINUOUS
 10
2.261000
 20
-3.848752
  0
VERTEX
  8
PLAN_1
  6
CONTINUOUS
 10
2.261000
 20
-3.854177
  0
VERTEX
  8
PLAN_1
  6
CONTINUOUS
 10
2.261000
 20
-3.858614
  0
VERTEX
  8
PLAN_1
  6
CONTINUOUS
 10
2.260508
 20
-3.862563
  0
VERTEX
  8
PLAN_1
  6
CONTINUOUS
 10
2.260012
 20
-3.866508
  0
VERTEX
  8
PLAN_1
  6
CONTINUOUS
 10
2.259028
 20
-3.870453
  0
VERTEX
  8
PLAN_1
  6
CONTINUOUS
 10
2.258039
 20
-3.873906
  0
VERTEX
  8
PLAN_1
  6
CONTINUOUS
 10
2.256563
 20
-3.877358
  0
VERTEX
  8
PLAN_1
  6
CONTINUOUS
 10
2.255083
 20
-3.880811
  0
VERTEX
  8
PLAN_1
  6
CONTINUOUS
 10
2.253602
 20
-3.883768
  0
VERTEX
  8
PLAN_1
  6
CONTINUOUS
 10
2.249657
 20
-3.889193
  0
VERTEX
  8
PLAN_1
  6
CONTINUOUS
 10
2.245217
 20
-3.894126
  0
VERTEX
  8
PLAN_1
  6
CONTINUOUS
 10
2.240287
 20
-3.898563
  0
VERTEX
  8
PLAN_1
  6
CONTINUOUS
 10
2.234862
 20
-3.902016
  0
VERTEX
  8
PLAN_1
  6
CONTINUOUS
 10
2.228945
 20
-3.905469
  0
VERTEX
  8
PLAN_1
  6
CONTINUOUS
 10
2.222531
 20
-3.907933
  0
VERTEX
  8
PLAN_1
  6
CONTINUOUS
 10
2.216122
 20
-3.909906
  0
VERTEX
  8
PLAN_1
  6
CONTINUOUS
 10
2.209709
 20
-3.911882
  0
VERTEX
  8
PLAN_1
  6
CONTINUOUS
 10
2.202803
 20
-3.912866
  0
VERTEX
  8
PLAN_1
  6
CONTINUOUS
 10
2.195902
 20
-3.913854
  0
VERTEX
  8
PLAN_1
  6
CONTINUOUS
 10
2.189488
 20
-3.914346
  0
VERTEX
  8
PLAN_1
  6
CONTINUOUS
 10
2.183079
 20
-3.914346
  0
VERTEX
  8
PLAN_1
  6
CONTINUOUS
 10
2.176173
 20
-3.914346
  0
VERTEX
  8
PLAN_1
  6
CONTINUOUS
 10
2.170256
 20
-3.913854
  0
VERTEX
  8
PLAN_1
  6
CONTINUOUS
 10
2.164335
 20
-3.913358
  0
VERTEX
  8
PLAN_1
  6
CONTINUOUS
 10
2.159406
 20
-3.912866
  0
VERTEX
  8
PLAN_1
  6
CONTINUOUS
 10
2.150035
 20
-3.910402
  0
VERTEX
  8
PLAN_1
  6
CONTINUOUS
 10
2.142142
 20
-3.907933
  0
VERTEX
  8
PLAN_1
  6
CONTINUOUS
 10
2.136224
 20
-3.904976
  0
VERTEX
  8
PLAN_1
  6
CONTINUOUS
 10
2.130799
 20
-3.901524
  0
VERTEX
  8
PLAN_1
  6
CONTINUOUS
 10
2.126362
 20
-3.898563
  0
VERTEX
  8
PLAN_1
  6
CONTINUOUS
 10
2.122909
 20
-3.895606
  0
VERTEX
  8
PLAN_1
  6
CONTINUOUS
 10
2.116992
 20
-3.889685
  0
VERTEX
  8
PLAN_1
  6
CONTINUOUS
 10
2.112551
 20
-3.883768
  0
VERTEX
  8
PLAN_1
  6
CONTINUOUS
 10
2.109098
 20
-3.877358
  0
VERTEX
  8
PLAN_1
  6
CONTINUOUS
 10
2.106142
 20
-3.871437
  0
VERTEX
  8
PLAN_1
  6
CONTINUOUS
 10
2.104661
 20
-3.865028
  0
VERTEX
  8
PLAN_1
  6
CONTINUOUS
 10
2.103181
 20
-3.858614
  0
VERTEX
  8
PLAN_1
  6
CONTINUOUS
 10
2.102689
 20
-3.851713
  0
VERTEX
  8
PLAN_1
  6
CONTINUOUS
 10
2.102689
 20
-3.844807
  0
VERTEX
  8
PLAN_1
  6
CONTINUOUS
 10
2.127839
 20
-3.844807
  0
VERTEX
  8
PLAN_1
  6
CONTINUOUS
 10
2.128335
 20
-3.851217
  0
VERTEX
  8
PLAN_1
  6
CONTINUOUS
 10
2.128827
 20
-3.857138
  0
VERTEX
  8
PLAN_1
  6
CONTINUOUS
 10
2.130799
 20
-3.862563
  0
VERTEX
  8
PLAN_1
  6
CONTINUOUS
 10
2.132772
 20
-3.867492
  0
VERTEX
  8
PLAN_1
  6
CONTINUOUS
 10
2.135240
 20
-3.871437
  0
VERTEX
  8
PLAN_1
  6
CONTINUOUS
 10
2.138197
 20
-3.875386
  0
VERTEX
  8
PLAN_1
  6
CONTINUOUS
 10
2.141650
 20
-3.878839
  0
VERTEX
  8
PLAN_1
  6
CONTINUOUS
 10
2.145594
 20
-3.881795
  0
VERTEX
  8
PLAN_1
  6
CONTINUOUS
 10
2.149539
 20
-3.884260
  0
VERTEX
  8
PLAN_1
  6
CONTINUOUS
 10
2.153980
 20
-3.886236
  0
VERTEX
  8
PLAN_1
  6
CONTINUOUS
 10
2.158417
 20
-3.887713
  0
VERTEX
  8
PLAN_1
  6
CONTINUOUS
 10
2.163350
 20
-3.889193
  0
VERTEX
  8
PLAN_1
  6
CONTINUOUS
 10
2.168280
 20
-3.890181
  0
VERTEX
  8
PLAN_1
  6
CONTINUOUS
 10
2.173213
 20
-3.891165
  0
VERTEX
  8
PLAN_1
  6
CONTINUOUS
 10
2.177654
 20
-3.891165
  0
VERTEX
  8
PLAN_1
  6
CONTINUOUS
 10
2.182583
 20
-3.891657
  0
VERTEX
  8
PLAN_1
  6
CONTINUOUS
 10
2.190476
 20
-3.891165
  0
VERTEX
  8
PLAN_1
  6
CONTINUOUS
 10
2.198858
 20
-3.890181
  0
VERTEX
  8
PLAN_1
  6
CONTINUOUS
 10
2.203299
 20
-3.889685
  0
VERTEX
  8
PLAN_1
  6
CONTINUOUS
 10
2.207736
 20
-3.888209
  0
VERTEX
  8
PLAN_1
  6
CONTINUOUS
 10
2.212173
 20
-3.887220
  0
VERTEX
  8
PLAN_1
  6
CONTINUOUS
 10
2.216122
 20
-3.885248
  0
VERTEX
  8
PLAN_1
  6
CONTINUOUS
 10
2.220067
 20
-3.883276
  0
VERTEX
  8
PLAN_1
  6
CONTINUOUS
 10
2.223520
 20
-3.881303
  0
VERTEX
  8
PLAN_1
  6
CONTINUOUS
 10
2.226476
 20
-3.878343
  0
VERTEX
  8
PLAN_1
  6
CONTINUOUS
 10
2.229437
 20
-3.875386
  0
VERTEX
  8
PLAN_1
  6
CONTINUOUS
 10
2.231902
 20
-3.871437
  0
VERTEX
  8
PLAN_1
  6
CONTINUOUS
 10
2.233382
 20
-3.867492
  0
VERTEX
  8
PLAN_1
  6
CONTINUOUS
 10
2.234366
 20
-3.863055
  0
VERTEX
  8
PLAN_1
  6
CONTINUOUS
 10
2.234862
 20
-3.858122
  0
VERTEX
  8
PLAN_1
  6
CONTINUOUS
 10
2.234862
 20
-3.854177
  0
VERTEX
  8
PLAN_1
  6
CONTINUOUS
 10
2.234366
 20
-3.850724
  0
VERTEX
  8
PLAN_1
  6
CONTINUOUS
 10
2.233874
 20
-3.847768
  0
VERTEX
  8
PLAN_1
  6
CONTINUOUS
 10
2.232890
 20
-3.844807
  0
VERTEX
  8
PLAN_1
  6
CONTINUOUS
 10
2.231409
 20
-3.841846
  0
VERTEX
  8
PLAN_1
  6
CONTINUOUS
 10
2.229929
 20
-3.839874
  0
VERTEX
  8
PLAN_1
  6
CONTINUOUS
 10
2.228449
 20
-3.837409
  0
VERTEX
  8
PLAN_1
  6
CONTINUOUS
 10
2.225984
 20
-3.835437
  0
VERTEX
  8
PLAN_1
  6
CONTINUOUS
 10
2.223520
 20
-3.833465
  0
VERTEX
  8
PLAN_1
  6
CONTINUOUS
 10
2.220067
 20
-3.831492
  0
VERTEX
  8
PLAN_1
  6
CONTINUOUS
 10
2.216614
 20
-3.830012
  0
VERTEX
  8
PLAN_1
  6
CONTINUOUS
 10
2.212669
 20
-3.828531
  0
VERTEX
  8
PLAN_1
  6
CONTINUOUS
 10
2.203791
 20
-3.825571
  0
VERTEX
  8
PLAN_1
  6
CONTINUOUS
 10
2.192449
 20
-3.822614
  0
VERTEX
  8
PLAN_1
  6
CONTINUOUS
 10
2.151512
 20
-3.813244
  0
VERTEX
  8
PLAN_1
  6
CONTINUOUS
 10
2.146087
 20
-3.811764
  0
VERTEX
  8
PLAN_1
  6
CONTINUOUS
 10
2.139677
 20
-3.809299
  0
VERTEX
  8
PLAN_1
  6
CONTINUOUS
 10
2.136224
 20
-3.807819
  0
VERTEX
  8
PLAN_1
  6
CONTINUOUS
 10
2.132280
 20
-3.806339
  0
VERTEX
  8
PLAN_1
  6
CONTINUOUS
 10
2.128827
 20
-3.803874
  0
VERTEX
  8
PLAN_1
  6
CONTINUOUS
 10
2.125374
 20
-3.801406
  0
VERTEX
  8
PLAN_1
  6
CONTINUOUS
 10
2.122417
 20
-3.798941
  0
VERTEX
  8
PLAN_1
  6
CONTINUOUS
 10
2.118965
 20
-3.795488
  0
VERTEX
  8
PLAN_1
  6
CONTINUOUS
 10
2.116496
 20
-3.792035
  0
VERTEX
  8
PLAN_1
  6
CONTINUOUS
 10
2.114031
 20
-3.787598
  0
VERTEX
  8
PLAN_1
  6
CONTINUOUS
 10
2.112059
 20
-3.783157
  0
VERTEX
  8
PLAN_1
  6
CONTINUOUS
 10
2.110579
 20
-3.778228
  0
VERTEX
  8
PLAN_1
  6
CONTINUOUS
 10
2.109594
 20
-3.772307
  0
VERTEX
  8
PLAN_1
  6
CONTINUOUS
 10
2.109098
 20
-3.766390
  0
VERTEX
  8
PLAN_1
  6
CONTINUOUS
 10
2.109594
 20
-3.760472
  0
VERTEX
  8
PLAN_1
  6
CONTINUOUS
 10
2.110087
 20
-3.754555
  0
VERTEX
  8
PLAN_1
  6
CONTINUOUS
 10
2.111567
 20
-3.749130
  0
VERTEX
  8
PLAN_1
  6
CONTINUOUS
 10
2.113043
 20
-3.743705
  0
VERTEX
  8
PLAN_1
  6
CONTINUOUS
 10
2.115512
 20
-3.738280
  0
VERTEX
  8
PLAN_1
  6
CONTINUOUS
 10
2.117976
 20
-3.733346
  0
VERTEX
  8
PLAN_1
  6
CONTINUOUS
 10
2.121429
 20
-3.728417
  0
VERTEX
  8
PLAN_1
  6
CONTINUOUS
 10
2.125374
 20
-3.723976
  0
VERTEX
  8
PLAN_1
  6
CONTINUOUS
 10
2.129815
 20
-3.719539
  0
VERTEX
  8
PLAN_1
  6
CONTINUOUS
 10
2.134744
 20
-3.716087
  0
VERTEX
  8
PLAN_1
  6
CONTINUOUS
 10
2.140169
 20
-3.712634
  0
VERTEX
  8
PLAN_1
  6
CONTINUOUS
 10
2.146583
 20
-3.709673
  0
VERTEX
  8
PLAN_1
  6
CONTINUOUS
 10
2.153484
 20
-3.707701
  0
VERTEX
  8
PLAN_1
  6
CONTINUOUS
 10
2.160882
 20
-3.706220
  0
VERTEX
  8
PLAN_1
  6
CONTINUOUS
 10
2.168776
 20
-3.705236
  0
VERTEX
  8
PLAN_1
  6
CONTINUOUS
 10
2.177654
 20
-3.704744
  0
VERTEX
  8
PLAN_1
  6
CONTINUOUS
 10
2.184063
 20
-3.704744
  0
VERTEX
  8
PLAN_1
  6
CONTINUOUS
 10
2.189980
 20
-3.705236
  0
VERTEX
  8
PLAN_1
  6
CONTINUOUS
 10
2.195902
 20
-3.705728
  0
VERTEX
  8
PLAN_1
  6
CONTINUOUS
 10
2.200831
 20
-3.706717
  0
VERTEX
  8
PLAN_1
  6
CONTINUOUS
 10
2.205764
 20
-3.707701
  0
VERTEX
  8
PLAN_1
  6
CONTINUOUS
 10
2.210697
 20
-3.708689
  0
VERTEX
  8
PLAN_1
  6
CONTINUOUS
 10
2.215134
 20
-3.710169
  0
VERTEX
  8
PLAN_1
  6
CONTINUOUS
 10
2.219079
 20
-3.711646
  0
VERTEX
  8
PLAN_1
  6
CONTINUOUS
 10
2.226476
 20
-3.715098
  0
VERTEX
  8
PLAN_1
  6
CONTINUOUS
 10
2.232394
 20
-3.719043
  0
VERTEX
  8
PLAN_1
  6
CONTINUOUS
 10
2.237819
 20
-3.723484
  0
VERTEX
  8
PLAN_1
  6
CONTINUOUS
 10
2.242260
 20
-3.728417
  0
VERTEX
  8
PLAN_1
  6
CONTINUOUS
 10
2.245713
 20
-3.733346
  0
VERTEX
  8
PLAN_1
  6
CONTINUOUS
 10
2.248669
 20
-3.738280
  0
VERTEX
  8
PLAN_1
  6
CONTINUOUS
 10
2.251138
 20
-3.743705
  0
VERTEX
  8
PLAN_1
  6
CONTINUOUS
 10
2.252614
 20
-3.749130
  0
VERTEX
  8
PLAN_1
  6
CONTINUOUS
 10
2.253602
 20
-3.754063
  0
VERTEX
  8
PLAN_1
  6
CONTINUOUS
 10
2.254591
 20
-3.758992
  0
VERTEX
  8
PLAN_1
  6
CONTINUOUS
 10
2.255083
 20
-3.763925
  0
VERTEX
  8
PLAN_1
  6
CONTINUOUS
 10
2.255575
 20
-3.768362
  0
VERTEX
  8
PLAN_1
  6
CONTINUOUS
 10
2.230421
 20
-3.768362
  0
SEQEND
  8
0
  0
POLYLINE
  8
PLAN_1
  6
CONTINUOUS
 66
     1
 40
0.008382
 41
0.008382
  0
VERTEX
  8
PLAN_1
  6
CONTINUOUS
 10
-1.794941
 20
2.607020
  0
VERTEX
  8
PLAN_1
  6
CONTINUOUS
 10
-1.794941
 20
3.533713
  0
VERTEX
  8
PLAN_1
  6
CONTINUOUS
 10
-2.034630
 20
3.533713
  0
VERTEX
  8
PLAN_1
  6
CONTINUOUS
 10
-2.034630
 20
2.470409
  0
SEQEND
  8
0
  0
POLYLINE
  8
PLAN_1
  6
CONTINUOUS
 66
     1
 40
0.003945
 41
0.003945
  0
VERTEX
  8
PLAN_1
  6
CONTINUOUS
 10
-2.226476
 20
2.350563
  0
VERTEX
  8
PLAN_1
  6
CONTINUOUS
 10
-1.548350
 20
2.750043
  0
SEQEND
  8
0
  0
POLYLINE
  8
PLAN_1
  6
CONTINUOUS
 66
     1
 40
0.003945
 41
0.003945
  0
VERTEX
  8
PLAN_1
  6
CONTINUOUS
 10
-1.540461
 20
2.573976
  0
VERTEX
  8
PLAN_1
  6
CONTINUOUS
 10
-2.211189
 20
2.182882
  0
SEQEND
  8
0
  0
POLYLINE
  8
PLAN_1
  6
CONTINUOUS
 66
     1
 40
0.008382
 41
0.008382
  0
VERTEX
  8
PLAN_1
  6
CONTINUOUS
 10
-2.089374
 20
0.619984
  0
VERTEX
  8
PLAN_1
  6
CONTINUOUS
 10
-2.089374
 20
1.076177
  0
VERTEX
  8
PLAN_1
  6
CONTINUOUS
 10
-2.197378
 20
1.076177
  0
VERTEX
  8
PLAN_1
  6
CONTINUOUS
 10
-2.197378
 20
0.619984
  0
VERTEX
  8
PLAN_1
  6
CONTINUOUS
 10
-2.089374
 20
0.619984
  0
SEQEND
  8
0
  0
POLYLINE
  8
PLAN_1
  6
CONTINUOUS
 66
     1
 40
0.008382
 41
0.008382
  0
VERTEX
  8
PLAN_1
  6
CONTINUOUS
 10
-2.196886
 20
0.959787
  0
VERTEX
  8
PLAN_1
  6
CONTINUOUS
 10
-2.092331
 20
0.959787
  0
SEQEND
  8
0
  0
POLYLINE
  8
PLAN_1
  6
CONTINUOUS
 66
     1
 40
0.008382
 41
0.008382
  0
VERTEX
  8
PLAN_1
  6
CONTINUOUS
 10
-2.196886
 20
0.736374
  0
VERTEX
  8
PLAN_1
  6
CONTINUOUS
 10
-2.092331
 20
0.736374
  0
SEQEND
  8
0
  0
POLYLINE
  8
PLAN_1
  6
CONTINUOUS
 66
     1
 40
0.008382
 41
0.008382
  0
VERTEX
  8
PLAN_1
  6
CONTINUOUS
 10
-2.184555
 20
1.076177
  0
VERTEX
  8
PLAN_1
  6
CONTINUOUS
 10
-2.185543
 20
1.073220
  0
VERTEX
  8
PLAN_1
  6
CONTINUOUS
 10
-2.188504
 20
1.065823
  0
VERTEX
  8
PLAN_1
  6
CONTINUOUS
 10
-2.190476
 20
1.060398
  0
VERTEX
  8
PLAN_1
  6
CONTINUOUS
 10
-2.192449
 20
1.053984
  0
VERTEX
  8
PLAN_1
  6
CONTINUOUS
 10
-2.194421
 20
1.047079
  0
VERTEX
  8
PLAN_1
  6
CONTINUOUS
 10
-2.195902
 20
1.039189
  0
VERTEX
  8
PLAN_1
  6
CONTINUOUS
 10
-2.196886
 20
1.030807
  0
VERTEX
  8
PLAN_1
  6
CONTINUOUS
 10
-2.197378
 20
1.021437
  0
VERTEX
  8
PLAN_1
  6
CONTINUOUS
 10
-2.197378
 20
1.012063
  0
VERTEX
  8
PLAN_1
  6
CONTINUOUS
 10
-2.196394
 20
1.001709
  0
VERTEX
  8
PLAN_1
  6
CONTINUOUS
 10
-2.195406
 20
0.996776
  0
VERTEX
  8
PLAN_1
  6
CONTINUOUS
 10
-2.194421
 20
0.991350
  0
VERTEX
  8
PLAN_1
  6
CONTINUOUS
 10
-2.193433
 20
0.986417
  0
VERTEX
  8
PLAN_1
  6
CONTINUOUS
 10
-2.191461
 20
0.980996
  0
VERTEX
  8
PLAN_1
  6
CONTINUOUS
 10
-2.189980
 20
0.975571
  0
VERTEX
  8
PLAN_1
  6
CONTINUOUS
 10
-2.187516
 20
0.970146
  0
VERTEX
  8
PLAN_1
  6
CONTINUOUS
 10
-2.185051
 20
0.964720
  0
VERTEX
  8
PLAN_1
  6
CONTINUOUS
 10
-2.182091
 20
0.959295
  0
VERTEX
  8
PLAN_1
  6
CONTINUOUS
 10
-2.183571
 20
0.955350
  0
VERTEX
  8
PLAN_1
  6
CONTINUOUS
 10
-2.186528
 20
0.943512
  0
VERTEX
  8
PLAN_1
  6
CONTINUOUS
 10
-2.188504
 20
0.934634
  0
VERTEX
  8
PLAN_1
  6
CONTINUOUS
 10
-2.190969
 20
0.923783
  0
VERTEX
  8
PLAN_1
  6
CONTINUOUS
 10
-2.192941
 20
0.911457
  0
VERTEX
  8
PLAN_1
  6
CONTINUOUS
 10
-2.194913
 20
0.897646
  0
VERTEX
  8
PLAN_1
  6
CONTINUOUS
 10
-2.195902
 20
0.882358
  0
VERTEX
  8
PLAN_1
  6
CONTINUOUS
 10
-2.196886
 20
0.865591
  0
VERTEX
  8
PLAN_1
  6
CONTINUOUS
 10
-2.197378
 20
0.846846
  0
VERTEX
  8
PLAN_1
  6
CONTINUOUS
 10
-2.196886
 20
0.827122
  0
VERTEX
  8
PLAN_1
  6
CONTINUOUS
 10
-2.195902
 20
0.806406
  0
VERTEX
  8
PLAN_1
  6
CONTINUOUS
 10
-2.193433
 20
0.784213
  0
VERTEX
  8
PLAN_1
  6
CONTINUOUS
 10
-2.191461
 20
0.772378
  0
VERTEX
  8
PLAN_1
  6
CONTINUOUS
 10
-2.189980
 20
0.760539
  0
VERTEX
  8
PLAN_1
  6
CONTINUOUS
 10
-2.187516
 20
0.748213
  0
VERTEX
  8
PLAN_1
  6
CONTINUOUS
 10
-2.185051
 20
0.735882
  0
VERTEX
  8
PLAN_1
  6
CONTINUOUS
 10
-2.186035
 20
0.733417
  0
VERTEX
  8
PLAN_1
  6
CONTINUOUS
 10
-2.188996
 20
0.726020
  0
VERTEX
  8
PLAN_1
  6
CONTINUOUS
 10
-2.190969
 20
0.721087
  0
VERTEX
  8
PLAN_1
  6
CONTINUOUS
 10
-2.192941
 20
0.714673
  0
VERTEX
  8
PLAN_1
  6
CONTINUOUS
 10
-2.194421
 20
0.707772
  0
VERTEX
  8
PLAN_1
  6
CONTINUOUS
 10
-2.195902
 20
0.700374
  0
VERTEX
  8
PLAN_1
  6
CONTINUOUS
 10
-2.197378
 20
0.691988
  0
VERTEX
  8
PLAN_1
  6
CONTINUOUS
 10
-2.197874
 20
0.682618
  0
VERTEX
  8
PLAN_1
  6
CONTINUOUS
 10
-2.197874
 20
0.673248
  0
VERTEX
  8
PLAN_1
  6
CONTINUOUS
 10
-2.196886
 20
0.663386
  0
VERTEX
  8
PLAN_1
  6
CONTINUOUS
 10
-2.195902
 20
0.658453
  0
VERTEX
  8
PLAN_1
  6
CONTINUOUS
 10
-2.194913
 20
0.653028
  0
VERTEX
  8
PLAN_1
  6
CONTINUOUS
 10
-2.193433
 20
0.648094
  0
VERTEX
  8
PLAN_1
  6
CONTINUOUS
 10
-2.191953
 20
0.642669
  0
VERTEX
  8
PLAN_1
  6
CONTINUOUS
 10
-2.189980
 20
0.637244
  0
VERTEX
  8
PLAN_1
  6
CONTINUOUS
 10
-2.188008
 20
0.631819
  0
VERTEX
  8
PLAN_1
  6
CONTINUOUS
 10
-2.185543
 20
0.626394
  0
VERTEX
  8
PLAN_1
  6
CONTINUOUS
 10
-2.182583
 20
0.620969
  0
SEQEND
  8
0
  0
POLYLINE
  8
PLAN_1
  6
CONTINUOUS
 66
     1
 40
0.008382
 41
0.008382
  0
VERTEX
  8
PLAN_1
  6
CONTINUOUS
 10
-1.794941
 20
2.413201
  0
VERTEX
  8
PLAN_1
  6
CONTINUOUS
 10
-1.794941
 20
1.144732
  0
SEQEND
  8
0
  0
POLYLINE
  8
PLAN_1
  6
CONTINUOUS
 66
     1
 40
0.008382
 41
0.008382
  0
VERTEX
  8
PLAN_1
  6
CONTINUOUS
 10
-2.034630
 20
1.144732
  0
VERTEX
  8
PLAN_1
  6
CONTINUOUS
 10
-2.034630
 20
2.276094
  0
SEQEND
  8
0
  0
POLYLINE
  8
PLAN_1
  6
CONTINUOUS
 66
     1
 40
0.008382
 41
0.008382
  0
VERTEX
  8
PLAN_1
  6
CONTINUOUS
 10
-2.034630
 20
0.535157
  0
VERTEX
  8
PLAN_1
  6
CONTINUOUS
 10
-2.034630
 20
-0.177492
  0
VERTEX
  8
PLAN_1
  6
CONTINUOUS
 10
-1.794941
 20
-0.177492
  0
VERTEX
  8
PLAN_1
  6
CONTINUOUS
 10
-1.794941
 20
0.535157
  0
SEQEND
  8
0
  0
POLYLINE
  8
PLAN_1
  6
CONTINUOUS
 66
     1
 40
0.008382
 41
0.008382
  0
VERTEX
  8
PLAN_1
  6
CONTINUOUS
 10
-1.794941
 20
0.535157
  0
VERTEX
  8
PLAN_1
  6
CONTINUOUS
 10
-1.724417
 20
0.535157
  0
VERTEX
  8
PLAN_1
  6
CONTINUOUS
 10
-1.724417
 20
0.462657
  0
VERTEX
  8
PLAN_1
  6
CONTINUOUS
 10
-1.473386
 20
0.429614
  0
VERTEX
  8
PLAN_1
  6
CONTINUOUS
 10
-1.367846
 20
0.430602
  0
VERTEX
  8
PLAN_1
  6
CONTINUOUS
 10
-1.367846
 20
1.254217
  0
VERTEX
  8
PLAN_1
  6
CONTINUOUS
 10
-1.482756
 20
1.254217
  0
VERTEX
  8
PLAN_1
  6
CONTINUOUS
 10
-1.724417
 20
1.213776
  0
VERTEX
  8
PLAN_1
  6
CONTINUOUS
 10
-1.724417
 20
1.144732
  0
VERTEX
  8
PLAN_1
  6
CONTINUOUS
 10
-1.794941
 20
1.144732
  0
SEQEND
  8
0
  0
POLYLINE
  8
PLAN_1
  6
CONTINUOUS
 66
     1
 40
0.008382
 41
0.008382
  0
VERTEX
  8
PLAN_1
  6
CONTINUOUS
 10
-2.034630
 20
1.144732
  0
VERTEX
  8
PLAN_1
  6
CONTINUOUS
 10
-2.089866
 20
1.144732
  0
VERTEX
  8
PLAN_1
  6
CONTINUOUS
 10
-2.089866
 20
0.535157
  0
VERTEX
  8
PLAN_1
  6
CONTINUOUS
 10
-2.034630
 20
0.535157
  0
SEQEND
  8
0
  0
POLYLINE
  8
PLAN_1
  6
CONTINUOUS
 66
     1
 40
0.008382
 41
0.008382
  0
VERTEX
  8
PLAN_1
  6
CONTINUOUS
 10
-2.034630
 20
1.144732
  0
VERTEX
  8
PLAN_1
  6
CONTINUOUS
 10
-1.794941
 20
1.144732
  0
SEQEND
  8
0
  0
POLYLINE
  8
PLAN_1
  6
CONTINUOUS
 66
     1
 40
0.008382
 41
0.008382
  0
VERTEX
  8
PLAN_1
  6
CONTINUOUS
 10
-2.034630
 20
0.535157
  0
VERTEX
  8
PLAN_1
  6
CONTINUOUS
 10
-1.794941
 20
0.535157
  0
SEQEND
  8
0
  0
POLYLINE
  8
PLAN_1
  6
CONTINUOUS
 66
     1
 40
0.008382
 41
0.008382
  0
VERTEX
  8
PLAN_1
  6
CONTINUOUS
 10
-1.472398
 20
1.254217
  0
VERTEX
  8
PLAN_1
  6
CONTINUOUS
 10
-1.472398
 20
0.434547
  0
SEQEND
  8
0
  0
POLYLINE
  8
PLAN_1
  6
CONTINUOUS
 66
     1
 40
0.008382
 41
0.008382
  0
VERTEX
  8
PLAN_1
  6
CONTINUOUS
 10
-1.724417
 20
0.539102
  0
VERTEX
  8
PLAN_1
  6
CONTINUOUS
 10
-1.724417
 20
1.137335
  0
SEQEND
  8
0
  0
POLYLINE
  8
PLAN_1
  6
CONTINUOUS
 66
     1
 40
0.008382
 41
0.008382
  0
VERTEX
  8
PLAN_1
  6
CONTINUOUS
 10
-2.247685
 20
0.976063
  0
VERTEX
  8
PLAN_1
  6
CONTINUOUS
 10
-2.247685
 20
0.717142
  0
SEQEND
  8
0
  0
POLYLINE
  8
PLAN_1
  6
CONTINUOUS
 66
     1
 40
0.008382
 41
0.008382
  0
VERTEX
  8
PLAN_1
  6
CONTINUOUS
 10
-2.247685
 20
0.717142
  0
VERTEX
  8
PLAN_1
  6
CONTINUOUS
 10
-2.257055
 20
0.726020
  0
VERTEX
  8
PLAN_1
  6
CONTINUOUS
 10
-2.257055
 20
0.966197
  0
VERTEX
  8
PLAN_1
  6
CONTINUOUS
 10
-2.247685
 20
0.975075
  0
VERTEX
  8
PLAN_1
  6
CONTINUOUS
 10
-2.197378
 20
0.976063
  0
VERTEX
  8
PLAN_1
  6
CONTINUOUS
 10
-2.197378
 20
0.717142
  0
VERTEX
  8
PLAN_1
  6
CONTINUOUS
 10
-2.247685
 20
0.717142
  0
SEQEND
  8
0
  0
POLYLINE
  8
PLAN_1
  6
CONTINUOUS
 66
     1
 40
0.008382
 41
0.008382
  0
VERTEX
  8
PLAN_1
  6
CONTINUOUS
 10
-1.763378
 20
0.576583
  0
VERTEX
  8
PLAN_1
  6
CONTINUOUS
 10
-1.763378
 20
1.097878
  0
VERTEX
  8
PLAN_1
  6
CONTINUOUS
 10
-2.058795
 20
1.097878
  0
VERTEX
  8
PLAN_1
  6
CONTINUOUS
 10
-2.058795
 20
0.576583
  0
VERTEX
  8
PLAN_1
  6
CONTINUOUS
 10
-1.763378
 20
0.576583
  0
SEQEND
  8
0
  0
POLYLINE
  8
PLAN_1
  6
CONTINUOUS
 66
     1
 40
0.008382
 41
0.008382
  0
VERTEX
  8
PLAN_1
  6
CONTINUOUS
 10
-2.059780
 20
1.097878
  0
VERTEX
  8
PLAN_1
  6
CONTINUOUS
 10
-2.094795
 20
1.142760
  0
SEQEND
  8
0
  0
POLYLINE
  8
PLAN_1
  6
CONTINUOUS
 66
     1
 40
0.008382
 41
0.008382
  0
VERTEX
  8
PLAN_1
  6
CONTINUOUS
 10
-2.094303
 20
0.537622
  0
VERTEX
  8
PLAN_1
  6
CONTINUOUS
 10
-2.058795
 20
0.576583
  0
SEQEND
  8
0
  0
POLYLINE
  8
PLAN_1
  6
CONTINUOUS
 66
     1
 40
0.008382
 41
0.008382
  0
VERTEX
  8
PLAN_1
  6
CONTINUOUS
 10
-1.763378
 20
1.098866
  0
VERTEX
  8
PLAN_1
  6
CONTINUOUS
 10
-1.724909
 20
1.143252
  0
SEQEND
  8
0
  0
POLYLINE
  8
PLAN_1
  6
CONTINUOUS
 66
     1
 40
0.008382
 41
0.008382
  0
VERTEX
  8
PLAN_1
  6
CONTINUOUS
 10
-1.724909
 20
0.538610
  0
VERTEX
  8
PLAN_1
  6
CONTINUOUS
 10
-1.764362
 20
0.577571
  0
SEQEND
  8
0
  0
POLYLINE
  8
PLAN_1
  6
CONTINUOUS
 66
     1
 40
0.008382
 41
0.008382
  0
VERTEX
  8
PLAN_1
  6
CONTINUOUS
 10
0.030331
 20
0.260453
  0
VERTEX
  8
PLAN_1
  6
CONTINUOUS
 10
0.030331
 20
1.254217
  0
VERTEX
  8
PLAN_1
  6
CONTINUOUS
 10
-1.364886
 20
1.254217
  0
VERTEX
  8
PLAN_1
  6
CONTINUOUS
 10
-1.364886
 20
0.260453
  0
VERTEX
  8
PLAN_1
  6
CONTINUOUS
 10
0.030331
 20
0.260453
  0
SEQEND
  8
0
  0
POLYLINE
  8
PLAN_1
  6
CONTINUOUS
 66
     1
 40
0.008382
 41
0.008382
  0
VERTEX
  8
PLAN_1
  6
CONTINUOUS
 10
-0.443126
 20
-0.184398
  0
VERTEX
  8
PLAN_1
  6
CONTINUOUS
 10
-0.443126
 20
-0.135079
  0
VERTEX
  8
PLAN_1
  6
CONTINUOUS
 10
-0.869236
 20
-0.135079
  0
VERTEX
  8
PLAN_1
  6
CONTINUOUS
 10
-0.869236
 20
-0.184398
  0
VERTEX
  8
PLAN_1
  6
CONTINUOUS
 10
-0.443126
 20
-0.184398
  0
SEQEND
  8
0
  0
POLYLINE
  8
PLAN_1
  6
CONTINUOUS
 66
     1
 40
0.008382
 41
0.008382
  0
VERTEX
  8
PLAN_1
  6
CONTINUOUS
 10
-0.083102
 20
0.234315
  0
VERTEX
  8
PLAN_1
  6
CONTINUOUS
 10
-0.083102
 20
0.256016
  0
VERTEX
  8
PLAN_1
  6
CONTINUOUS
 10
-1.228768
 20
0.256016
  0
VERTEX
  8
PLAN_1
  6
CONTINUOUS
 10
-1.228768
 20
0.234315
  0
VERTEX
  8
PLAN_1
  6
CONTINUOUS
 10
-0.083102
 20
0.234315
  0
SEQEND
  8
0
  0
POLYLINE
  8
PLAN_1
  6
CONTINUOUS
 66
     1
 40
0.008382
 41
0.008382
  0
VERTEX
  8
PLAN_1
  6
CONTINUOUS
 10
-0.335610
 20
-0.135079
  0
VERTEX
  8
PLAN_1
  6
CONTINUOUS
 10
-0.335610
 20
0.234315
  0
VERTEX
  8
PLAN_1
  6
CONTINUOUS
 10
-0.997465
 20
0.234315
  0
VERTEX
  8
PLAN_1
  6
CONTINUOUS
 10
-0.997465
 20
-0.135079
  0
VERTEX
  8
PLAN_1
  6
CONTINUOUS
 10
-0.335610
 20
-0.135079
  0
SEQEND
  8
0
  0
POLYLINE
  8
PLAN_1
 62
     5
  6
CONTINUOUS
 66
     1
 40
0.003000
 41
0.003000
  0
VERTEX
  8
PLAN_1
 62
     5
  6
CONTINUOUS
 10
-1.542925
 20
-0.487213
  0
VERTEX
  8
PLAN_1
 62
     5
  6
CONTINUOUS
 10
-1.542925
 20
-0.478831
  0
SEQEND
  8
0
  0
POLYLINE
  8
PLAN_1
 62
     5
  6
CONTINUOUS
 66
     1
 40
0.003000
 41
0.003000
  0
VERTEX
  8
PLAN_1
 62
     5
  6
CONTINUOUS
 10
-1.542925
 20
-0.470445
  0
VERTEX
  8
PLAN_1
 62
     5
  6
CONTINUOUS
 10
-1.542925
 20
-0.462059
  0
SEQEND
  8
0
  0
POLYLINE
  8
PLAN_1
 62
     5
  6
CONTINUOUS
 66
     1
 40
0.003000
 41
0.003000
  0
VERTEX
  8
PLAN_1
 62
     5
  6
CONTINUOUS
 10
-1.542925
 20
-0.453677
  0
VERTEX
  8
PLAN_1
 62
     5
  6
CONTINUOUS
 10
-1.542925
 20
-0.445291
  0
SEQEND
  8
0
  0
POLYLINE
  8
PLAN_1
 62
     5
  6
CONTINUOUS
 66
     1
 40
0.003000
 41
0.003000
  0
VERTEX
  8
PLAN_1
 62
     5
  6
CONTINUOUS
 10
-1.542925
 20
-0.436909
  0
VERTEX
  8
PLAN_1
 62
     5
  6
CONTINUOUS
 10
-1.542925
 20
-0.429016
  0
SEQEND
  8
0
  0
POLYLINE
  8
PLAN_1
 62
     5
  6
CONTINUOUS
 66
     1
 40
0.003000
 41
0.003000
  0
VERTEX
  8
PLAN_1
 62
     5
  6
CONTINUOUS
 10
-1.542925
 20
-0.420634
  0
VERTEX
  8
PLAN_1
 62
     5
  6
CONTINUOUS
 10
-1.542925
 20
-0.412248
  0
SEQEND
  8
0
  0
POLYLINE
  8
PLAN_1
 62
     5
  6
CONTINUOUS
 66
     1
 40
0.003000
 41
0.003000
  0
VERTEX
  8
PLAN_1
 62
     5
  6
CONTINUOUS
 10
-1.542925
 20
-0.403866
  0
VERTEX
  8
PLAN_1
 62
     5
  6
CONTINUOUS
 10
-1.542925
 20
-0.395480
  0
SEQEND
  8
0
  0
POLYLINE
  8
PLAN_1
 62
     5
  6
CONTINUOUS
 66
     1
 40
0.003000
 41
0.003000
  0
VERTEX
  8
PLAN_1
 62
     5
  6
CONTINUOUS
 10
-1.542925
 20
-0.387098
  0
VERTEX
  8
PLAN_1
 62
     5
  6
CONTINUOUS
 10
-1.542925
 20
-0.378713
  0
SEQEND
  8
0
  0
POLYLINE
  8
PLAN_1
 62
     5
  6
CONTINUOUS
 66
     1
 40
0.003000
 41
0.003000
  0
VERTEX
  8
PLAN_1
 62
     5
  6
CONTINUOUS
 10
-1.542925
 20
-0.370331
  0
VERTEX
  8
PLAN_1
 62
     5
  6
CONTINUOUS
 10
-1.542925
 20
-0.361945
  0
SEQEND
  8
0
  0
POLYLINE
  8
PLAN_1
 62
     5
  6
CONTINUOUS
 66
     1
 40
0.003000
 41
0.003000
  0
VERTEX
  8
PLAN_1
 62
     5
  6
CONTINUOUS
 10
-1.542925
 20
-0.354055
  0
VERTEX
  8
PLAN_1
 62
     5
  6
CONTINUOUS
 10
-1.542925
 20
-0.345669
  0
SEQEND
  8
0
  0
POLYLINE
  8
PLAN_1
 62
     5
  6
CONTINUOUS
 66
     1
 40
0.003000
 41
0.003000
  0
VERTEX
  8
PLAN_1
 62
     5
  6
CONTINUOUS
 10
-1.542925
 20
-0.337287
  0
VERTEX
  8
PLAN_1
 62
     5
  6
CONTINUOUS
 10
-1.542925
 20
-0.328902
  0
SEQEND
  8
0
  0
POLYLINE
  8
PLAN_1
 62
     5
  6
CONTINUOUS
 66
     1
 40
0.003000
 41
0.003000
  0
VERTEX
  8
PLAN_1
 62
     5
  6
CONTINUOUS
 10
-1.542925
 20
-0.320516
  0
VERTEX
  8
PLAN_1
 62
     5
  6
CONTINUOUS
 10
-1.542925
 20
-0.312134
  0
SEQEND
  8
0
  0
POLYLINE
  8
PLAN_1
 62
     5
  6
CONTINUOUS
 66
     1
 40
0.003000
 41
0.003000
  0
VERTEX
  8
PLAN_1
 62
     5
  6
CONTINUOUS
 10
-1.542925
 20
-0.303748
  0
VERTEX
  8
PLAN_1
 62
     5
  6
CONTINUOUS
 10
-1.542925
 20
-0.295366
  0
SEQEND
  8
0
  0
POLYLINE
  8
PLAN_1
 62
     5
  6
CONTINUOUS
 66
     1
 40
0.003000
 41
0.003000
  0
VERTEX
  8
PLAN_1
 62
     5
  6
CONTINUOUS
 10
-1.542925
 20
-0.286980
  0
VERTEX
  8
PLAN_1
 62
     5
  6
CONTINUOUS
 10
-1.542925
 20
-0.279091
  0
SEQEND
  8
0
  0
POLYLINE
  8
PLAN_1
 62
     5
  6
CONTINUOUS
 66
     1
 40
0.003000
 41
0.003000
  0
VERTEX
  8
PLAN_1
 62
     5
  6
CONTINUOUS
 10
-1.542925
 20
-0.270705
  0
VERTEX
  8
PLAN_1
 62
     5
  6
CONTINUOUS
 10
-1.542925
 20
-0.262323
  0
SEQEND
  8
0
  0
POLYLINE
  8
PLAN_1
 62
     5
  6
CONTINUOUS
 66
     1
 40
0.003000
 41
0.003000
  0
VERTEX
  8
PLAN_1
 62
     5
  6
CONTINUOUS
 10
-1.542925
 20
-0.253937
  0
VERTEX
  8
PLAN_1
 62
     5
  6
CONTINUOUS
 10
-1.542925
 20
-0.245555
  0
SEQEND
  8
0
  0
POLYLINE
  8
PLAN_1
 62
     5
  6
CONTINUOUS
 66
     1
 40
0.003000
 41
0.003000
  0
VERTEX
  8
PLAN_1
 62
     5
  6
CONTINUOUS
 10
-1.542925
 20
-0.237169
  0
VERTEX
  8
PLAN_1
 62
     5
  6
CONTINUOUS
 10
-1.542925
 20
-0.228783
  0
SEQEND
  8
0
  0
POLYLINE
  8
PLAN_1
 62
     5
  6
CONTINUOUS
 66
     1
 40
0.003000
 41
0.003000
  0
VERTEX
  8
PLAN_1
 62
     5
  6
CONTINUOUS
 10
-1.542925
 20
-0.220402
  0
VERTEX
  8
PLAN_1
 62
     5
  6
CONTINUOUS
 10
-1.542925
 20
-0.212016
  0
SEQEND
  8
0
  0
POLYLINE
  8
PLAN_1
 62
     5
  6
CONTINUOUS
 66
     1
 40
0.003000
 41
0.003000
  0
VERTEX
  8
PLAN_1
 62
     5
  6
CONTINUOUS
 10
-1.542925
 20
-0.204126
  0
VERTEX
  8
PLAN_1
 62
     5
  6
CONTINUOUS
 10
-1.542925
 20
-0.195740
  0
SEQEND
  8
0
  0
POLYLINE
  8
PLAN_1
 62
     5
  6
CONTINUOUS
 66
     1
 40
0.003000
 41
0.003000
  0
VERTEX
  8
PLAN_1
 62
     5
  6
CONTINUOUS
 10
-1.542925
 20
-0.187358
  0
VERTEX
  8
PLAN_1
 62
     5
  6
CONTINUOUS
 10
-1.542925
 20
-0.178972
  0
SEQEND
  8
0
  0
POLYLINE
  8
PLAN_1
 62
     5
  6
CONTINUOUS
 66
     1
 40
0.003000
 41
0.003000
  0
VERTEX
  8
PLAN_1
 62
     5
  6
CONTINUOUS
 10
-1.542925
 20
-0.170591
  0
VERTEX
  8
PLAN_1
 62
     5
  6
CONTINUOUS
 10
-1.542925
 20
-0.162205
  0
SEQEND
  8
0
  0
POLYLINE
  8
PLAN_1
 62
     5
  6
CONTINUOUS
 66
     1
 40
0.003000
 41
0.003000
  0
VERTEX
  8
PLAN_1
 62
     5
  6
CONTINUOUS
 10
-1.542925
 20
-0.153823
  0
VERTEX
  8
PLAN_1
 62
     5
  6
CONTINUOUS
 10
-1.542925
 20
-0.145437
  0
SEQEND
  8
0
  0
POLYLINE
  8
PLAN_1
 62
     5
  6
CONTINUOUS
 66
     1
 40
0.003000
 41
0.003000
  0
VERTEX
  8
PLAN_1
 62
     5
  6
CONTINUOUS
 10
-1.542925
 20
-0.137051
  0
VERTEX
  8
PLAN_1
 62
     5
  6
CONTINUOUS
 10
-1.542925
 20
-0.129161
  0
SEQEND
  8
0
  0
POLYLINE
  8
PLAN_1
 62
     5
  6
CONTINUOUS
 66
     1
 40
0.003000
 41
0.003000
  0
VERTEX
  8
PLAN_1
 62
     5
  6
CONTINUOUS
 10
-1.542925
 20
-0.120780
  0
VERTEX
  8
PLAN_1
 62
     5
  6
CONTINUOUS
 10
-1.542925
 20
-0.112394
  0
SEQEND
  8
0
  0
POLYLINE
  8
PLAN_1
 62
     5
  6
CONTINUOUS
 66
     1
 40
0.003000
 41
0.003000
  0
VERTEX
  8
PLAN_1
 62
     5
  6
CONTINUOUS
 10
-1.542925
 20
-0.104008
  0
VERTEX
  8
PLAN_1
 62
     5
  6
CONTINUOUS
 10
-1.542925
 20
-0.095626
  0
SEQEND
  8
0
  0
POLYLINE
  8
PLAN_1
 62
     5
  6
CONTINUOUS
 66
     1
 40
0.003000
 41
0.003000
  0
VERTEX
  8
PLAN_1
 62
     5
  6
CONTINUOUS
 10
-1.542925
 20
-0.087240
  0
VERTEX
  8
PLAN_1
 62
     5
  6
CONTINUOUS
 10
-1.542925
 20
-0.078858
  0
SEQEND
  8
0
  0
POLYLINE
  8
PLAN_1
 62
     5
  6
CONTINUOUS
 66
     1
 40
0.003000
 41
0.003000
  0
VERTEX
  8
PLAN_1
 62
     5
  6
CONTINUOUS
 10
-1.542925
 20
-0.070472
  0
VERTEX
  8
PLAN_1
 62
     5
  6
CONTINUOUS
 10
-1.542925
 20
-0.062091
  0
SEQEND
  8
0
  0
POLYLINE
  8
PLAN_1
 62
     5
  6
CONTINUOUS
 66
     1
 40
0.003000
 41
0.003000
  0
VERTEX
  8
PLAN_1
 62
     5
  6
CONTINUOUS
 10
-1.542925
 20
-0.054197
  0
VERTEX
  8
PLAN_1
 62
     5
  6
CONTINUOUS
 10
-1.542925
 20
-0.045815
  0
SEQEND
  8
0
  0
POLYLINE
  8
PLAN_1
 62
     5
  6
CONTINUOUS
 66
     1
 40
0.003000
 41
0.003000
  0
VERTEX
  8
PLAN_1
 62
     5
  6
CONTINUOUS
 10
-1.542925
 20
-0.037429
  0
VERTEX
  8
PLAN_1
 62
     5
  6
CONTINUOUS
 10
-1.542925
 20
-0.029047
  0
SEQEND
  8
0
  0
POLYLINE
  8
PLAN_1
 62
     5
  6
CONTINUOUS
 66
     1
 40
0.003000
 41
0.003000
  0
VERTEX
  8
PLAN_1
 62
     5
  6
CONTINUOUS
 10
-1.542925
 20
-0.020661
  0
VERTEX
  8
PLAN_1
 62
     5
  6
CONTINUOUS
 10
-1.542925
 20
-0.012280
  0
SEQEND
  8
0
  0
POLYLINE
  8
PLAN_1
 62
     5
  6
CONTINUOUS
 66
     1
 40
0.003000
 41
0.003000
  0
VERTEX
  8
PLAN_1
 62
     5
  6
CONTINUOUS
 10
-1.542925
 20
-0.003894
  0
VERTEX
  8
PLAN_1
 62
     5
  6
CONTINUOUS
 10
-1.542925
 20
0.004492
  0
SEQEND
  8
0
  0
POLYLINE
  8
PLAN_1
 62
     5
  6
CONTINUOUS
 66
     1
 40
0.003000
 41
0.003000
  0
VERTEX
  8
PLAN_1
 62
     5
  6
CONTINUOUS
 10
-1.542925
 20
0.012874
  0
VERTEX
  8
PLAN_1
 62
     5
  6
CONTINUOUS
 10
-1.542925
 20
0.020764
  0
SEQEND
  8
0
  0
POLYLINE
  8
PLAN_1
 62
     5
  6
CONTINUOUS
 66
     1
 40
0.003000
 41
0.003000
  0
VERTEX
  8
PLAN_1
 62
     5
  6
CONTINUOUS
 10
-1.542925
 20
0.029150
  0
VERTEX
  8
PLAN_1
 62
     5
  6
CONTINUOUS
 10
-1.542925
 20
0.037535
  0
SEQEND
  8
0
  0
POLYLINE
  8
PLAN_1
 62
     5
  6
CONTINUOUS
 66
     1
 40
0.003000
 41
0.003000
  0
VERTEX
  8
PLAN_1
 62
     5
  6
CONTINUOUS
 10
-1.542925
 20
0.045917
  0
VERTEX
  8
PLAN_1
 62
     5
  6
CONTINUOUS
 10
-1.542925
 20
0.054303
  0
SEQEND
  8
0
  0
POLYLINE
  8
PLAN_1
 62
     5
  6
CONTINUOUS
 66
     1
 40
0.003000
 41
0.003000
  0
VERTEX
  8
PLAN_1
 62
     5
  6
CONTINUOUS
 10
-1.542925
 20
0.062685
  0
VERTEX
  8
PLAN_1
 62
     5
  6
CONTINUOUS
 10
-1.542925
 20
0.071071
  0
SEQEND
  8
0
  0
POLYLINE
  8
PLAN_1
 62
     5
  6
CONTINUOUS
 66
     1
 40
0.003000
 41
0.003000
  0
VERTEX
  8
PLAN_1
 62
     5
  6
CONTINUOUS
 10
-1.542925
 20
0.079453
  0
VERTEX
  8
PLAN_1
 62
     5
  6
CONTINUOUS
 10
-1.542925
 20
0.087839
  0
SEQEND
  8
0
  0
POLYLINE
  8
PLAN_1
 62
     5
  6
CONTINUOUS
 66
     1
 40
0.003000
 41
0.003000
  0
VERTEX
  8
PLAN_1
 62
     5
  6
CONTINUOUS
 10
-1.542925
 20
0.095728
  0
VERTEX
  8
PLAN_1
 62
     5
  6
CONTINUOUS
 10
-1.542925
 20
0.104114
  0
SEQEND
  8
0
  0
POLYLINE
  8
PLAN_1
 62
     5
  6
CONTINUOUS
 66
     1
 40
0.003000
 41
0.003000
  0
VERTEX
  8
PLAN_1
 62
     5
  6
CONTINUOUS
 10
-1.542925
 20
0.112496
  0
VERTEX
  8
PLAN_1
 62
     5
  6
CONTINUOUS
 10
-1.542925
 20
0.120882
  0
SEQEND
  8
0
  0
POLYLINE
  8
PLAN_1
 62
     5
  6
CONTINUOUS
 66
     1
 40
0.003000
 41
0.003000
  0
VERTEX
  8
PLAN_1
 62
     5
  6
CONTINUOUS
 10
-1.542925
 20
0.129268
  0
VERTEX
  8
PLAN_1
 62
     5
  6
CONTINUOUS
 10
-1.542925
 20
0.137650
  0
SEQEND
  8
0
  0
POLYLINE
  8
PLAN_1
 62
     5
  6
CONTINUOUS
 66
     1
 40
0.003000
 41
0.003000
  0
VERTEX
  8
PLAN_1
 62
     5
  6
CONTINUOUS
 10
-1.542925
 20
0.146035
  0
VERTEX
  8
PLAN_1
 62
     5
  6
CONTINUOUS
 10
-1.542925
 20
0.154417
  0
SEQEND
  8
0
  0
POLYLINE
  8
PLAN_1
 62
     5
  6
CONTINUOUS
 66
     1
 40
0.003000
 41
0.003000
  0
VERTEX
  8
PLAN_1
 62
     5
  6
CONTINUOUS
 10
-1.542925
 20
0.162803
  0
VERTEX
  8
PLAN_1
 62
     5
  6
CONTINUOUS
 10
-1.542925
 20
0.170693
  0
SEQEND
  8
0
  0
POLYLINE
  8
PLAN_1
 62
     5
  6
CONTINUOUS
 66
     1
 40
0.003000
 41
0.003000
  0
VERTEX
  8
PLAN_1
 62
     5
  6
CONTINUOUS
 10
-1.542925
 20
0.179079
  0
VERTEX
  8
PLAN_1
 62
     5
  6
CONTINUOUS
 10
-1.542925
 20
0.187461
  0
SEQEND
  8
0
  0
POLYLINE
  8
PLAN_1
 62
     5
  6
CONTINUOUS
 66
     1
 40
0.003000
 41
0.003000
  0
VERTEX
  8
PLAN_1
 62
     5
  6
CONTINUOUS
 10
-1.542925
 20
0.195846
  0
VERTEX
  8
PLAN_1
 62
     5
  6
CONTINUOUS
 10
-1.542925
 20
0.204228
  0
SEQEND
  8
0
  0
POLYLINE
  8
PLAN_1
 62
     5
  6
CONTINUOUS
 66
     1
 40
0.003000
 41
0.003000
  0
VERTEX
  8
PLAN_1
 62
     5
  6
CONTINUOUS
 10
-1.542925
 20
0.212614
  0
VERTEX
  8
PLAN_1
 62
     5
  6
CONTINUOUS
 10
-1.542925
 20
0.221000
  0
SEQEND
  8
0
  0
POLYLINE
  8
PLAN_1
 62
     5
  6
CONTINUOUS
 66
     1
 40
0.003000
 41
0.003000
  0
VERTEX
  8
PLAN_1
 62
     5
  6
CONTINUOUS
 10
-1.542925
 20
0.229382
  0
VERTEX
  8
PLAN_1
 62
     5
  6
CONTINUOUS
 10
-1.542925
 20
0.237768
  0
SEQEND
  8
0
  0
POLYLINE
  8
PLAN_1
 62
     5
  6
CONTINUOUS
 66
     1
 40
0.003000
 41
0.003000
  0
VERTEX
  8
PLAN_1
 62
     5
  6
CONTINUOUS
 10
-1.542925
 20
0.245657
  0
VERTEX
  8
PLAN_1
 62
     5
  6
CONTINUOUS
 10
-1.542925
 20
0.254043
  0
SEQEND
  8
0
  0
POLYLINE
  8
PLAN_1
 62
     5
  6
CONTINUOUS
 66
     1
 40
0.003000
 41
0.003000
  0
VERTEX
  8
PLAN_1
 62
     5
  6
CONTINUOUS
 10
-1.541445
 20
0.260945
  0
VERTEX
  8
PLAN_1
 62
     5
  6
CONTINUOUS
 10
-1.533063
 20
0.260945
  0
SEQEND
  8
0
  0
POLYLINE
  8
PLAN_1
 62
     5
  6
CONTINUOUS
 66
     1
 40
0.003000
 41
0.003000
  0
VERTEX
  8
PLAN_1
 62
     5
  6
CONTINUOUS
 10
-1.524677
 20
0.260945
  0
VERTEX
  8
PLAN_1
 62
     5
  6
CONTINUOUS
 10
-1.516291
 20
0.260945
  0
SEQEND
  8
0
  0
POLYLINE
  8
PLAN_1
 62
     5
  6
CONTINUOUS
 66
     1
 40
0.003000
 41
0.003000
  0
VERTEX
  8
PLAN_1
 62
     5
  6
CONTINUOUS
 10
-1.507909
 20
0.260945
  0
VERTEX
  8
PLAN_1
 62
     5
  6
CONTINUOUS
 10
-1.499524
 20
0.260945
  0
SEQEND
  8
0
  0
POLYLINE
  8
PLAN_1
 62
     5
  6
CONTINUOUS
 66
     1
 40
0.003000
 41
0.003000
  0
VERTEX
  8
PLAN_1
 62
     5
  6
CONTINUOUS
 10
-1.491142
 20
0.260945
  0
VERTEX
  8
PLAN_1
 62
     5
  6
CONTINUOUS
 10
-1.482756
 20
0.260945
  0
SEQEND
  8
0
  0
POLYLINE
  8
PLAN_1
 62
     5
  6
CONTINUOUS
 66
     1
 40
0.003000
 41
0.003000
  0
VERTEX
  8
PLAN_1
 62
     5
  6
CONTINUOUS
 10
-1.474866
 20
0.260945
  0
VERTEX
  8
PLAN_1
 62
     5
  6
CONTINUOUS
 10
-1.466480
 20
0.260945
  0
SEQEND
  8
0
  0
POLYLINE
  8
PLAN_1
 62
     5
  6
CONTINUOUS
 66
     1
 40
0.003000
 41
0.003000
  0
VERTEX
  8
PLAN_1
 62
     5
  6
CONTINUOUS
 10
-1.458098
 20
0.260945
  0
VERTEX
  8
PLAN_1
 62
     5
  6
CONTINUOUS
 10
-1.449713
 20
0.260945
  0
SEQEND
  8
0
  0
POLYLINE
  8
PLAN_1
 62
     5
  6
CONTINUOUS
 66
     1
 40
0.003000
 41
0.003000
  0
VERTEX
  8
PLAN_1
 62
     5
  6
CONTINUOUS
 10
-1.441331
 20
0.260945
  0
VERTEX
  8
PLAN_1
 62
     5
  6
CONTINUOUS
 10
-1.432945
 20
0.260945
  0
SEQEND
  8
0
  0
POLYLINE
  8
PLAN_1
 62
     5
  6
CONTINUOUS
 66
     1
 40
0.003000
 41
0.003000
  0
VERTEX
  8
PLAN_1
 62
     5
  6
CONTINUOUS
 10
-1.424559
 20
0.260945
  0
VERTEX
  8
PLAN_1
 62
     5
  6
CONTINUOUS
 10
-1.416177
 20
0.260945
  0
SEQEND
  8
0
  0
POLYLINE
  8
PLAN_1
 62
     5
  6
CONTINUOUS
 66
     1
 40
0.003000
 41
0.003000
  0
VERTEX
  8
PLAN_1
 62
     5
  6
CONTINUOUS
 10
-1.407791
 20
0.260945
  0
VERTEX
  8
PLAN_1
 62
     5
  6
CONTINUOUS
 10
-1.399902
 20
0.260945
  0
SEQEND
  8
0
  0
POLYLINE
  8
PLAN_1
 62
     5
  6
CONTINUOUS
 66
     1
 40
0.003000
 41
0.003000
  0
VERTEX
  8
PLAN_1
 62
     5
  6
CONTINUOUS
 10
-1.391516
 20
0.260945
  0
VERTEX
  8
PLAN_1
 62
     5
  6
CONTINUOUS
 10
-1.383134
 20
0.260945
  0
SEQEND
  8
0
  0
POLYLINE
  8
PLAN_1
 62
     5
  6
CONTINUOUS
 66
     1
 40
0.003000
 41
0.003000
  0
VERTEX
  8
PLAN_1
 62
     5
  6
CONTINUOUS
 10
-1.374748
 20
0.260945
  0
VERTEX
  8
PLAN_1
 62
     5
  6
CONTINUOUS
 10
-1.366366
 20
0.260945
  0
SEQEND
  8
0
  0
POLYLINE
  8
PLAN_1
 62
     5
  6
CONTINUOUS
 66
     1
 40
0.003000
 41
0.003000
  0
VERTEX
  8
PLAN_1
 62
     5
  6
CONTINUOUS
 10
-1.357980
 20
0.260945
  0
VERTEX
  8
PLAN_1
 62
     5
  6
CONTINUOUS
 10
-1.349598
 20
0.260945
  0
SEQEND
  8
0
  0
POLYLINE
  8
PLAN_1
 62
     5
  6
CONTINUOUS
 66
     1
 40
0.003000
 41
0.003000
  0
VERTEX
  8
PLAN_1
 62
     5
  6
CONTINUOUS
 10
-1.341213
 20
0.260945
  0
VERTEX
  8
PLAN_1
 62
     5
  6
CONTINUOUS
 10
-1.332827
 20
0.260945
  0
SEQEND
  8
0
  0
POLYLINE
  8
PLAN_1
 62
     5
  6
CONTINUOUS
 66
     1
 40
0.003000
 41
0.003000
  0
VERTEX
  8
PLAN_1
 62
     5
  6
CONTINUOUS
 10
-1.324937
 20
0.260945
  0
VERTEX
  8
PLAN_1
 62
     5
  6
CONTINUOUS
 10
-1.316555
 20
0.260945
  0
SEQEND
  8
0
  0
POLYLINE
  8
PLAN_1
 62
     5
  6
CONTINUOUS
 66
     1
 40
0.003000
 41
0.003000
  0
VERTEX
  8
PLAN_1
 62
     5
  6
CONTINUOUS
 10
-1.308169
 20
0.260945
  0
VERTEX
  8
PLAN_1
 62
     5
  6
CONTINUOUS
 10
-1.299783
 20
0.260945
  0
SEQEND
  8
0
  0
POLYLINE
  8
PLAN_1
 62
     5
  6
CONTINUOUS
 66
     1
 40
0.003000
 41
0.003000
  0
VERTEX
  8
PLAN_1
 62
     5
  6
CONTINUOUS
 10
-1.291402
 20
0.260945
  0
VERTEX
  8
PLAN_1
 62
     5
  6
CONTINUOUS
 10
-1.283016
 20
0.260945
  0
SEQEND
  8
0
  0
POLYLINE
  8
PLAN_1
 62
     5
  6
CONTINUOUS
 66
     1
 40
0.003000
 41
0.003000
  0
VERTEX
  8
PLAN_1
 62
     5
  6
CONTINUOUS
 10
-1.274634
 20
0.260945
  0
VERTEX
  8
PLAN_1
 62
     5
  6
CONTINUOUS
 10
-1.266248
 20
0.260945
  0
SEQEND
  8
0
  0
POLYLINE
  8
PLAN_1
 62
     5
  6
CONTINUOUS
 66
     1
 40
0.003000
 41
0.003000
  0
VERTEX
  8
PLAN_1
 62
     5
  6
CONTINUOUS
 10
-1.257866
 20
0.260945
  0
VERTEX
  8
PLAN_1
 62
     5
  6
CONTINUOUS
 10
-1.249972
 20
0.260945
  0
SEQEND
  8
0
  0
POLYLINE
  8
PLAN_1
 62
     5
  6
CONTINUOUS
 66
     1
 40
0.003000
 41
0.003000
  0
VERTEX
  8
PLAN_1
 62
     5
  6
CONTINUOUS
 10
-1.241591
 20
0.260945
  0
VERTEX
  8
PLAN_1
 62
     5
  6
CONTINUOUS
 10
-1.233205
 20
0.260945
  0
SEQEND
  8
0
  0
POLYLINE
  8
PLAN_1
 62
     5
  6
CONTINUOUS
 66
     1
 40
0.003000
 41
0.003000
  0
VERTEX
  8
PLAN_1
 62
     5
  6
CONTINUOUS
 10
-1.224823
 20
0.260945
  0
VERTEX
  8
PLAN_1
 62
     5
  6
CONTINUOUS
 10
-1.216437
 20
0.260945
  0
SEQEND
  8
0
  0
POLYLINE
  8
PLAN_1
 62
     5
  6
CONTINUOUS
 66
     1
 40
0.003000
 41
0.003000
  0
VERTEX
  8
PLAN_1
 62
     5
  6
CONTINUOUS
 10
-1.208051
 20
0.260945
  0
VERTEX
  8
PLAN_1
 62
     5
  6
CONTINUOUS
 10
-1.199669
 20
0.260945
  0
SEQEND
  8
0
  0
POLYLINE
  8
PLAN_1
 62
     5
  6
CONTINUOUS
 66
     1
 40
0.003000
 41
0.003000
  0
VERTEX
  8
PLAN_1
 62
     5
  6
CONTINUOUS
 10
-1.191283
 20
0.260945
  0
VERTEX
  8
PLAN_1
 62
     5
  6
CONTINUOUS
 10
-1.182902
 20
0.260945
  0
SEQEND
  8
0
  0
POLYLINE
  8
PLAN_1
 62
     5
  6
CONTINUOUS
 66
     1
 40
0.003000
 41
0.003000
  0
VERTEX
  8
PLAN_1
 62
     5
  6
CONTINUOUS
 10
-1.175008
 20
0.260945
  0
VERTEX
  8
PLAN_1
 62
     5
  6
CONTINUOUS
 10
-1.166626
 20
0.260945
  0
SEQEND
  8
0
  0
POLYLINE
  8
PLAN_1
 62
     5
  6
CONTINUOUS
 66
     1
 40
0.003000
 41
0.003000
  0
VERTEX
  8
PLAN_1
 62
     5
  6
CONTINUOUS
 10
-1.158240
 20
0.260945
  0
VERTEX
  8
PLAN_1
 62
     5
  6
CONTINUOUS
 10
-1.149858
 20
0.260945
  0
SEQEND
  8
0
  0
POLYLINE
  8
PLAN_1
 62
     5
  6
CONTINUOUS
 66
     1
 40
0.003000
 41
0.003000
  0
VERTEX
  8
PLAN_1
 62
     5
  6
CONTINUOUS
 10
-1.141472
 20
0.260945
  0
VERTEX
  8
PLAN_1
 62
     5
  6
CONTINUOUS
 10
-1.133091
 20
0.260945
  0
SEQEND
  8
0
  0
POLYLINE
  8
PLAN_1
 62
     5
  6
CONTINUOUS
 66
     1
 40
0.003000
 41
0.003000
  0
VERTEX
  8
PLAN_1
 62
     5
  6
CONTINUOUS
 10
-1.124705
 20
0.260945
  0
VERTEX
  8
PLAN_1
 62
     5
  6
CONTINUOUS
 10
-1.116323
 20
0.260945
  0
SEQEND
  8
0
  0
POLYLINE
  8
PLAN_1
 62
     5
  6
CONTINUOUS
 66
     1
 40
0.003000
 41
0.003000
  0
VERTEX
  8
PLAN_1
 62
     5
  6
CONTINUOUS
 10
-1.107937
 20
0.260945
  0
VERTEX
  8
PLAN_1
 62
     5
  6
CONTINUOUS
 10
-1.099551
 20
0.260945
  0
SEQEND
  8
0
  0
POLYLINE
  8
PLAN_1
 62
     5
  6
CONTINUOUS
 66
     1
 40
0.003000
 41
0.003000
  0
VERTEX
  8
PLAN_1
 62
     5
  6
CONTINUOUS
 10
-1.091661
 20
0.260945
  0
VERTEX
  8
PLAN_1
 62
     5
  6
CONTINUOUS
 10
-1.083280
 20
0.260945
  0
SEQEND
  8
0
  0
POLYLINE
  8
PLAN_1
 62
     5
  6
CONTINUOUS
 66
     1
 40
0.003000
 41
0.003000
  0
VERTEX
  8
PLAN_1
 62
     5
  6
CONTINUOUS
 10
-1.074894
 20
0.260945
  0
VERTEX
  8
PLAN_1
 62
     5
  6
CONTINUOUS
 10
-1.066508
 20
0.260945
  0
SEQEND
  8
0
  0
POLYLINE
  8
PLAN_1
 62
     5
  6
CONTINUOUS
 66
     1
 40
0.003000
 41
0.003000
  0
VERTEX
  8
PLAN_1
 62
     5
  6
CONTINUOUS
 10
-1.058126
 20
0.260945
  0
VERTEX
  8
PLAN_1
 62
     5
  6
CONTINUOUS
 10
-1.049740
 20
0.260945
  0
SEQEND
  8
0
  0
POLYLINE
  8
PLAN_1
 62
     5
  6
CONTINUOUS
 66
     1
 40
0.003000
 41
0.003000
  0
VERTEX
  8
PLAN_1
 62
     5
  6
CONTINUOUS
 10
-1.041358
 20
0.260945
  0
VERTEX
  8
PLAN_1
 62
     5
  6
CONTINUOUS
 10
-1.032972
 20
0.260945
  0
SEQEND
  8
0
  0
POLYLINE
  8
PLAN_1
 62
     5
  6
CONTINUOUS
 66
     1
 40
0.003000
 41
0.003000
  0
VERTEX
  8
PLAN_1
 62
     5
  6
CONTINUOUS
 10
-1.024591
 20
0.260945
  0
VERTEX
  8
PLAN_1
 62
     5
  6
CONTINUOUS
 10
-1.016697
 20
0.260945
  0
SEQEND
  8
0
  0
POLYLINE
  8
PLAN_1
 62
     5
  6
CONTINUOUS
 66
     1
 40
0.003000
 41
0.003000
  0
VERTEX
  8
PLAN_1
 62
     5
  6
CONTINUOUS
 10
-1.008315
 20
0.260945
  0
VERTEX
  8
PLAN_1
 62
     5
  6
CONTINUOUS
 10
-0.999929
 20
0.260945
  0
SEQEND
  8
0
  0
POLYLINE
  8
PLAN_1
 62
     5
  6
CONTINUOUS
 66
     1
 40
0.003000
 41
0.003000
  0
VERTEX
  8
PLAN_1
 62
     5
  6
CONTINUOUS
 10
-0.991547
 20
0.260945
  0
VERTEX
  8
PLAN_1
 62
     5
  6
CONTINUOUS
 10
-0.983161
 20
0.260945
  0
SEQEND
  8
0
  0
POLYLINE
  8
PLAN_1
 62
     5
  6
CONTINUOUS
 66
     1
 40
0.003000
 41
0.003000
  0
VERTEX
  8
PLAN_1
 62
     5
  6
CONTINUOUS
 10
-0.974776
 20
0.260945
  0
VERTEX
  8
PLAN_1
 62
     5
  6
CONTINUOUS
 10
-0.966394
 20
0.260945
  0
SEQEND
  8
0
  0
POLYLINE
  8
PLAN_1
 62
     5
  6
CONTINUOUS
 66
     1
 40
0.003000
 41
0.003000
  0
VERTEX
  8
PLAN_1
 62
     5
  6
CONTINUOUS
 10
-0.958008
 20
0.260945
  0
VERTEX
  8
PLAN_1
 62
     5
  6
CONTINUOUS
 10
-0.949626
 20
0.260945
  0
SEQEND
  8
0
  0
POLYLINE
  8
PLAN_1
 62
     5
  6
CONTINUOUS
 66
     1
 40
0.003000
 41
0.003000
  0
VERTEX
  8
PLAN_1
 62
     5
  6
CONTINUOUS
 10
-0.941732
 20
0.260945
  0
VERTEX
  8
PLAN_1
 62
     5
  6
CONTINUOUS
 10
-0.933350
 20
0.260945
  0
SEQEND
  8
0
  0
POLYLINE
  8
PLAN_1
 62
     5
  6
CONTINUOUS
 66
     1
 40
0.003000
 41
0.003000
  0
VERTEX
  8
PLAN_1
 62
     5
  6
CONTINUOUS
 10
-0.924965
 20
0.260945
  0
VERTEX
  8
PLAN_1
 62
     5
  6
CONTINUOUS
 10
-0.916583
 20
0.260945
  0
SEQEND
  8
0
  0
POLYLINE
  8
PLAN_1
 62
     5
  6
CONTINUOUS
 66
     1
 40
0.003000
 41
0.003000
  0
VERTEX
  8
PLAN_1
 62
     5
  6
CONTINUOUS
 10
-0.908197
 20
0.260945
  0
VERTEX
  8
PLAN_1
 62
     5
  6
CONTINUOUS
 10
-0.899815
 20
0.260945
  0
SEQEND
  8
0
  0
POLYLINE
  8
PLAN_1
 62
     5
  6
CONTINUOUS
 66
     1
 40
0.003000
 41
0.003000
  0
VERTEX
  8
PLAN_1
 62
     5
  6
CONTINUOUS
 10
-0.891429
 20
0.260945
  0
VERTEX
  8
PLAN_1
 62
     5
  6
CONTINUOUS
 10
-0.883043
 20
0.260945
  0
SEQEND
  8
0
  0
POLYLINE
  8
PLAN_1
 62
     5
  6
CONTINUOUS
 66
     1
 40
0.003000
 41
0.003000
  0
VERTEX
  8
PLAN_1
 62
     5
  6
CONTINUOUS
 10
-0.874661
 20
0.260945
  0
VERTEX
  8
PLAN_1
 62
     5
  6
CONTINUOUS
 10
-0.866772
 20
0.260945
  0
SEQEND
  8
0
  0
POLYLINE
  8
PLAN_1
 62
     5
  6
CONTINUOUS
 66
     1
 40
0.003000
 41
0.003000
  0
VERTEX
  8
PLAN_1
 62
     5
  6
CONTINUOUS
 10
-0.858386
 20
0.260945
  0
VERTEX
  8
PLAN_1
 62
     5
  6
CONTINUOUS
 10
-0.850000
 20
0.260945
  0
SEQEND
  8
0
  0
POLYLINE
  8
PLAN_1
 62
     5
  6
CONTINUOUS
 66
     1
 40
0.003000
 41
0.003000
  0
VERTEX
  8
PLAN_1
 62
     5
  6
CONTINUOUS
 10
-0.841618
 20
0.260945
  0
VERTEX
  8
PLAN_1
 62
     5
  6
CONTINUOUS
 10
-0.833232
 20
0.260945
  0
SEQEND
  8
0
  0
POLYLINE
  8
PLAN_1
 62
     5
  6
CONTINUOUS
 66
     1
 40
0.003000
 41
0.003000
  0
VERTEX
  8
PLAN_1
 62
     5
  6
CONTINUOUS
 10
-0.824850
 20
0.260945
  0
VERTEX
  8
PLAN_1
 62
     5
  6
CONTINUOUS
 10
-0.816465
 20
0.260945
  0
SEQEND
  8
0
  0
POLYLINE
  8
PLAN_1
 62
     5
  6
CONTINUOUS
 66
     1
 40
0.003000
 41
0.003000
  0
VERTEX
  8
PLAN_1
 62
     5
  6
CONTINUOUS
 10
-0.808083
 20
0.260945
  0
VERTEX
  8
PLAN_1
 62
     5
  6
CONTINUOUS
 10
-0.799697
 20
0.260945
  0
SEQEND
  8
0
  0
POLYLINE
  8
PLAN_1
 62
     5
  6
CONTINUOUS
 66
     1
 40
0.003000
 41
0.003000
  0
VERTEX
  8
PLAN_1
 62
     5
  6
CONTINUOUS
 10
-0.791807
 20
0.260945
  0
VERTEX
  8
PLAN_1
 62
     5
  6
CONTINUOUS
 10
-0.783421
 20
0.260945
  0
SEQEND
  8
0
  0
POLYLINE
  8
PLAN_1
 62
     5
  6
CONTINUOUS
 66
     1
 40
0.003000
 41
0.003000
  0
VERTEX
  8
PLAN_1
 62
     5
  6
CONTINUOUS
 10
-0.775039
 20
0.260945
  0
VERTEX
  8
PLAN_1
 62
     5
  6
CONTINUOUS
 10
-0.766654
 20
0.260945
  0
SEQEND
  8
0
  0
POLYLINE
  8
PLAN_1
 62
     5
  6
CONTINUOUS
 66
     1
 40
0.003000
 41
0.003000
  0
VERTEX
  8
PLAN_1
 62
     5
  6
CONTINUOUS
 10
-0.758272
 20
0.260945
  0
VERTEX
  8
PLAN_1
 62
     5
  6
CONTINUOUS
 10
-0.749886
 20
0.260945
  0
SEQEND
  8
0
  0
POLYLINE
  8
PLAN_1
 62
     5
  6
CONTINUOUS
 66
     1
 40
0.003000
 41
0.003000
  0
VERTEX
  8
PLAN_1
 62
     5
  6
CONTINUOUS
 10
-0.741500
 20
0.260945
  0
VERTEX
  8
PLAN_1
 62
     5
  6
CONTINUOUS
 10
-0.733118
 20
0.260945
  0
SEQEND
  8
0
  0
POLYLINE
  8
PLAN_1
 62
     5
  6
CONTINUOUS
 66
     1
 40
0.003000
 41
0.003000
  0
VERTEX
  8
PLAN_1
 62
     5
  6
CONTINUOUS
 10
-0.724732
 20
0.260945
  0
VERTEX
  8
PLAN_1
 62
     5
  6
CONTINUOUS
 10
-0.716843
 20
0.260945
  0
SEQEND
  8
0
  0
POLYLINE
  8
PLAN_1
 62
     5
  6
CONTINUOUS
 66
     1
 40
0.003000
 41
0.003000
  0
VERTEX
  8
PLAN_1
 62
     5
  6
CONTINUOUS
 10
-0.708457
 20
0.260945
  0
VERTEX
  8
PLAN_1
 62
     5
  6
CONTINUOUS
 10
-0.700075
 20
0.260945
  0
SEQEND
  8
0
  0
POLYLINE
  8
PLAN_1
 62
     5
  6
CONTINUOUS
 66
     1
 40
0.003000
 41
0.003000
  0
VERTEX
  8
PLAN_1
 62
     5
  6
CONTINUOUS
 10
-0.691689
 20
0.260945
  0
VERTEX
  8
PLAN_1
 62
     5
  6
CONTINUOUS
 10
-0.683307
 20
0.260945
  0
SEQEND
  8
0
  0
POLYLINE
  8
PLAN_1
 62
     5
  6
CONTINUOUS
 66
     1
 40
0.003000
 41
0.003000
  0
VERTEX
  8
PLAN_1
 62
     5
  6
CONTINUOUS
 10
-0.674921
 20
0.260945
  0
VERTEX
  8
PLAN_1
 62
     5
  6
CONTINUOUS
 10
-0.666539
 20
0.260945
  0
SEQEND
  8
0
  0
POLYLINE
  8
PLAN_1
 62
     5
  6
CONTINUOUS
 66
     1
 40
0.003000
 41
0.003000
  0
VERTEX
  8
PLAN_1
 62
     5
  6
CONTINUOUS
 10
-0.658154
 20
0.260945
  0
VERTEX
  8
PLAN_1
 62
     5
  6
CONTINUOUS
 10
-0.649768
 20
0.260945
  0
SEQEND
  8
0
  0
POLYLINE
  8
PLAN_1
 62
     5
  6
CONTINUOUS
 66
     1
 40
0.003000
 41
0.003000
  0
VERTEX
  8
PLAN_1
 62
     5
  6
CONTINUOUS
 10
-0.641878
 20
0.260945
  0
VERTEX
  8
PLAN_1
 62
     5
  6
CONTINUOUS
 10
-0.633496
 20
0.260945
  0
SEQEND
  8
0
  0
POLYLINE
  8
PLAN_1
 62
     5
  6
CONTINUOUS
 66
     1
 40
0.003000
 41
0.003000
  0
VERTEX
  8
PLAN_1
 62
     5
  6
CONTINUOUS
 10
-0.625110
 20
0.260945
  0
VERTEX
  8
PLAN_1
 62
     5
  6
CONTINUOUS
 10
-0.616724
 20
0.260945
  0
SEQEND
  8
0
  0
POLYLINE
  8
PLAN_1
 62
     5
  6
CONTINUOUS
 66
     1
 40
0.003000
 41
0.003000
  0
VERTEX
  8
PLAN_1
 62
     5
  6
CONTINUOUS
 10
-0.608343
 20
0.260945
  0
VERTEX
  8
PLAN_1
 62
     5
  6
CONTINUOUS
 10
-0.599957
 20
0.260945
  0
SEQEND
  8
0
  0
POLYLINE
  8
PLAN_1
 62
     5
  6
CONTINUOUS
 66
     1
 40
0.003000
 41
0.003000
  0
VERTEX
  8
PLAN_1
 62
     5
  6
CONTINUOUS
 10
-0.591575
 20
0.260945
  0
VERTEX
  8
PLAN_1
 62
     5
  6
CONTINUOUS
 10
-0.583189
 20
0.260945
  0
SEQEND
  8
0
  0
POLYLINE
  8
PLAN_1
 62
     5
  6
CONTINUOUS
 66
     1
 40
0.003000
 41
0.003000
  0
VERTEX
  8
PLAN_1
 62
     5
  6
CONTINUOUS
 10
-0.574807
 20
0.260945
  0
VERTEX
  8
PLAN_1
 62
     5
  6
CONTINUOUS
 10
-0.566913
 20
0.260945
  0
SEQEND
  8
0
  0
POLYLINE
  8
PLAN_1
 62
     5
  6
CONTINUOUS
 66
     1
 40
0.003000
 41
0.003000
  0
VERTEX
  8
PLAN_1
 62
     5
  6
CONTINUOUS
 10
-0.558531
 20
0.260945
  0
VERTEX
  8
PLAN_1
 62
     5
  6
CONTINUOUS
 10
-0.550146
 20
0.260945
  0
SEQEND
  8
0
  0
POLYLINE
  8
PLAN_1
 62
     5
  6
CONTINUOUS
 66
     1
 40
0.003000
 41
0.003000
  0
VERTEX
  8
PLAN_1
 62
     5
  6
CONTINUOUS
 10
-0.541764
 20
0.260945
  0
VERTEX
  8
PLAN_1
 62
     5
  6
CONTINUOUS
 10
-0.533378
 20
0.260945
  0
SEQEND
  8
0
  0
POLYLINE
  8
PLAN_1
 62
     5
  6
CONTINUOUS
 66
     1
 40
0.003000
 41
0.003000
  0
VERTEX
  8
PLAN_1
 62
     5
  6
CONTINUOUS
 10
-0.524992
 20
0.260945
  0
VERTEX
  8
PLAN_1
 62
     5
  6
CONTINUOUS
 10
-0.516610
 20
0.260945
  0
SEQEND
  8
0
  0
POLYLINE
  8
PLAN_1
 62
     5
  6
CONTINUOUS
 66
     1
 40
0.003000
 41
0.003000
  0
VERTEX
  8
PLAN_1
 62
     5
  6
CONTINUOUS
 10
-0.508224
 20
0.260945
  0
VERTEX
  8
PLAN_1
 62
     5
  6
CONTINUOUS
 10
-0.499843
 20
0.260945
  0
SEQEND
  8
0
  0
POLYLINE
  8
PLAN_1
 62
     5
  6
CONTINUOUS
 66
     1
 40
0.003000
 41
0.003000
  0
VERTEX
  8
PLAN_1
 62
     5
  6
CONTINUOUS
 10
-0.491949
 20
0.260945
  0
VERTEX
  8
PLAN_1
 62
     5
  6
CONTINUOUS
 10
-0.483567
 20
0.260945
  0
SEQEND
  8
0
  0
POLYLINE
  8
PLAN_1
 62
     5
  6
CONTINUOUS
 66
     1
 40
0.003000
 41
0.003000
  0
VERTEX
  8
PLAN_1
 62
     5
  6
CONTINUOUS
 10
-0.475181
 20
0.260945
  0
VERTEX
  8
PLAN_1
 62
     5
  6
CONTINUOUS
 10
-0.466799
 20
0.260945
  0
SEQEND
  8
0
  0
POLYLINE
  8
PLAN_1
 62
     5
  6
CONTINUOUS
 66
     1
 40
0.003000
 41
0.003000
  0
VERTEX
  8
PLAN_1
 62
     5
  6
CONTINUOUS
 10
-0.458413
 20
0.260945
  0
VERTEX
  8
PLAN_1
 62
     5
  6
CONTINUOUS
 10
-0.450031
 20
0.260945
  0
SEQEND
  8
0
  0
POLYLINE
  8
PLAN_1
 62
     5
  6
CONTINUOUS
 66
     1
 40
0.003000
 41
0.003000
  0
VERTEX
  8
PLAN_1
 62
     5
  6
CONTINUOUS
 10
-0.441646
 20
0.260945
  0
VERTEX
  8
PLAN_1
 62
     5
  6
CONTINUOUS
 10
-0.433260
 20
0.260945
  0
SEQEND
  8
0
  0
POLYLINE
  8
PLAN_1
 62
     5
  6
CONTINUOUS
 66
     1
 40
0.003000
 41
0.003000
  0
VERTEX
  8
PLAN_1
 62
     5
  6
CONTINUOUS
 10
-0.424878
 20
0.260945
  0
VERTEX
  8
PLAN_1
 62
     5
  6
CONTINUOUS
 10
-0.416988
 20
0.260945
  0
SEQEND
  8
0
  0
POLYLINE
  8
PLAN_1
 62
     5
  6
CONTINUOUS
 66
     1
 40
0.003000
 41
0.003000
  0
VERTEX
  8
PLAN_1
 62
     5
  6
CONTINUOUS
 10
-0.408602
 20
0.260945
  0
VERTEX
  8
PLAN_1
 62
     5
  6
CONTINUOUS
 10
-0.400217
 20
0.260945
  0
SEQEND
  8
0
  0
POLYLINE
  8
PLAN_1
 62
     5
  6
CONTINUOUS
 66
     1
 40
0.003000
 41
0.003000
  0
VERTEX
  8
PLAN_1
 62
     5
  6
CONTINUOUS
 10
-0.391835
 20
0.260945
  0
VERTEX
  8
PLAN_1
 62
     5
  6
CONTINUOUS
 10
-0.383449
 20
0.260945
  0
SEQEND
  8
0
  0
POLYLINE
  8
PLAN_1
 62
     5
  6
CONTINUOUS
 66
     1
 40
0.003000
 41
0.003000
  0
VERTEX
  8
PLAN_1
 62
     5
  6
CONTINUOUS
 10
-0.375067
 20
0.260945
  0
VERTEX
  8
PLAN_1
 62
     5
  6
CONTINUOUS
 10
-0.366681
 20
0.260945
  0
SEQEND
  8
0
  0
POLYLINE
  8
PLAN_1
 62
     5
  6
CONTINUOUS
 66
     1
 40
0.003000
 41
0.003000
  0
VERTEX
  8
PLAN_1
 62
     5
  6
CONTINUOUS
 10
-0.358299
 20
0.260945
  0
VERTEX
  8
PLAN_1
 62
     5
  6
CONTINUOUS
 10
-0.349913
 20
0.260945
  0
SEQEND
  8
0
  0
POLYLINE
  8
PLAN_1
 62
     5
  6
CONTINUOUS
 66
     1
 40
0.003000
 41
0.003000
  0
VERTEX
  8
PLAN_1
 62
     5
  6
CONTINUOUS
 10
-0.342024
 20
0.260945
  0
VERTEX
  8
PLAN_1
 62
     5
  6
CONTINUOUS
 10
-0.333638
 20
0.260945
  0
SEQEND
  8
0
  0
POLYLINE
  8
PLAN_1
 62
     5
  6
CONTINUOUS
 66
     1
 40
0.003000
 41
0.003000
  0
VERTEX
  8
PLAN_1
 62
     5
  6
CONTINUOUS
 10
-0.325256
 20
0.260945
  0
VERTEX
  8
PLAN_1
 62
     5
  6
CONTINUOUS
 10
-0.316870
 20
0.260945
  0
SEQEND
  8
0
  0
POLYLINE
  8
PLAN_1
 62
     5
  6
CONTINUOUS
 66
     1
 40
0.003000
 41
0.003000
  0
VERTEX
  8
PLAN_1
 62
     5
  6
CONTINUOUS
 10
-0.308488
 20
0.260945
  0
VERTEX
  8
PLAN_1
 62
     5
  6
CONTINUOUS
 10
-0.300102
 20
0.260945
  0
SEQEND
  8
0
  0
POLYLINE
  8
PLAN_1
 62
     5
  6
CONTINUOUS
 66
     1
 40
0.003000
 41
0.003000
  0
VERTEX
  8
PLAN_1
 62
     5
  6
CONTINUOUS
 10
-0.291717
 20
0.260945
  0
VERTEX
  8
PLAN_1
 62
     5
  6
CONTINUOUS
 10
-0.283335
 20
0.260945
  0
SEQEND
  8
0
  0
POLYLINE
  8
PLAN_1
 62
     5
  6
CONTINUOUS
 66
     1
 40
0.003000
 41
0.003000
  0
VERTEX
  8
PLAN_1
 62
     5
  6
CONTINUOUS
 10
-0.274949
 20
0.260945
  0
VERTEX
  8
PLAN_1
 62
     5
  6
CONTINUOUS
 10
-0.267059
 20
0.260945
  0
SEQEND
  8
0
  0
POLYLINE
  8
PLAN_1
 62
     5
  6
CONTINUOUS
 66
     1
 40
0.003000
 41
0.003000
  0
VERTEX
  8
PLAN_1
 62
     5
  6
CONTINUOUS
 10
-0.258673
 20
0.260945
  0
VERTEX
  8
PLAN_1
 62
     5
  6
CONTINUOUS
 10
-0.250291
 20
0.260945
  0
SEQEND
  8
0
  0
POLYLINE
  8
PLAN_1
 62
     5
  6
CONTINUOUS
 66
     1
 40
0.003000
 41
0.003000
  0
VERTEX
  8
PLAN_1
 62
     5
  6
CONTINUOUS
 10
-0.241906
 20
0.260945
  0
VERTEX
  8
PLAN_1
 62
     5
  6
CONTINUOUS
 10
-0.233524
 20
0.260945
  0
SEQEND
  8
0
  0
POLYLINE
  8
PLAN_1
 62
     5
  6
CONTINUOUS
 66
     1
 40
0.003000
 41
0.003000
  0
VERTEX
  8
PLAN_1
 62
     5
  6
CONTINUOUS
 10
-0.225138
 20
0.260945
  0
VERTEX
  8
PLAN_1
 62
     5
  6
CONTINUOUS
 10
-0.216756
 20
0.260945
  0
SEQEND
  8
0
  0
POLYLINE
  8
PLAN_1
 62
     5
  6
CONTINUOUS
 66
     1
 40
0.003000
 41
0.003000
  0
VERTEX
  8
PLAN_1
 62
     5
  6
CONTINUOUS
 10
-0.208370
 20
0.260945
  0
VERTEX
  8
PLAN_1
 62
     5
  6
CONTINUOUS
 10
-0.199984
 20
0.260945
  0
SEQEND
  8
0
  0
POLYLINE
  8
PLAN_1
 62
     5
  6
CONTINUOUS
 66
     1
 40
0.003000
 41
0.003000
  0
VERTEX
  8
PLAN_1
 62
     5
  6
CONTINUOUS
 10
-0.192094
 20
0.260945
  0
VERTEX
  8
PLAN_1
 62
     5
  6
CONTINUOUS
 10
-0.183713
 20
0.260945
  0
SEQEND
  8
0
  0
POLYLINE
  8
PLAN_1
 62
     5
  6
CONTINUOUS
 66
     1
 40
0.003000
 41
0.003000
  0
VERTEX
  8
PLAN_1
 62
     5
  6
CONTINUOUS
 10
-0.175327
 20
0.260945
  0
VERTEX
  8
PLAN_1
 62
     5
  6
CONTINUOUS
 10
-0.166941
 20
0.260945
  0
SEQEND
  8
0
  0
POLYLINE
  8
PLAN_1
 62
     5
  6
CONTINUOUS
 66
     1
 40
0.003000
 41
0.003000
  0
VERTEX
  8
PLAN_1
 62
     5
  6
CONTINUOUS
 10
-0.158559
 20
0.260945
  0
VERTEX
  8
PLAN_1
 62
     5
  6
CONTINUOUS
 10
-0.150173
 20
0.260945
  0
SEQEND
  8
0
  0
POLYLINE
  8
PLAN_1
 62
     5
  6
CONTINUOUS
 66
     1
 40
0.003000
 41
0.003000
  0
VERTEX
  8
PLAN_1
 62
     5
  6
CONTINUOUS
 10
-0.141791
 20
0.260945
  0
VERTEX
  8
PLAN_1
 62
     5
  6
CONTINUOUS
 10
-0.133406
 20
0.260945
  0
SEQEND
  8
0
  0
POLYLINE
  8
PLAN_1
 62
     5
  6
CONTINUOUS
 66
     1
 40
0.003000
 41
0.003000
  0
VERTEX
  8
PLAN_1
 62
     5
  6
CONTINUOUS
 10
-0.125024
 20
0.260945
  0
VERTEX
  8
PLAN_1
 62
     5
  6
CONTINUOUS
 10
-0.117130
 20
0.260945
  0
SEQEND
  8
0
  0
POLYLINE
  8
PLAN_1
 62
     5
  6
CONTINUOUS
 66
     1
 40
0.003000
 41
0.003000
  0
VERTEX
  8
PLAN_1
 62
     5
  6
CONTINUOUS
 10
-0.108748
 20
0.260945
  0
VERTEX
  8
PLAN_1
 62
     5
  6
CONTINUOUS
 10
-0.100362
 20
0.260945
  0
SEQEND
  8
0
  0
POLYLINE
  8
PLAN_1
 62
     5
  6
CONTINUOUS
 66
     1
 40
0.003000
 41
0.003000
  0
VERTEX
  8
PLAN_1
 62
     5
  6
CONTINUOUS
 10
-0.091980
 20
0.260945
  0
VERTEX
  8
PLAN_1
 62
     5
  6
CONTINUOUS
 10
-0.083594
 20
0.260945
  0
SEQEND
  8
0
  0
POLYLINE
  8
PLAN_1
 62
     5
  6
CONTINUOUS
 66
     1
 40
0.003000
 41
0.003000
  0
VERTEX
  8
PLAN_1
 62
     5
  6
CONTINUOUS
 10
-0.075209
 20
0.260945
  0
VERTEX
  8
PLAN_1
 62
     5
  6
CONTINUOUS
 10
-0.066827
 20
0.260945
  0
SEQEND
  8
0
  0
POLYLINE
  8
PLAN_1
 62
     5
  6
CONTINUOUS
 66
     1
 40
0.003000
 41
0.003000
  0
VERTEX
  8
PLAN_1
 62
     5
  6
CONTINUOUS
 10
-0.058441
 20
0.260945
  0
VERTEX
  8
PLAN_1
 62
     5
  6
CONTINUOUS
 10
-0.050059
 20
0.260945
  0
SEQEND
  8
0
  0
POLYLINE
  8
PLAN_1
 62
     5
  6
CONTINUOUS
 66
     1
 40
0.003000
 41
0.003000
  0
VERTEX
  8
PLAN_1
 62
     5
  6
CONTINUOUS
 10
-0.041673
 20
0.260945
  0
VERTEX
  8
PLAN_1
 62
     5
  6
CONTINUOUS
 10
-0.033783
 20
0.260945
  0
SEQEND
  8
0
  0
POLYLINE
  8
PLAN_1
 62
     5
  6
CONTINUOUS
 66
     1
 40
0.003000
 41
0.003000
  0
VERTEX
  8
PLAN_1
 62
     5
  6
CONTINUOUS
 10
-0.025398
 20
0.260945
  0
VERTEX
  8
PLAN_1
 62
     5
  6
CONTINUOUS
 10
-0.017016
 20
0.260945
  0
SEQEND
  8
0
  0
POLYLINE
  8
PLAN_1
 62
     5
  6
CONTINUOUS
 66
     1
 40
0.003000
 41
0.003000
  0
VERTEX
  8
PLAN_1
 62
     5
  6
CONTINUOUS
 10
-0.008630
 20
0.260945
  0
VERTEX
  8
PLAN_1
 62
     5
  6
CONTINUOUS
 10
-0.000248
 20
0.260945
  0
SEQEND
  8
0
  0
POLYLINE
  8
PLAN_1
 62
     5
  6
CONTINUOUS
 66
     1
 40
0.003000
 41
0.003000
  0
VERTEX
  8
PLAN_1
 62
     5
  6
CONTINUOUS
 10
0.008138
 20
0.260945
  0
VERTEX
  8
PLAN_1
 62
     5
  6
CONTINUOUS
 10
0.016520
 20
0.260945
  0
SEQEND
  8
0
  0
POLYLINE
  8
PLAN_1
 62
     5
  6
CONTINUOUS
 66
     1
 40
0.003000
 41
0.003000
  0
VERTEX
  8
PLAN_1
 62
     5
  6
CONTINUOUS
 10
0.024906
 20
0.260945
  0
VERTEX
  8
PLAN_1
 62
     5
  6
CONTINUOUS
 10
0.028850
 20
0.260945
  0
VERTEX
  8
PLAN_1
 62
     5
  6
CONTINUOUS
 10
0.028850
 20
0.256508
  0
SEQEND
  8
0
  0
POLYLINE
  8
PLAN_1
 62
     5
  6
CONTINUOUS
 66
     1
 40
0.003000
 41
0.003000
  0
VERTEX
  8
PLAN_1
 62
     5
  6
CONTINUOUS
 10
0.028850
 20
0.248122
  0
VERTEX
  8
PLAN_1
 62
     5
  6
CONTINUOUS
 10
0.028850
 20
0.239740
  0
SEQEND
  8
0
  0
POLYLINE
  8
PLAN_1
 62
     5
  6
CONTINUOUS
 66
     1
 40
0.003000
 41
0.003000
  0
VERTEX
  8
PLAN_1
 62
     5
  6
CONTINUOUS
 10
0.028850
 20
0.231354
  0
VERTEX
  8
PLAN_1
 62
     5
  6
CONTINUOUS
 10
0.028850
 20
0.223465
  0
SEQEND
  8
0
  0
POLYLINE
  8
PLAN_1
 62
     5
  6
CONTINUOUS
 66
     1
 40
0.003000
 41
0.003000
  0
VERTEX
  8
PLAN_1
 62
     5
  6
CONTINUOUS
 10
0.028850
 20
0.215079
  0
VERTEX
  8
PLAN_1
 62
     5
  6
CONTINUOUS
 10
0.028850
 20
0.206697
  0
SEQEND
  8
0
  0
POLYLINE
  8
PLAN_1
 62
     5
  6
CONTINUOUS
 66
     1
 40
0.003000
 41
0.003000
  0
VERTEX
  8
PLAN_1
 62
     5
  6
CONTINUOUS
 10
0.028850
 20
0.198311
  0
VERTEX
  8
PLAN_1
 62
     5
  6
CONTINUOUS
 10
0.028850
 20
0.189929
  0
SEQEND
  8
0
  0
POLYLINE
  8
PLAN_1
 62
     5
  6
CONTINUOUS
 66
     1
 40
0.003000
 41
0.003000
  0
VERTEX
  8
PLAN_1
 62
     5
  6
CONTINUOUS
 10
0.028850
 20
0.181543
  0
VERTEX
  8
PLAN_1
 62
     5
  6
CONTINUOUS
 10
0.028850
 20
0.173161
  0
SEQEND
  8
0
  0
POLYLINE
  8
PLAN_1
 62
     5
  6
CONTINUOUS
 66
     1
 40
0.003000
 41
0.003000
  0
VERTEX
  8
PLAN_1
 62
     5
  6
CONTINUOUS
 10
0.028850
 20
0.164776
  0
VERTEX
  8
PLAN_1
 62
     5
  6
CONTINUOUS
 10
0.028850
 20
0.156390
  0
SEQEND
  8
0
  0
POLYLINE
  8
PLAN_1
 62
     5
  6
CONTINUOUS
 66
     1
 40
0.003000
 41
0.003000
  0
VERTEX
  8
PLAN_1
 62
     5
  6
CONTINUOUS
 10
0.028850
 20
0.148500
  0
VERTEX
  8
PLAN_1
 62
     5
  6
CONTINUOUS
 10
0.028850
 20
0.140118
  0
SEQEND
  8
0
  0
POLYLINE
  8
PLAN_1
 62
     5
  6
CONTINUOUS
 66
     1
 40
0.003000
 41
0.003000
  0
VERTEX
  8
PLAN_1
 62
     5
  6
CONTINUOUS
 10
0.028850
 20
0.131732
  0
VERTEX
  8
PLAN_1
 62
     5
  6
CONTINUOUS
 10
0.028850
 20
0.123346
  0
SEQEND
  8
0
  0
POLYLINE
  8
PLAN_1
 62
     5
  6
CONTINUOUS
 66
     1
 40
0.003000
 41
0.003000
  0
VERTEX
  8
PLAN_1
 62
     5
  6
CONTINUOUS
 10
0.028850
 20
0.114965
  0
VERTEX
  8
PLAN_1
 62
     5
  6
CONTINUOUS
 10
0.028850
 20
0.108551
  0
VERTEX
  8
PLAN_1
 62
     5
  6
CONTINUOUS
 10
0.030823
 20
0.108551
  0
SEQEND
  8
0
  0
POLYLINE
  8
PLAN_1
 62
     5
  6
CONTINUOUS
 66
     1
 40
0.003000
 41
0.003000
  0
VERTEX
  8
PLAN_1
 62
     5
  6
CONTINUOUS
 10
0.039209
 20
0.108551
  0
VERTEX
  8
PLAN_1
 62
     5
  6
CONTINUOUS
 10
0.047591
 20
0.108551
  0
SEQEND
  8
0
  0
POLYLINE
  8
PLAN_1
 62
     5
  6
CONTINUOUS
 66
     1
 40
0.003000
 41
0.003000
  0
VERTEX
  8
PLAN_1
 62
     5
  6
CONTINUOUS
 10
0.055484
 20
0.108551
  0
VERTEX
  8
PLAN_1
 62
     5
  6
CONTINUOUS
 10
0.063866
 20
0.108551
  0
SEQEND
  8
0
  0
POLYLINE
  8
PLAN_1
 62
     5
  6
CONTINUOUS
 66
     1
 40
0.003000
 41
0.003000
  0
VERTEX
  8
PLAN_1
 62
     5
  6
CONTINUOUS
 10
0.070772
 20
0.107075
  0
VERTEX
  8
PLAN_1
 62
     5
  6
CONTINUOUS
 10
0.070772
 20
0.098689
  0
SEQEND
  8
0
  0
POLYLINE
  8
PLAN_1
 62
     5
  6
CONTINUOUS
 66
     1
 40
0.003000
 41
0.003000
  0
VERTEX
  8
PLAN_1
 62
     5
  6
CONTINUOUS
 10
0.070772
 20
0.090303
  0
VERTEX
  8
PLAN_1
 62
     5
  6
CONTINUOUS
 10
0.070772
 20
0.081921
  0
SEQEND
  8
0
  0
POLYLINE
  8
PLAN_1
 62
     5
  6
CONTINUOUS
 66
     1
 40
0.003000
 41
0.003000
  0
VERTEX
  8
PLAN_1
 62
     5
  6
CONTINUOUS
 10
0.070772
 20
0.073535
  0
VERTEX
  8
PLAN_1
 62
     5
  6
CONTINUOUS
 10
0.070772
 20
0.065154
  0
SEQEND
  8
0
  0
POLYLINE
  8
PLAN_1
 62
     5
  6
CONTINUOUS
 66
     1
 40
0.003000
 41
0.003000
  0
VERTEX
  8
PLAN_1
 62
     5
  6
CONTINUOUS
 10
0.070772
 20
0.056768
  0
VERTEX
  8
PLAN_1
 62
     5
  6
CONTINUOUS
 10
0.070772
 20
0.048386
  0
SEQEND
  8
0
  0
POLYLINE
  8
PLAN_1
 62
     5
  6
CONTINUOUS
 66
     1
 40
0.003000
 41
0.003000
  0
VERTEX
  8
PLAN_1
 62
     5
  6
CONTINUOUS
 10
0.070772
 20
0.040000
  0
VERTEX
  8
PLAN_1
 62
     5
  6
CONTINUOUS
 10
0.070772
 20
0.032110
  0
SEQEND
  8
0
  0
POLYLINE
  8
PLAN_1
 62
     5
  6
CONTINUOUS
 66
     1
 40
0.003000
 41
0.003000
  0
VERTEX
  8
PLAN_1
 62
     5
  6
CONTINUOUS
 10
0.070772
 20
0.023724
  0
VERTEX
  8
PLAN_1
 62
     5
  6
CONTINUOUS
 10
0.070772
 20
0.015343
  0
SEQEND
  8
0
  0
POLYLINE
  8
PLAN_1
 62
     5
  6
CONTINUOUS
 66
     1
 40
0.003000
 41
0.003000
  0
VERTEX
  8
PLAN_1
 62
     5
  6
CONTINUOUS
 10
0.070772
 20
0.006957
  0
VERTEX
  8
PLAN_1
 62
     5
  6
CONTINUOUS
 10
0.070772
 20
-0.001429
  0
SEQEND
  8
0
  0
POLYLINE
  8
PLAN_1
 62
     5
  6
CONTINUOUS
 66
     1
 40
0.003000
 41
0.003000
  0
VERTEX
  8
PLAN_1
 62
     5
  6
CONTINUOUS
 10
0.070772
 20
-0.009811
  0
VERTEX
  8
PLAN_1
 62
     5
  6
CONTINUOUS
 10
0.070772
 20
-0.018197
  0
SEQEND
  8
0
  0
POLYLINE
  8
PLAN_1
 62
     5
  6
CONTINUOUS
 66
     1
 40
0.003000
 41
0.003000
  0
VERTEX
  8
PLAN_1
 62
     5
  6
CONTINUOUS
 10
0.070772
 20
-0.026579
  0
VERTEX
  8
PLAN_1
 62
     5
  6
CONTINUOUS
 10
0.070772
 20
-0.034965
  0
SEQEND
  8
0
  0
POLYLINE
  8
PLAN_1
 62
     5
  6
CONTINUOUS
 66
     1
 40
0.003000
 41
0.003000
  0
VERTEX
  8
PLAN_1
 62
     5
  6
CONTINUOUS
 10
0.070772
 20
-0.042854
  0
VERTEX
  8
PLAN_1
 62
     5
  6
CONTINUOUS
 10
0.070772
 20
-0.051240
  0
SEQEND
  8
0
  0
POLYLINE
  8
PLAN_1
 62
     5
  6
CONTINUOUS
 66
     1
 40
0.003000
 41
0.003000
  0
VERTEX
  8
PLAN_1
 62
     5
  6
CONTINUOUS
 10
0.070772
 20
-0.059622
  0
VERTEX
  8
PLAN_1
 62
     5
  6
CONTINUOUS
 10
0.070772
 20
-0.068008
  0
SEQEND
  8
0
  0
POLYLINE
  8
PLAN_1
 62
     5
  6
CONTINUOUS
 66
     1
 40
0.003000
 41
0.003000
  0
VERTEX
  8
PLAN_1
 62
     5
  6
CONTINUOUS
 10
0.070772
 20
-0.076390
  0
VERTEX
  8
PLAN_1
 62
     5
  6
CONTINUOUS
 10
0.070772
 20
-0.084776
  0
SEQEND
  8
0
  0
POLYLINE
  8
PLAN_1
 62
     5
  6
CONTINUOUS
 66
     1
 40
0.003000
 41
0.003000
  0
VERTEX
  8
PLAN_1
 62
     5
  6
CONTINUOUS
 10
0.070772
 20
-0.093161
  0
VERTEX
  8
PLAN_1
 62
     5
  6
CONTINUOUS
 10
0.070772
 20
-0.101543
  0
SEQEND
  8
0
  0
POLYLINE
  8
PLAN_1
 62
     5
  6
CONTINUOUS
 66
     1
 40
0.003000
 41
0.003000
  0
VERTEX
  8
PLAN_1
 62
     5
  6
CONTINUOUS
 10
0.070772
 20
-0.109929
  0
VERTEX
  8
PLAN_1
 62
     5
  6
CONTINUOUS
 10
0.070772
 20
-0.117819
  0
SEQEND
  8
0
  0
POLYLINE
  8
PLAN_1
 62
     5
  6
CONTINUOUS
 66
     1
 40
0.003000
 41
0.003000
  0
VERTEX
  8
PLAN_1
 62
     5
  6
CONTINUOUS
 10
0.070772
 20
-0.126205
  0
VERTEX
  8
PLAN_1
 62
     5
  6
CONTINUOUS
 10
0.070772
 20
-0.134587
  0
SEQEND
  8
0
  0
POLYLINE
  8
PLAN_1
 62
     5
  6
CONTINUOUS
 66
     1
 40
0.003000
 41
0.003000
  0
VERTEX
  8
PLAN_1
 62
     5
  6
CONTINUOUS
 10
0.070772
 20
-0.142972
  0
VERTEX
  8
PLAN_1
 62
     5
  6
CONTINUOUS
 10
0.070772
 20
-0.151354
  0
SEQEND
  8
0
  0
POLYLINE
  8
PLAN_1
 62
     5
  6
CONTINUOUS
 66
     1
 40
0.003000
 41
0.003000
  0
VERTEX
  8
PLAN_1
 62
     5
  6
CONTINUOUS
 10
0.070772
 20
-0.159740
  0
VERTEX
  8
PLAN_1
 62
     5
  6
CONTINUOUS
 10
0.070772
 20
-0.168122
  0
SEQEND
  8
0
  0
POLYLINE
  8
PLAN_1
 62
     5
  6
CONTINUOUS
 66
     1
 40
0.003000
 41
0.003000
  0
VERTEX
  8
PLAN_1
 62
     5
  6
CONTINUOUS
 10
0.070772
 20
-0.176508
  0
VERTEX
  8
PLAN_1
 62
     5
  6
CONTINUOUS
 10
0.070772
 20
-0.184894
  0
SEQEND
  8
0
  0
POLYLINE
  8
PLAN_1
 62
     5
  6
CONTINUOUS
 66
     1
 40
0.003000
 41
0.003000
  0
VERTEX
  8
PLAN_1
 62
     5
  6
CONTINUOUS
 10
0.070772
 20
-0.192783
  0
VERTEX
  8
PLAN_1
 62
     5
  6
CONTINUOUS
 10
0.070772
 20
-0.195740
  0
VERTEX
  8
PLAN_1
 62
     5
  6
CONTINUOUS
 10
0.065346
 20
-0.195740
  0
SEQEND
  8
0
  0
POLYLINE
  8
PLAN_1
 62
     5
  6
CONTINUOUS
 66
     1
 40
0.003000
 41
0.003000
  0
VERTEX
  8
PLAN_1
 62
     5
  6
CONTINUOUS
 10
0.056965
 20
-0.195740
  0
VERTEX
  8
PLAN_1
 62
     5
  6
CONTINUOUS
 10
0.048579
 20
-0.195740
  0
SEQEND
  8
0
  0
POLYLINE
  8
PLAN_1
 62
     5
  6
CONTINUOUS
 66
     1
 40
0.003000
 41
0.003000
  0
VERTEX
  8
PLAN_1
 62
     5
  6
CONTINUOUS
 10
0.040193
 20
-0.195740
  0
VERTEX
  8
PLAN_1
 62
     5
  6
CONTINUOUS
 10
0.031811
 20
-0.195740
  0
SEQEND
  8
0
  0
POLYLINE
  8
PLAN_1
 62
     5
  6
CONTINUOUS
 66
     1
 40
0.003000
 41
0.003000
  0
VERTEX
  8
PLAN_1
 62
     5
  6
CONTINUOUS
 10
0.028850
 20
-0.201165
  0
VERTEX
  8
PLAN_1
 62
     5
  6
CONTINUOUS
 10
0.028850
 20
-0.209551
  0
SEQEND
  8
0
  0
POLYLINE
  8
PLAN_1
 62
     5
  6
CONTINUOUS
 66
     1
 40
0.003000
 41
0.003000
  0
VERTEX
  8
PLAN_1
 62
     5
  6
CONTINUOUS
 10
0.028850
 20
-0.217937
  0
VERTEX
  8
PLAN_1
 62
     5
  6
CONTINUOUS
 10
0.028850
 20
-0.226319
  0
SEQEND
  8
0
  0
POLYLINE
  8
PLAN_1
 62
     5
  6
CONTINUOUS
 66
     1
 40
0.003000
 41
0.003000
  0
VERTEX
  8
PLAN_1
 62
     5
  6
CONTINUOUS
 10
0.028850
 20
-0.234209
  0
VERTEX
  8
PLAN_1
 62
     5
  6
CONTINUOUS
 10
0.028850
 20
-0.242594
  0
SEQEND
  8
0
  0
POLYLINE
  8
PLAN_1
 62
     5
  6
CONTINUOUS
 66
     1
 40
0.003000
 41
0.003000
  0
VERTEX
  8
PLAN_1
 62
     5
  6
CONTINUOUS
 10
0.028850
 20
-0.250980
  0
VERTEX
  8
PLAN_1
 62
     5
  6
CONTINUOUS
 10
0.028850
 20
-0.259362
  0
SEQEND
  8
0
  0
POLYLINE
  8
PLAN_1
 62
     5
  6
CONTINUOUS
 66
     1
 40
0.003000
 41
0.003000
  0
VERTEX
  8
PLAN_1
 62
     5
  6
CONTINUOUS
 10
0.028850
 20
-0.267748
  0
VERTEX
  8
PLAN_1
 62
     5
  6
CONTINUOUS
 10
0.028850
 20
-0.276130
  0
SEQEND
  8
0
  0
POLYLINE
  8
PLAN_1
 62
     5
  6
CONTINUOUS
 66
     1
 40
0.003000
 41
0.003000
  0
VERTEX
  8
PLAN_1
 62
     5
  6
CONTINUOUS
 10
0.028850
 20
-0.284516
  0
VERTEX
  8
PLAN_1
 62
     5
  6
CONTINUOUS
 10
0.028850
 20
-0.292898
  0
SEQEND
  8
0
  0
POLYLINE
  8
PLAN_1
 62
     5
  6
CONTINUOUS
 66
     1
 40
0.003000
 41
0.003000
  0
VERTEX
  8
PLAN_1
 62
     5
  6
CONTINUOUS
 10
0.028850
 20
-0.301283
  0
VERTEX
  8
PLAN_1
 62
     5
  6
CONTINUOUS
 10
0.028850
 20
-0.309173
  0
SEQEND
  8
0
  0
POLYLINE
  8
PLAN_1
 62
     5
  6
CONTINUOUS
 66
     1
 40
0.003000
 41
0.003000
  0
VERTEX
  8
PLAN_1
 62
     5
  6
CONTINUOUS
 10
0.028850
 20
-0.317559
  0
VERTEX
  8
PLAN_1
 62
     5
  6
CONTINUOUS
 10
0.028850
 20
-0.325941
  0
SEQEND
  8
0
  0
POLYLINE
  8
PLAN_1
 62
     5
  6
CONTINUOUS
 66
     1
 40
0.003000
 41
0.003000
  0
VERTEX
  8
PLAN_1
 62
     5
  6
CONTINUOUS
 10
0.028850
 20
-0.334327
  0
VERTEX
  8
PLAN_1
 62
     5
  6
CONTINUOUS
 10
0.028850
 20
-0.342709
  0
SEQEND
  8
0
  0
POLYLINE
  8
PLAN_1
 62
     5
  6
CONTINUOUS
 66
     1
 40
0.003000
 41
0.003000
  0
VERTEX
  8
PLAN_1
 62
     5
  6
CONTINUOUS
 10
0.028850
 20
-0.351094
  0
VERTEX
  8
PLAN_1
 62
     5
  6
CONTINUOUS
 10
0.028850
 20
-0.359480
  0
SEQEND
  8
0
  0
POLYLINE
  8
PLAN_1
 62
     5
  6
CONTINUOUS
 66
     1
 40
0.003000
 41
0.003000
  0
VERTEX
  8
PLAN_1
 62
     5
  6
CONTINUOUS
 10
0.028850
 20
-0.367862
  0
VERTEX
  8
PLAN_1
 62
     5
  6
CONTINUOUS
 10
0.028850
 20
-0.376248
  0
SEQEND
  8
0
  0
POLYLINE
  8
PLAN_1
 62
     5
  6
CONTINUOUS
 66
     1
 40
0.003000
 41
0.003000
  0
VERTEX
  8
PLAN_1
 62
     5
  6
CONTINUOUS
 10
0.028850
 20
-0.384138
  0
VERTEX
  8
PLAN_1
 62
     5
  6
CONTINUOUS
 10
0.028850
 20
-0.392524
  0
SEQEND
  8
0
  0
POLYLINE
  8
PLAN_1
 62
     5
  6
CONTINUOUS
 66
     1
 40
0.003000
 41
0.003000
  0
VERTEX
  8
PLAN_1
 62
     5
  6
CONTINUOUS
 10
0.028850
 20
-0.400906
  0
VERTEX
  8
PLAN_1
 62
     5
  6
CONTINUOUS
 10
0.028850
 20
-0.409291
  0
SEQEND
  8
0
  0
POLYLINE
  8
PLAN_1
 62
     5
  6
CONTINUOUS
 66
     1
 40
0.003000
 41
0.003000
  0
VERTEX
  8
PLAN_1
 62
     5
  6
CONTINUOUS
 10
0.028850
 20
-0.417673
  0
VERTEX
  8
PLAN_1
 62
     5
  6
CONTINUOUS
 10
0.028850
 20
-0.426059
  0
SEQEND
  8
0
  0
POLYLINE
  8
PLAN_1
 62
     5
  6
CONTINUOUS
 66
     1
 40
0.003000
 41
0.003000
  0
VERTEX
  8
PLAN_1
 62
     5
  6
CONTINUOUS
 10
0.028850
 20
-0.434441
  0
VERTEX
  8
PLAN_1
 62
     5
  6
CONTINUOUS
 10
0.028850
 20
-0.442827
  0
SEQEND
  8
0
  0
POLYLINE
  8
PLAN_1
 62
     5
  6
CONTINUOUS
 66
     1
 40
0.003000
 41
0.003000
  0
VERTEX
  8
PLAN_1
 62
     5
  6
CONTINUOUS
 10
0.028850
 20
-0.451213
  0
VERTEX
  8
PLAN_1
 62
     5
  6
CONTINUOUS
 10
0.028850
 20
-0.459102
  0
SEQEND
  8
0
  0
POLYLINE
  8
PLAN_1
 62
     5
  6
CONTINUOUS
 66
     1
 40
0.003000
 41
0.003000
  0
VERTEX
  8
PLAN_1
 62
     5
  6
CONTINUOUS
 10
0.028850
 20
-0.467484
  0
VERTEX
  8
PLAN_1
 62
     5
  6
CONTINUOUS
 10
0.028850
 20
-0.475870
  0
SEQEND
  8
0
  0
POLYLINE
  8
PLAN_1
 62
     5
  6
CONTINUOUS
 66
     1
 40
0.003000
 41
0.003000
  0
VERTEX
  8
PLAN_1
 62
     5
  6
CONTINUOUS
 10
0.028850
 20
-0.484256
  0
VERTEX
  8
PLAN_1
 62
     5
  6
CONTINUOUS
 10
0.028850
 20
-0.487213
  0
SEQEND
  8
0
  0
POLYLINE
  8
PLAN_1
 62
     5
  6
CONTINUOUS
 66
     1
 40
0.003000
 41
0.003000
  0
VERTEX
  8
PLAN_1
 62
     5
  6
CONTINUOUS
 10
0.028850
 20
-0.484256
  0
VERTEX
  8
PLAN_1
 62
     5
  6
CONTINUOUS
 10
0.028850
 20
-0.487213
  0
SEQEND
  8
0
  0
POLYLINE
  8
PLAN_1
  6
CONTINUOUS
 66
     1
 40
0.008382
 41
0.008382
  0
VERTEX
  8
PLAN_1
  6
CONTINUOUS
 10
-0.996972
 20
0.262425
  0
VERTEX
  8
PLAN_1
  6
CONTINUOUS
 10
-0.996972
 20
0.447370
  0
VERTEX
  8
PLAN_1
  6
CONTINUOUS
 10
-1.369819
 20
0.447370
  0
SEQEND
  8
0
  0
POLYLINE
  8
PLAN_1
  6
CONTINUOUS
 66
     1
 40
0.008382
 41
0.008382
  0
VERTEX
  8
PLAN_1
  6
CONTINUOUS
 10
0.031319
 20
0.447370
  0
VERTEX
  8
PLAN_1
  6
CONTINUOUS
 10
-0.320815
 20
0.447370
  0
VERTEX
  8
PLAN_1
  6
CONTINUOUS
 10
-0.320815
 20
0.262425
  0
SEQEND
  8
0
  0
POLYLINE
  8
PLAN_1
  6
CONTINUOUS
 66
     1
 40
0.008382
 41
0.008382
  0
VERTEX
  8
PLAN_1
  6
CONTINUOUS
 10
-1.108921
 20
0.264398
  0
VERTEX
  8
PLAN_1
  6
CONTINUOUS
 10
-1.108921
 20
0.447370
  0
SEQEND
  8
0
  0
POLYLINE
  8
PLAN_1
  6
CONTINUOUS
 66
     1
 40
0.008382
 41
0.008382
  0
VERTEX
  8
PLAN_1
  6
CONTINUOUS
 10
-0.226126
 20
0.264398
  0
VERTEX
  8
PLAN_1
  6
CONTINUOUS
 10
-0.226126
 20
0.447370
  0
SEQEND
  8
0
  0
POLYLINE
  8
PLAN_1
 62
     2
  6
CONTINUOUS
 66
     1
 40
0.003945
 41
0.003945
  0
VERTEX
  8
PLAN_1
 62
     2
  6
CONTINUOUS
 10
-2.075071
 20
3.095764
  0
VERTEX
  8
PLAN_1
 62
     2
  6
CONTINUOUS
 10
-1.489661
 20
3.095764
  0
SEQEND
  8
0
  0
SOLID
  8
PLAN_1
 62
     2
 10
-2.034630
 20
3.095764
 11
-2.093319
 21
3.111547
 12
-2.034630
 22
3.095764
 13
-2.093319
 23
3.079984
  0
POLYLINE
  8
PLAN_1
 62
     2
  6
CONTINUOUS
 66
     1
 40
0.003000
 41
0.003000
  0
VERTEX
  8
PLAN_1
 62
     2
  6
CONTINUOUS
 10
-2.034630
 20
3.095764
  0
VERTEX
  8
PLAN_1
 62
     2
  6
CONTINUOUS
 10
-2.093319
 20
3.111547
  0
VERTEX
  8
PLAN_1
 62
     2
  6
CONTINUOUS
 10
-2.093319
 20
3.079984
  0
VERTEX
  8
PLAN_1
 62
     2
  6
CONTINUOUS
 10
-2.034630
 20
3.095764
  0
SEQEND
  8
0
  0
SOLID
  8
PLAN_1
 62
     2
 10
-1.794941
 20
3.095764
 11
-1.736252
 21
3.111547
 12
-1.794941
 22
3.095764
 13
-1.736252
 23
3.079984
  0
POLYLINE
  8
PLAN_1
 62
     2
  6
CONTINUOUS
 66
     1
 40
0.003000
 41
0.003000
  0
VERTEX
  8
PLAN_1
 62
     2
  6
CONTINUOUS
 10
-1.794941
 20
3.095764
  0
VERTEX
  8
PLAN_1
 62
     2
  6
CONTINUOUS
 10
-1.736252
 20
3.111547
  0
VERTEX
  8
PLAN_1
 62
     2
  6
CONTINUOUS
 10
-1.736252
 20
3.079984
  0
VERTEX
  8
PLAN_1
 62
     2
  6
CONTINUOUS
 10
-1.794941
 20
3.095764
  0
SEQEND
  8
0
  0
POLYLINE
  8
PLAN_1
 62
     2
  6
CONTINUOUS
 66
     1
 40
0.003000
 41
0.003000
  0
VERTEX
  8
PLAN_1
 62
     2
  6
CONTINUOUS
 10
-1.595201
 20
3.124862
  0
VERTEX
  8
PLAN_1
 62
     2
  6
CONTINUOUS
 10
-1.656850
 20
3.124862
  0
VERTEX
  8
PLAN_1
 62
     2
  6
CONTINUOUS
 10
-1.661783
 20
3.119437
  0
VERTEX
  8
PLAN_1
 62
     2
  6
CONTINUOUS
 10
-1.667209
 20
3.124370
  0
VERTEX
  8
PLAN_1
 62
     2
  6
CONTINUOUS
 10
-1.662768
 20
3.128807
  0
VERTEX
  8
PLAN_1
 62
     2
  6
CONTINUOUS
 10
-1.662768
 20
3.191937
  0
VERTEX
  8
PLAN_1
 62
     2
  6
CONTINUOUS
 10
-1.600134
 20
3.191937
  0
VERTEX
  8
PLAN_1
 62
     2
  6
CONTINUOUS
 10
-1.594709
 20
3.196866
  0
VERTEX
  8
PLAN_1
 62
     2
  6
CONTINUOUS
 10
-1.589776
 20
3.191937
  0
VERTEX
  8
PLAN_1
 62
     2
  6
CONTINUOUS
 10
-1.595201
 20
3.186020
  0
VERTEX
  8
PLAN_1
 62
     2
  6
CONTINUOUS
 10
-1.595201
 20
3.124862
  0
SEQEND
  8
0
  0
SOLID
  8
PLAN_1
 62
     2
 10
-1.649945
 20
3.131276
 11
-1.602106
 21
3.131276
 12
-1.649945
 22
3.131276
 13
-1.602106
 23
3.179114
  0
POLYLINE
  8
PLAN_1
 62
     2
  6
CONTINUOUS
 66
     1
 40
0.003000
 41
0.003000
  0
VERTEX
  8
PLAN_1
 62
     2
  6
CONTINUOUS
 10
-1.649945
 20
3.131276
  0
VERTEX
  8
PLAN_1
 62
     2
  6
CONTINUOUS
 10
-1.602106
 20
3.131276
  0
VERTEX
  8
PLAN_1
 62
     2
  6
CONTINUOUS
 10
-1.602106
 20
3.179114
  0
VERTEX
  8
PLAN_1
 62
     2
  6
CONTINUOUS
 10
-1.649945
 20
3.131276
  0
SEQEND
  8
0
  0
SOLID
  8
PLAN_1
 62
     2
 10
-1.655862
 20
3.185031
 11
-1.655862
 21
3.135713
 12
-1.655862
 22
3.185031
 13
-1.606547
 23
3.185031
  0
POLYLINE
  8
PLAN_1
 62
     2
  6
CONTINUOUS
 66
     1
 40
0.003000
 41
0.003000
  0
VERTEX
  8
PLAN_1
 62
     2
  6
CONTINUOUS
 10
-1.655862
 20
3.185031
  0
VERTEX
  8
PLAN_1
 62
     2
  6
CONTINUOUS
 10
-1.655862
 20
3.135713
  0
VERTEX
  8
PLAN_1
 62
     2
  6
CONTINUOUS
 10
-1.606547
 20
3.185031
  0
VERTEX
  8
PLAN_1
 62
     2
  6
CONTINUOUS
 10
-1.655862
 20
3.185031
  0
SEQEND
  8
0
  0
POLYLINE
  8
PLAN_1
 62
     2
  6
CONTINUOUS
 66
     1
 40
0.003000
 41
0.003000
  0
VERTEX
  8
PLAN_1
 62
     2
  6
CONTINUOUS
 10
-1.565610
 20
3.160866
  0
VERTEX
  8
PLAN_1
 62
     2
  6
CONTINUOUS
 10
-1.565118
 20
3.160866
  0
VERTEX
  8
PLAN_1
 62
     2
  6
CONTINUOUS
 10
-1.564130
 20
3.160866
  0
VERTEX
  8
PLAN_1
 62
     2
  6
CONTINUOUS
 10
-1.563638
 20
3.160866
  0
VERTEX
  8
PLAN_1
 62
     2
  6
CONTINUOUS
 10
-1.563146
 20
3.160866
  0
VERTEX
  8
PLAN_1
 62
     2
  6
CONTINUOUS
 10
-1.562654
 20
3.160866
  0
VERTEX
  8
PLAN_1
 62
     2
  6
CONTINUOUS
 10
-1.561665
 20
3.160866
  0
VERTEX
  8
PLAN_1
 62
     2
  6
CONTINUOUS
 10
-1.561173
 20
3.160866
  0
VERTEX
  8
PLAN_1
 62
     2
  6
CONTINUOUS
 10
-1.560681
 20
3.160866
  0
VERTEX
  8
PLAN_1
 62
     2
  6
CONTINUOUS
 10
-1.558213
 20
3.160866
  0
VERTEX
  8
PLAN_1
 62
     2
  6
CONTINUOUS
 10
-1.555748
 20
3.161358
  0
VERTEX
  8
PLAN_1
 62
     2
  6
CONTINUOUS
 10
-1.553283
 20
3.162346
  0
VERTEX
  8
PLAN_1
 62
     2
  6
CONTINUOUS
 10
-1.551307
 20
3.163331
  0
VERTEX
  8
PLAN_1
 62
     2
  6
CONTINUOUS
 10
-1.549335
 20
3.164811
  0
VERTEX
  8
PLAN_1
 62
     2
  6
CONTINUOUS
 10
-1.547858
 20
3.167276
  0
VERTEX
  8
PLAN_1
 62
     2
  6
CONTINUOUS
 10
-1.546870
 20
3.169744
  0
VERTEX
  8
PLAN_1
 62
     2
  6
CONTINUOUS
 10
-1.546870
 20
3.172701
  0
VERTEX
  8
PLAN_1
 62
     2
  6
CONTINUOUS
 10
-1.546870
 20
3.174673
  0
VERTEX
  8
PLAN_1
 62
     2
  6
CONTINUOUS
 10
-1.547362
 20
3.176646
  0
VERTEX
  8
PLAN_1
 62
     2
  6
CONTINUOUS
 10
-1.548350
 20
3.178618
  0
VERTEX
  8
PLAN_1
 62
     2
  6
CONTINUOUS
 10
-1.549335
 20
3.180098
  0
VERTEX
  8
PLAN_1
 62
     2
  6
CONTINUOUS
 10
-1.551307
 20
3.182071
  0
VERTEX
  8
PLAN_1
 62
     2
  6
CONTINUOUS
 10
-1.553776
 20
3.183059
  0
VERTEX
  8
PLAN_1
 62
     2
  6
CONTINUOUS
 10
-1.556732
 20
3.184043
  0
VERTEX
  8
PLAN_1
 62
     2
  6
CONTINUOUS
 10
-1.560185
 20
3.184539
  0
VERTEX
  8
PLAN_1
 62
     2
  6
CONTINUOUS
 10
-1.562654
 20
3.184043
  0
VERTEX
  8
PLAN_1
 62
     2
  6
CONTINUOUS
 10
-1.564626
 20
3.184043
  0
VERTEX
  8
PLAN_1
 62
     2
  6
CONTINUOUS
 10
-1.566598
 20
3.183551
  0
VERTEX
  8
PLAN_1
 62
     2
  6
CONTINUOUS
 10
-1.568079
 20
3.182567
  0
VERTEX
  8
PLAN_1
 62
     2
  6
CONTINUOUS
 10
-1.570543
 20
3.180594
  0
VERTEX
  8
PLAN_1
 62
     2
  6
CONTINUOUS
 10
-1.572024
 20
3.178618
  0
VERTEX
  8
PLAN_1
 62
     2
  6
CONTINUOUS
 10
-1.573504
 20
3.175661
  0
VERTEX
  8
PLAN_1
 62
     2
  6
CONTINUOUS
 10
-1.573996
 20
3.173197
  0
VERTEX
  8
PLAN_1
 62
     2
  6
CONTINUOUS
 10
-1.574488
 20
3.170728
  0
VERTEX
  8
PLAN_1
 62
     2
  6
CONTINUOUS
 10
-1.574488
 20
3.168756
  0
VERTEX
  8
PLAN_1
 62
     2
  6
CONTINUOUS
 10
-1.583366
 20
3.168756
  0
VERTEX
  8
PLAN_1
 62
     2
  6
CONTINUOUS
 10
-1.583366
 20
3.172701
  0
VERTEX
  8
PLAN_1
 62
     2
  6
CONTINUOUS
 10
-1.582378
 20
3.177142
  0
VERTEX
  8
PLAN_1
 62
     2
  6
CONTINUOUS
 10
-1.580902
 20
3.181087
  0
VERTEX
  8
PLAN_1
 62
     2
  6
CONTINUOUS
 10
-1.578925
 20
3.184539
  0
VERTEX
  8
PLAN_1
 62
     2
  6
CONTINUOUS
 10
-1.577449
 20
3.186512
  0
VERTEX
  8
PLAN_1
 62
     2
  6
CONTINUOUS
 10
-1.575969
 20
3.187992
  0
VERTEX
  8
PLAN_1
 62
     2
  6
CONTINUOUS
 10
-1.573996
 20
3.188976
  0
VERTEX
  8
PLAN_1
 62
     2
  6
CONTINUOUS
 10
-1.571528
 20
3.190457
  0
VERTEX
  8
PLAN_1
 62
     2
  6
CONTINUOUS
 10
-1.569063
 20
3.191441
  0
VERTEX
  8
PLAN_1
 62
     2
  6
CONTINUOUS
 10
-1.566598
 20
3.191937
  0
VERTEX
  8
PLAN_1
 62
     2
  6
CONTINUOUS
 10
-1.563146
 20
3.192429
  0
VERTEX
  8
PLAN_1
 62
     2
  6
CONTINUOUS
 10
-1.559693
 20
3.192429
  0
VERTEX
  8
PLAN_1
 62
     2
  6
CONTINUOUS
 10
-1.554760
 20
3.192429
  0
VERTEX
  8
PLAN_1
 62
     2
  6
CONTINUOUS
 10
-1.550323
 20
3.190949
  0
VERTEX
  8
PLAN_1
 62
     2
  6
CONTINUOUS
 10
-1.546378
 20
3.189469
  0
VERTEX
  8
PLAN_1
 62
     2
  6
CONTINUOUS
 10
-1.543417
 20
3.187004
  0
VERTEX
  8
PLAN_1
 62
     2
  6
CONTINUOUS
 10
-1.540953
 20
3.184539
  0
VERTEX
  8
PLAN_1
 62
     2
  6
CONTINUOUS
 10
-1.538980
 20
3.181087
  0
VERTEX
  8
PLAN_1
 62
     2
  6
CONTINUOUS
 10
-1.537500
 20
3.177142
  0
VERTEX
  8
PLAN_1
 62
     2
  6
CONTINUOUS
 10
-1.537500
 20
3.173197
  0
VERTEX
  8
PLAN_1
 62
     2
  6
CONTINUOUS
 10
-1.537500
 20
3.170236
  0
VERTEX
  8
PLAN_1
 62
     2
  6
CONTINUOUS
 10
-1.537992
 20
3.167276
  0
VERTEX
  8
PLAN_1
 62
     2
  6
CONTINUOUS
 10
-1.539472
 20
3.164811
  0
VERTEX
  8
PLAN_1
 62
     2
  6
CONTINUOUS
 10
-1.540461
 20
3.162839
  0
VERTEX
  8
PLAN_1
 62
     2
  6
CONTINUOUS
 10
-1.541937
 20
3.160866
  0
VERTEX
  8
PLAN_1
 62
     2
  6
CONTINUOUS
 10
-1.543417
 20
3.159878
  0
VERTEX
  8
PLAN_1
 62
     2
  6
CONTINUOUS
 10
-1.544898
 20
3.158894
  0
VERTEX
  8
PLAN_1
 62
     2
  6
CONTINUOUS
 10
-1.546870
 20
3.158398
  0
VERTEX
  8
PLAN_1
 62
     2
  6
CONTINUOUS
 10
-1.546870
 20
3.157906
  0
VERTEX
  8
PLAN_1
 62
     2
  6
CONTINUOUS
 10
-1.543909
 20
3.156921
  0
VERTEX
  8
PLAN_1
 62
     2
  6
CONTINUOUS
 10
-1.541937
 20
3.155933
  0
VERTEX
  8
PLAN_1
 62
     2
  6
CONTINUOUS
 10
-1.539472
 20
3.153961
  0
VERTEX
  8
PLAN_1
 62
     2
  6
CONTINUOUS
 10
-1.537992
 20
3.152480
  0
VERTEX
  8
PLAN_1
 62
     2
  6
CONTINUOUS
 10
-1.536512
 20
3.150016
  0
VERTEX
  8
PLAN_1
 62
     2
  6
CONTINUOUS
 10
-1.535528
 20
3.147551
  0
VERTEX
  8
PLAN_1
 62
     2
  6
CONTINUOUS
 10
-1.534539
 20
3.144591
  0
VERTEX
  8
PLAN_1
 62
     2
  6
CONTINUOUS
 10
-1.534539
 20
3.141138
  0
VERTEX
  8
PLAN_1
 62
     2
  6
CONTINUOUS
 10
-1.535035
 20
3.136701
  0
VERTEX
  8
PLAN_1
 62
     2
  6
CONTINUOUS
 10
-1.536020
 20
3.132260
  0
VERTEX
  8
PLAN_1
 62
     2
  6
CONTINUOUS
 10
-1.537992
 20
3.128315
  0
VERTEX
  8
PLAN_1
 62
     2
  6
CONTINUOUS
 10
-1.540461
 20
3.124862
  0
VERTEX
  8
PLAN_1
 62
     2
  6
CONTINUOUS
 10
-1.542433
 20
3.123382
  0
VERTEX
  8
PLAN_1
 62
     2
  6
CONTINUOUS
 10
-1.544406
 20
3.121906
  0
VERTEX
  8
PLAN_1
 62
     2
  6
CONTINUOUS
 10
-1.546378
 20
3.120425
  0
VERTEX
  8
PLAN_1
 62
     2
  6
CONTINUOUS
 10
-1.548843
 20
3.119437
  0
VERTEX
  8
PLAN_1
 62
     2
  6
CONTINUOUS
 10
-1.551307
 20
3.118453
  0
VERTEX
  8
PLAN_1
 62
     2
  6
CONTINUOUS
 10
-1.554268
 20
3.117957
  0
VERTEX
  8
PLAN_1
 62
     2
  6
CONTINUOUS
 10
-1.557228
 20
3.117465
  0
VERTEX
  8
PLAN_1
 62
     2
  6
CONTINUOUS
 10
-1.560681
 20
3.117465
  0
VERTEX
  8
PLAN_1
 62
     2
  6
CONTINUOUS
 10
-1.562654
 20
3.117465
  0
VERTEX
  8
PLAN_1
 62
     2
  6
CONTINUOUS
 10
-1.564626
 20
3.117465
  0
VERTEX
  8
PLAN_1
 62
     2
  6
CONTINUOUS
 10
-1.566598
 20
3.117957
  0
VERTEX
  8
PLAN_1
 62
     2
  6
CONTINUOUS
 10
-1.568079
 20
3.118453
  0
VERTEX
  8
PLAN_1
 62
     2
  6
CONTINUOUS
 10
-1.570051
 20
3.118945
  0
VERTEX
  8
PLAN_1
 62
     2
  6
CONTINUOUS
 10
-1.571528
 20
3.119437
  0
VERTEX
  8
PLAN_1
 62
     2
  6
CONTINUOUS
 10
-1.573008
 20
3.119933
  0
VERTEX
  8
PLAN_1
 62
     2
  6
CONTINUOUS
 10
-1.574488
 20
3.120917
  0
VERTEX
  8
PLAN_1
 62
     2
  6
CONTINUOUS
 10
-1.576953
 20
3.122398
  0
VERTEX
  8
PLAN_1
 62
     2
  6
CONTINUOUS
 10
-1.579421
 20
3.124370
  0
VERTEX
  8
PLAN_1
 62
     2
  6
CONTINUOUS
 10
-1.581394
 20
3.126835
  0
VERTEX
  8
PLAN_1
 62
     2
  6
CONTINUOUS
 10
-1.582378
 20
3.129795
  0
VERTEX
  8
PLAN_1
 62
     2
  6
CONTINUOUS
 10
-1.583858
 20
3.132756
  0
VERTEX
  8
PLAN_1
 62
     2
  6
CONTINUOUS
 10
-1.584350
 20
3.135713
  0
VERTEX
  8
PLAN_1
 62
     2
  6
CONTINUOUS
 10
-1.584846
 20
3.138673
  0
VERTEX
  8
PLAN_1
 62
     2
  6
CONTINUOUS
 10
-1.585339
 20
3.141630
  0
VERTEX
  8
PLAN_1
 62
     2
  6
CONTINUOUS
 10
-1.575969
 20
3.141630
  0
VERTEX
  8
PLAN_1
 62
     2
  6
CONTINUOUS
 10
-1.575476
 20
3.139165
  0
VERTEX
  8
PLAN_1
 62
     2
  6
CONTINUOUS
 10
-1.574980
 20
3.136205
  0
VERTEX
  8
PLAN_1
 62
     2
  6
CONTINUOUS
 10
-1.574488
 20
3.133740
  0
VERTEX
  8
PLAN_1
 62
     2
  6
CONTINUOUS
 10
-1.573008
 20
3.131276
  0
VERTEX
  8
PLAN_1
 62
     2
  6
CONTINUOUS
 10
-1.571035
 20
3.128807
  0
VERTEX
  8
PLAN_1
 62
     2
  6
CONTINUOUS
 10
-1.568571
 20
3.127331
  0
VERTEX
  8
PLAN_1
 62
     2
  6
CONTINUOUS
 10
-1.564626
 20
3.125850
  0
VERTEX
  8
PLAN_1
 62
     2
  6
CONTINUOUS
 10
-1.560185
 20
3.125850
  0
VERTEX
  8
PLAN_1
 62
     2
  6
CONTINUOUS
 10
-1.556732
 20
3.125850
  0
VERTEX
  8
PLAN_1
 62
     2
  6
CONTINUOUS
 10
-1.553776
 20
3.126835
  0
VERTEX
  8
PLAN_1
 62
     2
  6
CONTINUOUS
 10
-1.550815
 20
3.127823
  0
VERTEX
  8
PLAN_1
 62
     2
  6
CONTINUOUS
 10
-1.548843
 20
3.129795
  0
VERTEX
  8
PLAN_1
 62
     2
  6
CONTINUOUS
 10
-1.546870
 20
3.131768
  0
VERTEX
  8
PLAN_1
 62
     2
  6
CONTINUOUS
 10
-1.545390
 20
3.134232
  0
VERTEX
  8
PLAN_1
 62
     2
  6
CONTINUOUS
 10
-1.544406
 20
3.136701
  0
VERTEX
  8
PLAN_1
 62
     2
  6
CONTINUOUS
 10
-1.544406
 20
3.139657
  0
VERTEX
  8
PLAN_1
 62
     2
  6
CONTINUOUS
 10
-1.544406
 20
3.142126
  0
VERTEX
  8
PLAN_1
 62
     2
  6
CONTINUOUS
 10
-1.544898
 20
3.144098
  0
VERTEX
  8
PLAN_1
 62
     2
  6
CONTINUOUS
 10
-1.545390
 20
3.145575
  0
VERTEX
  8
PLAN_1
 62
     2
  6
CONTINUOUS
 10
-1.545882
 20
3.147055
  0
VERTEX
  8
PLAN_1
 62
     2
  6
CONTINUOUS
 10
-1.547858
 20
3.149524
  0
VERTEX
  8
PLAN_1
 62
     2
  6
CONTINUOUS
 10
-1.550323
 20
3.151000
  0
VERTEX
  8
PLAN_1
 62
     2
  6
CONTINUOUS
 10
-1.553283
 20
3.151988
  0
VERTEX
  8
PLAN_1
 62
     2
  6
CONTINUOUS
 10
-1.556240
 20
3.152976
  0
VERTEX
  8
PLAN_1
 62
     2
  6
CONTINUOUS
 10
-1.558705
 20
3.152976
  0
VERTEX
  8
PLAN_1
 62
     2
  6
CONTINUOUS
 10
-1.561173
 20
3.153469
  0
VERTEX
  8
PLAN_1
 62
     2
  6
CONTINUOUS
 10
-1.561665
 20
3.153469
  0
VERTEX
  8
PLAN_1
 62
     2
  6
CONTINUOUS
 10
-1.562157
 20
3.152976
  0
VERTEX
  8
PLAN_1
 62
     2
  6
CONTINUOUS
 10
-1.562654
 20
3.152976
  0
VERTEX
  8
PLAN_1
 62
     2
  6
CONTINUOUS
 10
-1.563638
 20
3.152976
  0
VERTEX
  8
PLAN_1
 62
     2
  6
CONTINUOUS
 10
-1.564130
 20
3.152976
  0
VERTEX
  8
PLAN_1
 62
     2
  6
CONTINUOUS
 10
-1.564626
 20
3.152976
  0
VERTEX
  8
PLAN_1
 62
     2
  6
CONTINUOUS
 10
-1.565118
 20
3.152976
  0
VERTEX
  8
PLAN_1
 62
     2
  6
CONTINUOUS
 10
-1.565610
 20
3.152976
  0
VERTEX
  8
PLAN_1
 62
     2
  6
CONTINUOUS
 10
-1.565610
 20
3.160866
  0
SEQEND
  8
0
  0
POLYLINE
  8
PLAN_1
 62
     2
  6
CONTINUOUS
 66
     1
 40
0.003945
 41
0.003945
  0
VERTEX
  8
PLAN_1
 62
     2
  6
CONTINUOUS
 10
-2.227465
 20
3.850335
  0
VERTEX
  8
PLAN_1
 62
     2
  6
CONTINUOUS
 10
0.041181
 20
3.850335
  0
SEQEND
  8
0
  0
SOLID
  8
PLAN_1
 62
     2
 10
0.070772
 20
3.850335
 11
0.011591
 21
3.866118
 12
0.070772
 22
3.850335
 13
0.011591
 23
3.834555
  0
POLYLINE
  8
PLAN_1
 62
     2
  6
CONTINUOUS
 66
     1
 40
0.003000
 41
0.003000
  0
VERTEX
  8
PLAN_1
 62
     2
  6
CONTINUOUS
 10
0.070772
 20
3.850335
  0
VERTEX
  8
PLAN_1
 62
     2
  6
CONTINUOUS
 10
0.011591
 20
3.866118
  0
VERTEX
  8
PLAN_1
 62
     2
  6
CONTINUOUS
 10
0.011591
 20
3.834555
  0
VERTEX
  8
PLAN_1
 62
     2
  6
CONTINUOUS
 10
0.070772
 20
3.850335
  0
SEQEND
  8
0
  0
SOLID
  8
PLAN_1
 62
     2
 10
-2.257055
 20
3.850335
 11
-2.197874
 21
3.866118
 12
-2.257055
 22
3.850335
 13
-2.197874
 23
3.834555
  0
POLYLINE
  8
PLAN_1
 62
     2
  6
CONTINUOUS
 66
     1
 40
0.003000
 41
0.003000
  0
VERTEX
  8
PLAN_1
 62
     2
  6
CONTINUOUS
 10
-2.257055
 20
3.850335
  0
VERTEX
  8
PLAN_1
 62
     2
  6
CONTINUOUS
 10
-2.197874
 20
3.866118
  0
VERTEX
  8
PLAN_1
 62
     2
  6
CONTINUOUS
 10
-2.197874
 20
3.834555
  0
VERTEX
  8
PLAN_1
 62
     2
  6
CONTINUOUS
 10
-2.257055
 20
3.850335
  0
SEQEND
  8
0
  0
POLYLINE
  8
PLAN_1
 62
     2
  6
CONTINUOUS
 66
     1
 40
0.003000
 41
0.003000
  0
VERTEX
  8
PLAN_1
 62
     2
  6
CONTINUOUS
 10
-1.135555
 20
3.916421
  0
VERTEX
  8
PLAN_1
 62
     2
  6
CONTINUOUS
 10
-1.134567
 20
3.917409
  0
VERTEX
  8
PLAN_1
 62
     2
  6
CONTINUOUS
 10
-1.133091
 20
3.917902
  0
VERTEX
  8
PLAN_1
 62
     2
  6
CONTINUOUS
 10
-1.131610
 20
3.918890
  0
VERTEX
  8
PLAN_1
 62
     2
  6
CONTINUOUS
 10
-1.129638
 20
3.919382
  0
VERTEX
  8
PLAN_1
 62
     2
  6
CONTINUOUS
 10
-1.128157
 20
3.920366
  0
VERTEX
  8
PLAN_1
 62
     2
  6
CONTINUOUS
 10
-1.126185
 20
3.920366
  0
VERTEX
  8
PLAN_1
 62
     2
  6
CONTINUOUS
 10
-1.123720
 20
3.920862
  0
VERTEX
  8
PLAN_1
 62
     2
  6
CONTINUOUS
 10
-1.121744
 20
3.920862
  0
VERTEX
  8
PLAN_1
 62
     2
  6
CONTINUOUS
 10
-1.117307
 20
3.920366
  0
VERTEX
  8
PLAN_1
 62
     2
  6
CONTINUOUS
 10
-1.112870
 20
3.919382
  0
VERTEX
  8
PLAN_1
 62
     2
  6
CONTINUOUS
 10
-1.108921
 20
3.917409
  0
VERTEX
  8
PLAN_1
 62
     2
  6
CONTINUOUS
 10
-1.104976
 20
3.914945
  0
VERTEX
  8
PLAN_1
 62
     2
  6
CONTINUOUS
 10
-1.102020
 20
3.911492
  0
VERTEX
  8
PLAN_1
 62
     2
  6
CONTINUOUS
 10
-1.099551
 20
3.907547
  0
VERTEX
  8
PLAN_1
 62
     2
  6
CONTINUOUS
 10
-1.098567
 20
3.905571
  0
VERTEX
  8
PLAN_1
 62
     2
  6
CONTINUOUS
 10
-1.098075
 20
3.903106
  0
VERTEX
  8
PLAN_1
 62
     2
  6
CONTINUOUS
 10
-1.097579
 20
3.900146
  0
VERTEX
  8
PLAN_1
 62
     2
  6
CONTINUOUS
 10
-1.097579
 20
3.897681
  0
VERTEX
  8
PLAN_1
 62
     2
  6
CONTINUOUS
 10
-1.097579
 20
3.894228
  0
VERTEX
  8
PLAN_1
 62
     2
  6
CONTINUOUS
 10
-1.098567
 20
3.890283
  0
VERTEX
  8
PLAN_1
 62
     2
  6
CONTINUOUS
 10
-1.100047
 20
3.885846
  0
VERTEX
  8
PLAN_1
 62
     2
  6
CONTINUOUS
 10
-1.102020
 20
3.881902
  0
VERTEX
  8
PLAN_1
 62
     2
  6
CONTINUOUS
 10
-1.103500
 20
3.879925
  0
VERTEX
  8
PLAN_1
 62
     2
  6
CONTINUOUS
 10
-1.105472
 20
3.877953
  0
VERTEX
  8
PLAN_1
 62
     2
  6
CONTINUOUS
 10
-1.107937
 20
3.875980
  0
VERTEX
  8
PLAN_1
 62
     2
  6
CONTINUOUS
 10
-1.110402
 20
3.874996
  0
VERTEX
  8
PLAN_1
 62
     2
  6
CONTINUOUS
 10
-1.112870
 20
3.873516
  0
VERTEX
  8
PLAN_1
 62
     2
  6
CONTINUOUS
 10
-1.116323
 20
3.872528
  0
VERTEX
  8
PLAN_1
 62
     2
  6
CONTINUOUS
 10
-1.119772
 20
3.872035
  0
VERTEX
  8
PLAN_1
 62
     2
  6
CONTINUOUS
 10
-1.124213
 20
3.872035
  0
VERTEX
  8
PLAN_1
 62
     2
  6
CONTINUOUS
 10
-1.127665
 20
3.872035
  0
VERTEX
  8
PLAN_1
 62
     2
  6
CONTINUOUS
 10
-1.131610
 20
3.872528
  0
VERTEX
  8
PLAN_1
 62
     2
  6
CONTINUOUS
 10
-1.135063
 20
3.874008
  0
VERTEX
  8
PLAN_1
 62
     2
  6
CONTINUOUS
 10
-1.138516
 20
3.875980
  0
VERTEX
  8
PLAN_1
 62
     2
  6
CONTINUOUS
 10
-1.141965
 20
3.878449
  0
VERTEX
  8
PLAN_1
 62
     2
  6
CONTINUOUS
 10
-1.144433
 20
3.881902
  0
VERTEX
  8
PLAN_1
 62
     2
  6
CONTINUOUS
 10
-1.145417
 20
3.884366
  0
VERTEX
  8
PLAN_1
 62
     2
  6
CONTINUOUS
 10
-1.146406
 20
3.886339
  0
VERTEX
  8
PLAN_1
 62
     2
  6
CONTINUOUS
 10
-1.147390
 20
3.889299
  0
VERTEX
  8
PLAN_1
 62
     2
  6
CONTINUOUS
 10
-1.147390
 20
3.892256
  0
VERTEX
  8
PLAN_1
 62
     2
  6
CONTINUOUS
 10
-1.138020
 20
3.892256
  0
VERTEX
  8
PLAN_1
 62
     2
  6
CONTINUOUS
 10
-1.137528
 20
3.889299
  0
VERTEX
  8
PLAN_1
 62
     2
  6
CONTINUOUS
 10
-1.136543
 20
3.886339
  0
VERTEX
  8
PLAN_1
 62
     2
  6
CONTINUOUS
 10
-1.135063
 20
3.884366
  0
VERTEX
  8
PLAN_1
 62
     2
  6
CONTINUOUS
 10
-1.133091
 20
3.882886
  0
VERTEX
  8
PLAN_1
 62
     2
  6
CONTINUOUS
 10
-1.131118
 20
3.881406
  0
VERTEX
  8
PLAN_1
 62
     2
  6
CONTINUOUS
 10
-1.128650
 20
3.880421
  0
VERTEX
  8
PLAN_1
 62
     2
  6
CONTINUOUS
 10
-1.125693
 20
3.879925
  0
VERTEX
  8
PLAN_1
 62
     2
  6
CONTINUOUS
 10
-1.122732
 20
3.879925
  0
VERTEX
  8
PLAN_1
 62
     2
  6
CONTINUOUS
 10
-1.119280
 20
3.879925
  0
VERTEX
  8
PLAN_1
 62
     2
  6
CONTINUOUS
 10
-1.116323
 20
3.880913
  0
VERTEX
  8
PLAN_1
 62
     2
  6
CONTINUOUS
 10
-1.113854
 20
3.882886
  0
VERTEX
  8
PLAN_1
 62
     2
  6
CONTINUOUS
 10
-1.111390
 20
3.884858
  0
VERTEX
  8
PLAN_1
 62
     2
  6
CONTINUOUS
 10
-1.109417
 20
3.887323
  0
VERTEX
  8
PLAN_1
 62
     2
  6
CONTINUOUS
 10
-1.108429
 20
3.890283
  0
VERTEX
  8
PLAN_1
 62
     2
  6
CONTINUOUS
 10
-1.107445
 20
3.893244
  0
VERTEX
  8
PLAN_1
 62
     2
  6
CONTINUOUS
 10
-1.107445
 20
3.896697
  0
VERTEX
  8
PLAN_1
 62
     2
  6
CONTINUOUS
 10
-1.107445
 20
3.900146
  0
VERTEX
  8
PLAN_1
 62
     2
  6
CONTINUOUS
 10
-1.108429
 20
3.903598
  0
VERTEX
  8
PLAN_1
 62
     2
  6
CONTINUOUS
 10
-1.109909
 20
3.906067
  0
VERTEX
  8
PLAN_1
 62
     2
  6
CONTINUOUS
 10
-1.111882
 20
3.908531
  0
VERTEX
  8
PLAN_1
 62
     2
  6
CONTINUOUS
 10
-1.114346
 20
3.910504
  0
VERTEX
  8
PLAN_1
 62
     2
  6
CONTINUOUS
 10
-1.117307
 20
3.911492
  0
VERTEX
  8
PLAN_1
 62
     2
  6
CONTINUOUS
 10
-1.120268
 20
3.912476
  0
VERTEX
  8
PLAN_1
 62
     2
  6
CONTINUOUS
 10
-1.123720
 20
3.912969
  0
VERTEX
  8
PLAN_1
 62
     2
  6
CONTINUOUS
 10
-1.125693
 20
3.912476
  0
VERTEX
  8
PLAN_1
 62
     2
  6
CONTINUOUS
 10
-1.127169
 20
3.912476
  0
VERTEX
  8
PLAN_1
 62
     2
  6
CONTINUOUS
 10
-1.129146
 20
3.911492
  0
VERTEX
  8
PLAN_1
 62
     2
  6
CONTINUOUS
 10
-1.131118
 20
3.910996
  0
VERTEX
  8
PLAN_1
 62
     2
  6
CONTINUOUS
 10
-1.132594
 20
3.910012
  0
VERTEX
  8
PLAN_1
 62
     2
  6
CONTINUOUS
 10
-1.134075
 20
3.908531
  0
VERTEX
  8
PLAN_1
 62
     2
  6
CONTINUOUS
 10
-1.135555
 20
3.907547
  0
VERTEX
  8
PLAN_1
 62
     2
  6
CONTINUOUS
 10
-1.137035
 20
3.905571
  0
VERTEX
  8
PLAN_1
 62
     2
  6
CONTINUOUS
 10
-1.144925
 20
3.906067
  0
VERTEX
  8
PLAN_1
 62
     2
  6
CONTINUOUS
 10
-1.139500
 20
3.945520
  0
VERTEX
  8
PLAN_1
 62
     2
  6
CONTINUOUS
 10
-1.101524
 20
3.945520
  0
VERTEX
  8
PLAN_1
 62
     2
  6
CONTINUOUS
 10
-1.101524
 20
3.936642
  0
VERTEX
  8
PLAN_1
 62
     2
  6
CONTINUOUS
 10
-1.132594
 20
3.936642
  0
VERTEX
  8
PLAN_1
 62
     2
  6
CONTINUOUS
 10
-1.135555
 20
3.916421
  0
SEQEND
  8
0
  0
POLYLINE
  8
PLAN_1
 62
     2
  6
CONTINUOUS
 66
     1
 40
0.003000
 41
0.003000
  0
VERTEX
  8
PLAN_1
 62
     2
  6
CONTINUOUS
 10
-1.088701
 20
3.921846
  0
VERTEX
  8
PLAN_1
 62
     2
  6
CONTINUOUS
 10
-1.088209
 20
3.926780
  0
VERTEX
  8
PLAN_1
 62
     2
  6
CONTINUOUS
 10
-1.087224
 20
3.931217
  0
VERTEX
  8
PLAN_1
 62
     2
  6
CONTINUOUS
 10
-1.085252
 20
3.935657
  0
VERTEX
  8
PLAN_1
 62
     2
  6
CONTINUOUS
 10
-1.082783
 20
3.939602
  0
VERTEX
  8
PLAN_1
 62
     2
  6
CONTINUOUS
 10
-1.081303
 20
3.941083
  0
VERTEX
  8
PLAN_1
 62
     2
  6
CONTINUOUS
 10
-1.079331
 20
3.942563
  0
VERTEX
  8
PLAN_1
 62
     2
  6
CONTINUOUS
 10
-1.077358
 20
3.944039
  0
VERTEX
  8
PLAN_1
 62
     2
  6
CONTINUOUS
 10
-1.075386
 20
3.945028
  0
VERTEX
  8
PLAN_1
 62
     2
  6
CONTINUOUS
 10
-1.072921
 20
3.946012
  0
VERTEX
  8
PLAN_1
 62
     2
  6
CONTINUOUS
 10
-1.070457
 20
3.946508
  0
VERTEX
  8
PLAN_1
 62
     2
  6
CONTINUOUS
 10
-1.067988
 20
3.947000
  0
VERTEX
  8
PLAN_1
 62
     2
  6
CONTINUOUS
 10
-1.065031
 20
3.947000
  0
VERTEX
  8
PLAN_1
 62
     2
  6
CONTINUOUS
 10
-1.061083
 20
3.946508
  0
VERTEX
  8
PLAN_1
 62
     2
  6
CONTINUOUS
 10
-1.057138
 20
3.946012
  0
VERTEX
  8
PLAN_1
 62
     2
  6
CONTINUOUS
 10
-1.054181
 20
3.945028
  0
VERTEX
  8
PLAN_1
 62
     2
  6
CONTINUOUS
 10
-1.051220
 20
3.943547
  0
VERTEX
  8
PLAN_1
 62
     2
  6
CONTINUOUS
 10
-1.048756
 20
3.941575
  0
VERTEX
  8
PLAN_1
 62
     2
  6
CONTINUOUS
 10
-1.046783
 20
3.939602
  0
VERTEX
  8
PLAN_1
 62
     2
  6
CONTINUOUS
 10
-1.045303
 20
3.937138
  0
VERTEX
  8
PLAN_1
 62
     2
  6
CONTINUOUS
 10
-1.043823
 20
3.934669
  0
VERTEX
  8
PLAN_1
 62
     2
  6
CONTINUOUS
 10
-1.041358
 20
3.929244
  0
VERTEX
  8
PLAN_1
 62
     2
  6
CONTINUOUS
 10
-1.040370
 20
3.923327
  0
VERTEX
  8
PLAN_1
 62
     2
  6
CONTINUOUS
 10
-1.039878
 20
3.917902
  0
VERTEX
  8
PLAN_1
 62
     2
  6
CONTINUOUS
 10
-1.039386
 20
3.912969
  0
VERTEX
  8
PLAN_1
 62
     2
  6
CONTINUOUS
 10
-1.039878
 20
3.909024
  0
VERTEX
  8
PLAN_1
 62
     2
  6
CONTINUOUS
 10
-1.040370
 20
3.903106
  0
VERTEX
  8
PLAN_1
 62
     2
  6
CONTINUOUS
 10
-1.041358
 20
3.896697
  0
VERTEX
  8
PLAN_1
 62
     2
  6
CONTINUOUS
 10
-1.043331
 20
3.889791
  0
VERTEX
  8
PLAN_1
 62
     2
  6
CONTINUOUS
 10
-1.044811
 20
3.886339
  0
VERTEX
  8
PLAN_1
 62
     2
  6
CONTINUOUS
 10
-1.046783
 20
3.882886
  0
VERTEX
  8
PLAN_1
 62
     2
  6
CONTINUOUS
 10
-1.048756
 20
3.879925
  0
VERTEX
  8
PLAN_1
 62
     2
  6
CONTINUOUS
 10
-1.051220
 20
3.877461
  0
VERTEX
  8
PLAN_1
 62
     2
  6
CONTINUOUS
 10
-1.054181
 20
3.874996
  0
VERTEX
  8
PLAN_1
 62
     2
  6
CONTINUOUS
 10
-1.057634
 20
3.873516
  0
VERTEX
  8
PLAN_1
 62
     2
  6
CONTINUOUS
 10
-1.061579
 20
3.872035
  0
VERTEX
  8
PLAN_1
 62
     2
  6
CONTINUOUS
 10
-1.066016
 20
3.872035
  0
VERTEX
  8
PLAN_1
 62
     2
  6
CONTINUOUS
 10
-1.068976
 20
3.872035
  0
VERTEX
  8
PLAN_1
 62
     2
  6
CONTINUOUS
 10
-1.071933
 20
3.872528
  0
VERTEX
  8
PLAN_1
 62
     2
  6
CONTINUOUS
 10
-1.074402
 20
3.873024
  0
VERTEX
  8
PLAN_1
 62
     2
  6
CONTINUOUS
 10
-1.076866
 20
3.874008
  0
VERTEX
  8
PLAN_1
 62
     2
  6
CONTINUOUS
 10
-1.080319
 20
3.875980
  0
VERTEX
  8
PLAN_1
 62
     2
  6
CONTINUOUS
 10
-1.083280
 20
3.878941
  0
VERTEX
  8
PLAN_1
 62
     2
  6
CONTINUOUS
 10
-1.085744
 20
3.881902
  0
VERTEX
  8
PLAN_1
 62
     2
  6
CONTINUOUS
 10
-1.086728
 20
3.885350
  0
VERTEX
  8
PLAN_1
 62
     2
  6
CONTINUOUS
 10
-1.087717
 20
3.888803
  0
VERTEX
  8
PLAN_1
 62
     2
  6
CONTINUOUS
 10
-1.087717
 20
3.891272
  0
VERTEX
  8
PLAN_1
 62
     2
  6
CONTINUOUS
 10
-1.078839
 20
3.891272
  0
VERTEX
  8
PLAN_1
 62
     2
  6
CONTINUOUS
 10
-1.078346
 20
3.888803
  0
VERTEX
  8
PLAN_1
 62
     2
  6
CONTINUOUS
 10
-1.077358
 20
3.886339
  0
VERTEX
  8
PLAN_1
 62
     2
  6
CONTINUOUS
 10
-1.076374
 20
3.884366
  0
VERTEX
  8
PLAN_1
 62
     2
  6
CONTINUOUS
 10
-1.074894
 20
3.882886
  0
VERTEX
  8
PLAN_1
 62
     2
  6
CONTINUOUS
 10
-1.073413
 20
3.881406
  0
VERTEX
  8
PLAN_1
 62
     2
  6
CONTINUOUS
 10
-1.071441
 20
3.880421
  0
VERTEX
  8
PLAN_1
 62
     2
  6
CONTINUOUS
 10
-1.068976
 20
3.879925
  0
VERTEX
  8
PLAN_1
 62
     2
  6
CONTINUOUS
 10
-1.066508
 20
3.879433
  0
VERTEX
  8
PLAN_1
 62
     2
  6
CONTINUOUS
 10
-1.062563
 20
3.879925
  0
VERTEX
  8
PLAN_1
 62
     2
  6
CONTINUOUS
 10
-1.059606
 20
3.880913
  0
VERTEX
  8
PLAN_1
 62
     2
  6
CONTINUOUS
 10
-1.057138
 20
3.883378
  0
VERTEX
  8
PLAN_1
 62
     2
  6
CONTINUOUS
 10
-1.054673
 20
3.885846
  0
VERTEX
  8
PLAN_1
 62
     2
  6
CONTINUOUS
 10
-1.052701
 20
3.889791
  0
VERTEX
  8
PLAN_1
 62
     2
  6
CONTINUOUS
 10
-1.051220
 20
3.894724
  0
VERTEX
  8
PLAN_1
 62
     2
  6
CONTINUOUS
 10
-1.049740
 20
3.900146
  0
VERTEX
  8
PLAN_1
 62
     2
  6
CONTINUOUS
 10
-1.048756
 20
3.907051
  0
VERTEX
  8
PLAN_1
 62
     2
  6
CONTINUOUS
 10
-1.050236
 20
3.905079
  0
VERTEX
  8
PLAN_1
 62
     2
  6
CONTINUOUS
 10
-1.051713
 20
3.903106
  0
VERTEX
  8
PLAN_1
 62
     2
  6
CONTINUOUS
 10
-1.053685
 20
3.901626
  0
VERTEX
  8
PLAN_1
 62
     2
  6
CONTINUOUS
 10
-1.055657
 20
3.900642
  0
VERTEX
  8
PLAN_1
 62
     2
  6
CONTINUOUS
 10
-1.058126
 20
3.899654
  0
VERTEX
  8
PLAN_1
 62
     2
  6
CONTINUOUS
 10
-1.060591
 20
3.898669
  0
VERTEX
  8
PLAN_1
 62
     2
  6
CONTINUOUS
 10
-1.063059
 20
3.898669
  0
VERTEX
  8
PLAN_1
 62
     2
  6
CONTINUOUS
 10
-1.065524
 20
3.898173
  0
VERTEX
  8
PLAN_1
 62
     2
  6
CONTINUOUS
 10
-1.070457
 20
3.898669
  0
VERTEX
  8
PLAN_1
 62
     2
  6
CONTINUOUS
 10
-1.074894
 20
3.900146
  0
VERTEX
  8
PLAN_1
 62
     2
  6
CONTINUOUS
 10
-1.078839
 20
3.902122
  0
VERTEX
  8
PLAN_1
 62
     2
  6
CONTINUOUS
 10
-1.082291
 20
3.904587
  0
VERTEX
  8
PLAN_1
 62
     2
  6
CONTINUOUS
 10
-1.084756
 20
3.908039
  0
VERTEX
  8
PLAN_1
 62
     2
  6
CONTINUOUS
 10
-1.087224
 20
3.911984
  0
VERTEX
  8
PLAN_1
 62
     2
  6
CONTINUOUS
 10
-1.088209
 20
3.916917
  0
VERTEX
  8
PLAN_1
 62
     2
  6
CONTINUOUS
 10
-1.088701
 20
3.921846
  0
SEQEND
  8
0
  0
POLYLINE
  8
PLAN_1
 62
     2
  6
CONTINUOUS
 66
     1
 40
0.003000
 41
0.003000
  0
VERTEX
  8
PLAN_1
 62
     2
  6
CONTINUOUS
 10
-1.050236
 20
3.923327
  0
VERTEX
  8
PLAN_1
 62
     2
  6
CONTINUOUS
 10
-1.050728
 20
3.926287
  0
VERTEX
  8
PLAN_1
 62
     2
  6
CONTINUOUS
 10
-1.051220
 20
3.929244
  0
VERTEX
  8
PLAN_1
 62
     2
  6
CONTINUOUS
 10
-1.052209
 20
3.931713
  0
VERTEX
  8
PLAN_1
 62
     2
  6
CONTINUOUS
 10
-1.053685
 20
3.934177
  0
VERTEX
  8
PLAN_1
 62
     2
  6
CONTINUOUS
 10
-1.055657
 20
3.936150
  0
VERTEX
  8
PLAN_1
 62
     2
  6
CONTINUOUS
 10
-1.058126
 20
3.937630
  0
VERTEX
  8
PLAN_1
 62
     2
  6
CONTINUOUS
 10
-1.061579
 20
3.938614
  0
VERTEX
  8
PLAN_1
 62
     2
  6
CONTINUOUS
 10
-1.065031
 20
3.938614
  0
VERTEX
  8
PLAN_1
 62
     2
  6
CONTINUOUS
 10
-1.067988
 20
3.938614
  0
VERTEX
  8
PLAN_1
 62
     2
  6
CONTINUOUS
 10
-1.070949
 20
3.937630
  0
VERTEX
  8
PLAN_1
 62
     2
  6
CONTINUOUS
 10
-1.073413
 20
3.936150
  0
VERTEX
  8
PLAN_1
 62
     2
  6
CONTINUOUS
 10
-1.075386
 20
3.934177
  0
VERTEX
  8
PLAN_1
 62
     2
  6
CONTINUOUS
 10
-1.076866
 20
3.931713
  0
VERTEX
  8
PLAN_1
 62
     2
  6
CONTINUOUS
 10
-1.078346
 20
3.929244
  0
VERTEX
  8
PLAN_1
 62
     2
  6
CONTINUOUS
 10
-1.078839
 20
3.925791
  0
VERTEX
  8
PLAN_1
 62
     2
  6
CONTINUOUS
 10
-1.079331
 20
3.922343
  0
VERTEX
  8
PLAN_1
 62
     2
  6
CONTINUOUS
 10
-1.078839
 20
3.917409
  0
VERTEX
  8
PLAN_1
 62
     2
  6
CONTINUOUS
 10
-1.077854
 20
3.913957
  0
VERTEX
  8
PLAN_1
 62
     2
  6
CONTINUOUS
 10
-1.076374
 20
3.910996
  0
VERTEX
  8
PLAN_1
 62
     2
  6
CONTINUOUS
 10
-1.073906
 20
3.909024
  0
VERTEX
  8
PLAN_1
 62
     2
  6
CONTINUOUS
 10
-1.071933
 20
3.908039
  0
VERTEX
  8
PLAN_1
 62
     2
  6
CONTINUOUS
 10
-1.069469
 20
3.907051
  0
VERTEX
  8
PLAN_1
 62
     2
  6
CONTINUOUS
 10
-1.066508
 20
3.906559
  0
VERTEX
  8
PLAN_1
 62
     2
  6
CONTINUOUS
 10
-1.064535
 20
3.906559
  0
VERTEX
  8
PLAN_1
 62
     2
  6
CONTINUOUS
 10
-1.062563
 20
3.906559
  0
VERTEX
  8
PLAN_1
 62
     2
  6
CONTINUOUS
 10
-1.060098
 20
3.907051
  0
VERTEX
  8
PLAN_1
 62
     2
  6
CONTINUOUS
 10
-1.057634
 20
3.908039
  0
VERTEX
  8
PLAN_1
 62
     2
  6
CONTINUOUS
 10
-1.055657
 20
3.909520
  0
VERTEX
  8
PLAN_1
 62
     2
  6
CONTINUOUS
 10
-1.053685
 20
3.911492
  0
VERTEX
  8
PLAN_1
 62
     2
  6
CONTINUOUS
 10
-1.051713
 20
3.914449
  0
VERTEX
  8
PLAN_1
 62
     2
  6
CONTINUOUS
 10
-1.050728
 20
3.918394
  0
VERTEX
  8
PLAN_1
 62
     2
  6
CONTINUOUS
 10
-1.050236
 20
3.923327
  0
SEQEND
  8
0
  0
POLYLINE
  8
PLAN_1
 62
     2
  6
CONTINUOUS
 66
     1
 40
0.003945
 41
0.003945
  0
VERTEX
  8
PLAN_1
 62
     2
  6
CONTINUOUS
 10
-1.890618
 20
3.693012
  0
VERTEX
  8
PLAN_1
 62
     2
  6
CONTINUOUS
 10
0.041181
 20
3.693012
  0
SEQEND
  8
0
  0
SOLID
  8
PLAN_1
 62
     2
 10
0.070772
 20
3.693012
 11
0.011591
 21
3.708299
 12
0.070772
 22
3.693012
 13
0.011591
 23
3.677228
  0
POLYLINE
  8
PLAN_1
 62
     2
  6
CONTINUOUS
 66
     1
 40
0.003000
 41
0.003000
  0
VERTEX
  8
PLAN_1
 62
     2
  6
CONTINUOUS
 10
0.070772
 20
3.693012
  0
VERTEX
  8
PLAN_1
 62
     2
  6
CONTINUOUS
 10
0.011591
 20
3.708299
  0
VERTEX
  8
PLAN_1
 62
     2
  6
CONTINUOUS
 10
0.011591
 20
3.677228
  0
VERTEX
  8
PLAN_1
 62
     2
  6
CONTINUOUS
 10
0.070772
 20
3.693012
  0
SEQEND
  8
0
  0
SOLID
  8
PLAN_1
 62
     2
 10
-1.920209
 20
3.693012
 11
-1.861028
 21
3.708299
 12
-1.920209
 22
3.693012
 13
-1.861028
 23
3.677228
  0
POLYLINE
  8
PLAN_1
 62
     2
  6
CONTINUOUS
 66
     1
 40
0.003000
 41
0.003000
  0
VERTEX
  8
PLAN_1
 62
     2
  6
CONTINUOUS
 10
-1.920209
 20
3.693012
  0
VERTEX
  8
PLAN_1
 62
     2
  6
CONTINUOUS
 10
-1.861028
 20
3.708299
  0
VERTEX
  8
PLAN_1
 62
     2
  6
CONTINUOUS
 10
-1.861028
 20
3.677228
  0
VERTEX
  8
PLAN_1
 62
     2
  6
CONTINUOUS
 10
-1.920209
 20
3.693012
  0
SEQEND
  8
0
  0
POLYLINE
  8
PLAN_1
 62
     2
  6
CONTINUOUS
 66
     1
 40
0.003000
 41
0.003000
  0
VERTEX
  8
PLAN_1
 62
     2
  6
CONTINUOUS
 10
-0.938776
 20
3.733945
  0
VERTEX
  8
PLAN_1
 62
     2
  6
CONTINUOUS
 10
-0.938776
 20
3.716189
  0
VERTEX
  8
PLAN_1
 62
     2
  6
CONTINUOUS
 10
-0.948146
 20
3.716189
  0
VERTEX
  8
PLAN_1
 62
     2
  6
CONTINUOUS
 10
-0.948146
 20
3.733945
  0
VERTEX
  8
PLAN_1
 62
     2
  6
CONTINUOUS
 10
-0.979709
 20
3.733945
  0
VERTEX
  8
PLAN_1
 62
     2
  6
CONTINUOUS
 10
-0.979709
 20
3.743315
  0
VERTEX
  8
PLAN_1
 62
     2
  6
CONTINUOUS
 10
-0.946665
 20
3.789673
  0
VERTEX
  8
PLAN_1
 62
     2
  6
CONTINUOUS
 10
-0.938776
 20
3.789673
  0
VERTEX
  8
PLAN_1
 62
     2
  6
CONTINUOUS
 10
-0.938776
 20
3.742331
  0
VERTEX
  8
PLAN_1
 62
     2
  6
CONTINUOUS
 10
-0.927925
 20
3.742331
  0
VERTEX
  8
PLAN_1
 62
     2
  6
CONTINUOUS
 10
-0.927925
 20
3.733945
  0
VERTEX
  8
PLAN_1
 62
     2
  6
CONTINUOUS
 10
-0.938776
 20
3.733945
  0
SEQEND
  8
0
  0
SOLID
  8
PLAN_1
 62
     2
 10
-0.971327
 20
3.742331
 11
-0.948146
 21
3.742331
 12
-0.971327
 22
3.742331
 13
-0.948146
 23
3.775374
  0
POLYLINE
  8
PLAN_1
 62
     2
  6
CONTINUOUS
 66
     1
 40
0.003000
 41
0.003000
  0
VERTEX
  8
PLAN_1
 62
     2
  6
CONTINUOUS
 10
-0.971327
 20
3.742331
  0
VERTEX
  8
PLAN_1
 62
     2
  6
CONTINUOUS
 10
-0.948146
 20
3.742331
  0
VERTEX
  8
PLAN_1
 62
     2
  6
CONTINUOUS
 10
-0.948146
 20
3.775374
  0
VERTEX
  8
PLAN_1
 62
     2
  6
CONTINUOUS
 10
-0.971327
 20
3.742331
  0
SEQEND
  8
0
  0
POLYLINE
  8
PLAN_1
 62
     2
  6
CONTINUOUS
 66
     1
 40
0.003000
 41
0.003000
  0
VERTEX
  8
PLAN_1
 62
     2
  6
CONTINUOUS
 10
-0.920035
 20
3.764524
  0
VERTEX
  8
PLAN_1
 62
     2
  6
CONTINUOUS
 10
-0.920035
 20
3.769453
  0
VERTEX
  8
PLAN_1
 62
     2
  6
CONTINUOUS
 10
-0.918555
 20
3.773894
  0
VERTEX
  8
PLAN_1
 62
     2
  6
CONTINUOUS
 10
-0.917075
 20
3.778331
  0
VERTEX
  8
PLAN_1
 62
     2
  6
CONTINUOUS
 10
-0.914114
 20
3.781783
  0
VERTEX
  8
PLAN_1
 62
     2
  6
CONTINUOUS
 10
-0.912638
 20
3.783756
  0
VERTEX
  8
PLAN_1
 62
     2
  6
CONTINUOUS
 10
-0.911157
 20
3.785236
  0
VERTEX
  8
PLAN_1
 62
     2
  6
CONTINUOUS
 10
-0.909185
 20
3.786220
  0
VERTEX
  8
PLAN_1
 62
     2
  6
CONTINUOUS
 10
-0.906717
 20
3.787701
  0
VERTEX
  8
PLAN_1
 62
     2
  6
CONTINUOUS
 10
-0.904744
 20
3.788197
  0
VERTEX
  8
PLAN_1
 62
     2
  6
CONTINUOUS
 10
-0.902280
 20
3.789181
  0
VERTEX
  8
PLAN_1
 62
     2
  6
CONTINUOUS
 10
-0.899319
 20
3.789181
  0
VERTEX
  8
PLAN_1
 62
     2
  6
CONTINUOUS
 10
-0.896854
 20
3.789673
  0
VERTEX
  8
PLAN_1
 62
     2
  6
CONTINUOUS
 10
-0.892417
 20
3.789181
  0
VERTEX
  8
PLAN_1
 62
     2
  6
CONTINUOUS
 10
-0.888965
 20
3.788689
  0
VERTEX
  8
PLAN_1
 62
     2
  6
CONTINUOUS
 10
-0.885512
 20
3.787209
  0
VERTEX
  8
PLAN_1
 62
     2
  6
CONTINUOUS
 10
-0.883043
 20
3.785728
  0
VERTEX
  8
PLAN_1
 62
     2
  6
CONTINUOUS
 10
-0.880579
 20
3.784248
  0
VERTEX
  8
PLAN_1
 62
     2
  6
CONTINUOUS
 10
-0.878606
 20
3.781783
  0
VERTEX
  8
PLAN_1
 62
     2
  6
CONTINUOUS
 10
-0.876634
 20
3.779811
  0
VERTEX
  8
PLAN_1
 62
     2
  6
CONTINUOUS
 10
-0.875154
 20
3.776850
  0
VERTEX
  8
PLAN_1
 62
     2
  6
CONTINUOUS
 10
-0.873181
 20
3.771425
  0
VERTEX
  8
PLAN_1
 62
     2
  6
CONTINUOUS
 10
-0.871701
 20
3.766000
  0
VERTEX
  8
PLAN_1
 62
     2
  6
CONTINUOUS
 10
-0.871209
 20
3.760575
  0
VERTEX
  8
PLAN_1
 62
     2
  6
CONTINUOUS
 10
-0.871209
 20
3.755646
  0
VERTEX
  8
PLAN_1
 62
     2
  6
CONTINUOUS
 10
-0.871209
 20
3.751701
  0
VERTEX
  8
PLAN_1
 62
     2
  6
CONTINUOUS
 10
-0.871701
 20
3.745780
  0
VERTEX
  8
PLAN_1
 62
     2
  6
CONTINUOUS
 10
-0.872689
 20
3.739370
  0
VERTEX
  8
PLAN_1
 62
     2
  6
CONTINUOUS
 10
-0.875154
 20
3.731972
  0
VERTEX
  8
PLAN_1
 62
     2
  6
CONTINUOUS
 10
-0.876634
 20
3.728520
  0
VERTEX
  8
PLAN_1
 62
     2
  6
CONTINUOUS
 10
-0.878114
 20
3.725559
  0
VERTEX
  8
PLAN_1
 62
     2
  6
CONTINUOUS
 10
-0.880579
 20
3.722602
  0
VERTEX
  8
PLAN_1
 62
     2
  6
CONTINUOUS
 10
-0.883043
 20
3.719642
  0
VERTEX
  8
PLAN_1
 62
     2
  6
CONTINUOUS
 10
-0.886004
 20
3.717669
  0
VERTEX
  8
PLAN_1
 62
     2
  6
CONTINUOUS
 10
-0.889457
 20
3.715697
  0
VERTEX
  8
PLAN_1
 62
     2
  6
CONTINUOUS
 10
-0.893402
 20
3.714709
  0
VERTEX
  8
PLAN_1
 62
     2
  6
CONTINUOUS
 10
-0.897843
 20
3.714217
  0
VERTEX
  8
PLAN_1
 62
     2
  6
CONTINUOUS
 10
-0.900799
 20
3.714709
  0
VERTEX
  8
PLAN_1
 62
     2
  6
CONTINUOUS
 10
-0.903760
 20
3.715205
  0
VERTEX
  8
PLAN_1
 62
     2
  6
CONTINUOUS
 10
-0.906224
 20
3.715697
  0
VERTEX
  8
PLAN_1
 62
     2
  6
CONTINUOUS
 10
-0.908197
 20
3.716685
  0
VERTEX
  8
PLAN_1
 62
     2
  6
CONTINUOUS
 10
-0.912142
 20
3.718657
  0
VERTEX
  8
PLAN_1
 62
     2
  6
CONTINUOUS
 10
-0.915102
 20
3.721614
  0
VERTEX
  8
PLAN_1
 62
     2
  6
CONTINUOUS
 10
-0.917075
 20
3.724575
  0
VERTEX
  8
PLAN_1
 62
     2
  6
CONTINUOUS
 10
-0.918555
 20
3.728028
  0
VERTEX
  8
PLAN_1
 62
     2
  6
CONTINUOUS
 10
-0.919047
 20
3.730984
  0
VERTEX
  8
PLAN_1
 62
     2
  6
CONTINUOUS
 10
-0.919539
 20
3.733945
  0
VERTEX
  8
PLAN_1
 62
     2
  6
CONTINUOUS
 10
-0.910169
 20
3.733945
  0
VERTEX
  8
PLAN_1
 62
     2
  6
CONTINUOUS
 10
-0.909677
 20
3.731480
  0
VERTEX
  8
PLAN_1
 62
     2
  6
CONTINUOUS
 10
-0.909185
 20
3.729012
  0
VERTEX
  8
PLAN_1
 62
     2
  6
CONTINUOUS
 10
-0.908197
 20
3.727039
  0
VERTEX
  8
PLAN_1
 62
     2
  6
CONTINUOUS
 10
-0.906717
 20
3.725067
  0
VERTEX
  8
PLAN_1
 62
     2
  6
CONTINUOUS
 10
-0.904744
 20
3.724083
  0
VERTEX
  8
PLAN_1
 62
     2
  6
CONTINUOUS
 10
-0.902772
 20
3.722602
  0
VERTEX
  8
PLAN_1
 62
     2
  6
CONTINUOUS
 10
-0.900799
 20
3.722110
  0
VERTEX
  8
PLAN_1
 62
     2
  6
CONTINUOUS
 10
-0.897843
 20
3.722110
  0
VERTEX
  8
PLAN_1
 62
     2
  6
CONTINUOUS
 10
-0.894390
 20
3.722602
  0
VERTEX
  8
PLAN_1
 62
     2
  6
CONTINUOUS
 10
-0.891429
 20
3.723587
  0
VERTEX
  8
PLAN_1
 62
     2
  6
CONTINUOUS
 10
-0.888469
 20
3.725559
  0
VERTEX
  8
PLAN_1
 62
     2
  6
CONTINUOUS
 10
-0.886004
 20
3.728520
  0
VERTEX
  8
PLAN_1
 62
     2
  6
CONTINUOUS
 10
-0.884031
 20
3.732465
  0
VERTEX
  8
PLAN_1
 62
     2
  6
CONTINUOUS
 10
-0.882551
 20
3.736906
  0
VERTEX
  8
PLAN_1
 62
     2
  6
CONTINUOUS
 10
-0.881567
 20
3.742823
  0
VERTEX
  8
PLAN_1
 62
     2
  6
CONTINUOUS
 10
-0.880087
 20
3.749232
  0
VERTEX
  8
PLAN_1
 62
     2
  6
CONTINUOUS
 10
-0.880579
 20
3.749728
  0
VERTEX
  8
PLAN_1
 62
     2
  6
CONTINUOUS
 10
-0.881567
 20
3.747752
  0
VERTEX
  8
PLAN_1
 62
     2
  6
CONTINUOUS
 10
-0.883539
 20
3.745780
  0
VERTEX
  8
PLAN_1
 62
     2
  6
CONTINUOUS
 10
-0.885020
 20
3.744303
  0
VERTEX
  8
PLAN_1
 62
     2
  6
CONTINUOUS
 10
-0.887484
 20
3.743315
  0
VERTEX
  8
PLAN_1
 62
     2
  6
CONTINUOUS
 10
-0.889949
 20
3.742331
  0
VERTEX
  8
PLAN_1
 62
     2
  6
CONTINUOUS
 10
-0.892417
 20
3.741343
  0
VERTEX
  8
PLAN_1
 62
     2
  6
CONTINUOUS
 10
-0.894882
 20
3.740850
  0
VERTEX
  8
PLAN_1
 62
     2
  6
CONTINUOUS
 10
-0.897346
 20
3.740850
  0
VERTEX
  8
PLAN_1
 62
     2
  6
CONTINUOUS
 10
-0.902280
 20
3.741343
  0
VERTEX
  8
PLAN_1
 62
     2
  6
CONTINUOUS
 10
-0.906717
 20
3.742331
  0
VERTEX
  8
PLAN_1
 62
     2
  6
CONTINUOUS
 10
-0.910665
 20
3.744303
  0
VERTEX
  8
PLAN_1
 62
     2
  6
CONTINUOUS
 10
-0.913622
 20
3.747260
  0
VERTEX
  8
PLAN_1
 62
     2
  6
CONTINUOUS
 10
-0.916583
 20
3.750713
  0
VERTEX
  8
PLAN_1
 62
     2
  6
CONTINUOUS
 10
-0.918555
 20
3.754657
  0
VERTEX
  8
PLAN_1
 62
     2
  6
CONTINUOUS
 10
-0.920035
 20
3.759098
  0
VERTEX
  8
PLAN_1
 62
     2
  6
CONTINUOUS
 10
-0.920035
 20
3.764524
  0
SEQEND
  8
0
  0
POLYLINE
  8
PLAN_1
 62
     2
  6
CONTINUOUS
 66
     1
 40
0.003000
 41
0.003000
  0
VERTEX
  8
PLAN_1
 62
     2
  6
CONTINUOUS
 10
-0.882059
 20
3.765508
  0
VERTEX
  8
PLAN_1
 62
     2
  6
CONTINUOUS
 10
-0.882059
 20
3.768961
  0
VERTEX
  8
PLAN_1
 62
     2
  6
CONTINUOUS
 10
-0.882551
 20
3.771425
  0
VERTEX
  8
PLAN_1
 62
     2
  6
CONTINUOUS
 10
-0.883539
 20
3.774386
  0
VERTEX
  8
PLAN_1
 62
     2
  6
CONTINUOUS
 10
-0.885512
 20
3.776850
  0
VERTEX
  8
PLAN_1
 62
     2
  6
CONTINUOUS
 10
-0.887484
 20
3.778331
  0
VERTEX
  8
PLAN_1
 62
     2
  6
CONTINUOUS
 10
-0.889949
 20
3.779811
  0
VERTEX
  8
PLAN_1
 62
     2
  6
CONTINUOUS
 10
-0.892909
 20
3.780795
  0
VERTEX
  8
PLAN_1
 62
     2
  6
CONTINUOUS
 10
-0.896854
 20
3.781291
  0
VERTEX
  8
PLAN_1
 62
     2
  6
CONTINUOUS
 10
-0.899815
 20
3.780795
  0
VERTEX
  8
PLAN_1
 62
     2
  6
CONTINUOUS
 10
-0.902280
 20
3.780303
  0
VERTEX
  8
PLAN_1
 62
     2
  6
CONTINUOUS
 10
-0.904744
 20
3.778823
  0
VERTEX
  8
PLAN_1
 62
     2
  6
CONTINUOUS
 10
-0.906717
 20
3.776850
  0
VERTEX
  8
PLAN_1
 62
     2
  6
CONTINUOUS
 10
-0.908689
 20
3.774386
  0
VERTEX
  8
PLAN_1
 62
     2
  6
CONTINUOUS
 10
-0.909677
 20
3.771425
  0
VERTEX
  8
PLAN_1
 62
     2
  6
CONTINUOUS
 10
-0.910665
 20
3.768469
  0
VERTEX
  8
PLAN_1
 62
     2
  6
CONTINUOUS
 10
-0.910665
 20
3.765016
  0
VERTEX
  8
PLAN_1
 62
     2
  6
CONTINUOUS
 10
-0.910169
 20
3.760083
  0
VERTEX
  8
PLAN_1
 62
     2
  6
CONTINUOUS
 10
-0.909185
 20
3.756630
  0
VERTEX
  8
PLAN_1
 62
     2
  6
CONTINUOUS
 10
-0.907705
 20
3.753673
  0
VERTEX
  8
PLAN_1
 62
     2
  6
CONTINUOUS
 10
-0.905732
 20
3.751701
  0
VERTEX
  8
PLAN_1
 62
     2
  6
CONTINUOUS
 10
-0.903264
 20
3.750220
  0
VERTEX
  8
PLAN_1
 62
     2
  6
CONTINUOUS
 10
-0.900799
 20
3.749728
  0
VERTEX
  8
PLAN_1
 62
     2
  6
CONTINUOUS
 10
-0.898335
 20
3.749232
  0
VERTEX
  8
PLAN_1
 62
     2
  6
CONTINUOUS
 10
-0.895866
 20
3.749232
  0
VERTEX
  8
PLAN_1
 62
     2
  6
CONTINUOUS
 10
-0.893894
 20
3.749232
  0
VERTEX
  8
PLAN_1
 62
     2
  6
CONTINUOUS
 10
-0.891921
 20
3.749728
  0
VERTEX
  8
PLAN_1
 62
     2
  6
CONTINUOUS
 10
-0.889457
 20
3.750713
  0
VERTEX
  8
PLAN_1
 62
     2
  6
CONTINUOUS
 10
-0.886992
 20
3.752193
  0
VERTEX
  8
PLAN_1
 62
     2
  6
CONTINUOUS
 10
-0.885020
 20
3.754165
  0
VERTEX
  8
PLAN_1
 62
     2
  6
CONTINUOUS
 10
-0.883539
 20
3.757126
  0
VERTEX
  8
PLAN_1
 62
     2
  6
CONTINUOUS
 10
-0.882059
 20
3.761071
  0
VERTEX
  8
PLAN_1
 62
     2
  6
CONTINUOUS
 10
-0.882059
 20
3.765508
  0
SEQEND
  8
0
  0
POLYLINE
  8
PLAN_1
 62
     2
  6
CONTINUOUS
 66
     1
 40
0.003945
 41
0.003945
  0
VERTEX
  8
PLAN_1
 62
     2
  6
CONTINUOUS
 10
-2.257055
 20
3.874008
  0
VERTEX
  8
PLAN_1
 62
     2
  6
CONTINUOUS
 10
-2.257055
 20
0.989870
  0
SEQEND
  8
0
  0
POLYLINE
  8
PLAN_1
 62
     2
  6
CONTINUOUS
 66
     1
 40
0.003945
 41
0.003945
  0
VERTEX
  8
PLAN_1
 62
     2
  6
CONTINUOUS
 10
-1.920209
 20
3.716189
  0
VERTEX
  8
PLAN_1
 62
     2
  6
CONTINUOUS
 10
-1.920209
 20
3.526315
  0
SEQEND
  8
0
  0
POLYLINE
  8
PLAN_1
 62
     2
  6
CONTINUOUS
 66
     1
 40
0.003945
 41
0.003945
  0
VERTEX
  8
PLAN_1
 62
     2
  6
CONTINUOUS
 10
0.070772
 20
0.132224
  0
VERTEX
  8
PLAN_1
 62
     2
  6
CONTINUOUS
 10
0.070772
 20
3.874008
  0
SEQEND
  8
0
  0
ENDSEC
  0
EOF
