999
DXF file: C:\Users\sesa63760\Dev\_Creo\CAD\MCADID0005523_3D-CAD\drw0001_1.dxf
999
Pro/ENGINEER 2019471 by Parametric Technology Corporation
  0
SECTION
  2
HEADER
  9
$ACADVER
  1
AC1024
  9
$DWGCODEPAGE
  3
ANSI_1252
  9
$EXTMAX
 10
44.41711571
 20
62.8184922184
 30
0.0
  9
$EXTMIN
 10
0.0
 20
0.0
 30
0.0
  9
$LIMMIN
 10
0.0
 20
0.0
  9
$LIMMAX
 10
44.41711571
 20
62.8184922184
  9
$VIEWCTR
 10
22.208557855
 20
31.4092461092
  9
$VIEWSIZE
 40
62.8184922184
  9
$CLAYER
  8
0
  9
$LTSCALE
 40
4.0948350483
  9
$CELTYPE
  6
BYLAYER
  9
$DIMSCALE
 40
1.0
  9
$DIMASZ
 40
0.528775187
  9
$DIMEXO
 40
1.0
  9
$DIMDLI
 40
2.8291587607
  9
$DIMEXE
 40
1.0
  9
$DIMCEN
 40
0.670063917
  9
$DIMLFAC
 40
1.0
  9
$DIMBLK
  1
_FILLED
  9
$DIMALT
 70
0
  9
$DIMALTF
 40
0.0393700787
  9
$DIMTXT
 40
0.7402852618
  9
$DIMTOL
 70
1
  9
$DIMLIM
 70
0
  9
$DIMTFAC
 40
1.0
  9
$DIMTP
 40
0.01
  9
$DIMTM
 40
0.01
  9
$DIMGAP
 40
0.625
  9
$DIMDSEP
 70
46
  9
$AUNITS
 70
0
  9
$PDMODE
 70
3
  9
$PDSIZE
 40
0.3125
  9
$HANDSEED
  5
242
  9
$TILEMODE
 70
1
  9
$MEASUREMENT
 70
1
  9
$INSUNITS
 70
4
  0
ENDSEC
  0
SECTION
  2
CLASSES
  0
CLASS
  1
ACDBDICTIONARYWDFLT
  2
AcDbDictionaryWithDefault
  3
AutoCAD 2000
 90
0
 91
1
280
0
281
0
  0
CLASS
  1
ACDBPLACEHOLDER
  2
AcDbPlaceHolder
  3
AutoCAD 2000
 90
0
 91
1
280
0
281
0
  0
CLASS
  1
LAYOUT
  2
AcDbLayout
  3
AutoCAD 2000
 90
0
 91
0
280
0
281
0
  0
ENDSEC
  0
SECTION
  2
TABLES
  0
TABLE
  2
VPORT
  5
8
100
AcDbSymbolTable
 70
2
  0
VPORT
  5
1F4
100
AcDbSymbolTableRecord
100
AcDbViewportTableRecord
  2
*ACTIVE
 70
0
 10
0.0
 20
0.0
 11
1.0
 21
1.0
 12
22.208557855
 22
31.4092461092
 13
0.0
 23
0.0
 14
1.0
 24
1.0
 15
0.0
 25
0.0
 16
0.0
 26
0.0
 36
1.0
 17
0.0
 27
0.0
 37
0.0
 40
62.8184922184
 41
0.7070707071
 42
50.0
 43
0.0
 44
0.0
 50
0.0
 51
0.0
 71
0
 72
100
 73
1
 74
1
 75
0
 76
0
 77
0
 78
0
  0
ENDTAB
  0
TABLE
  2
LTYPE
  5
5
100
AcDbSymbolTable
 70
6
  0
LTYPE
  5
14
100
AcDbSymbolTableRecord
100
AcDbLinetypeTableRecord
  2
BYBLOCK
 70
0
  3

 72
65
 73
0
 40
0.0
  0
LTYPE
  5
15
100
AcDbSymbolTableRecord
100
AcDbLinetypeTableRecord
  2
BYLAYER
 70
0
  3

 72
65
 73
0
 40
0.0
  0
LTYPE
  5
16
100
AcDbSymbolTableRecord
100
AcDbLinetypeTableRecord
  2
CONTINUOUS
 70
64
  3
Solid line
 72
65
 73
0
 40
0.0
  0
LTYPE
  5
1F5
100
AcDbSymbolTableRecord
100
AcDbLinetypeTableRecord
  2
CENTER
 70
64
  3
____ _ ____ _ ____ _ ____ _ ____ _ ____ _ ____
 72
65
 73
4
 40
0.6
 49
0.375
 74
0
 49
-0.075
 74
0
 49
0.075
 74
0
 49
-0.075
 74
0
  0
LTYPE
  5
1F6
100
AcDbSymbolTableRecord
100
AcDbLinetypeTableRecord
  2
HIDDEN
 70
64
  3
- - - - - - - - - - - - - - - - - - - -
 72
65
 73
2
 40
0.2
 49
0.1
 74
0
 49
-0.1
 74
0
  0
LTYPE
  5
1F7
100
AcDbSymbolTableRecord
100
AcDbLinetypeTableRecord
  2
PHANTOM
 70
64
  3
_____ _ _ _____ _ _ _____ _ _ _____
 72
65
 73
6
 40
0.8
 49
0.45
 74
0
 49
-0.05
 74
0
 49
0.1
 74
0
 49
-0.05
 74
0
 49
0.1
 74
0
 49
-0.05
 74
0
  0
LTYPE
  5
1F8
100
AcDbSymbolTableRecord
100
AcDbLinetypeTableRecord
  2
DOT
 70
64
  3
. . . . . . . . . . . . . . . . . . . .
 72
65
 73
2
 40
0.2
 49
0.1
 74
0
 49
-0.1
 74
0
  0
LTYPE
  5
1F9
100
AcDbSymbolTableRecord
100
AcDbLinetypeTableRecord
  2
DASHED
 70
64
  3
- - - - - - - - - - - - - - - - - - - -
 72
65
 73
2
 40
0.2
 49
0.1
 74
0
 49
-0.1
 74
0
  0
ENDTAB
  0
TABLE
  2
LAYER
  5
2
100
AcDbSymbolTable
 70
36
  0
LAYER
  5
10
100
AcDbSymbolTableRecord
100
AcDbLayerTableRecord
  2
0
 70
0
 62
7
  6
CONTINUOUS
370
-3
390
F
  0
LAYER
  5
1FA
100
AcDbSymbolTableRecord
100
AcDbLayerTableRecord
  2
DEFAULT_1
 70
0
 62
7
  6
CENTER
370
-3
390
F
  0
LAYER
  5
1FB
100
AcDbSymbolTableRecord
100
AcDbLayerTableRecord
  2
DEFAULT_2
 70
0
 62
7
  6
HIDDEN
370
-3
390
F
  0
LAYER
  5
1FC
100
AcDbSymbolTableRecord
100
AcDbLayerTableRecord
  2
DEFAULT_3
 70
0
 62
7
  6
PHANTOM
370
-3
390
F
  0
LAYER
  5
1FD
100
AcDbSymbolTableRecord
100
AcDbLayerTableRecord
  2
00_COMPONENTS
 70
0
 62
7
  6
CONTINUOUS
370
-3
390
F
  0
LAYER
  5
1FE
100
AcDbSymbolTableRecord
100
AcDbLayerTableRecord
  2
01_1_DEFAULT_DATUMS
 70
0
 62
7
  6
CONTINUOUS
370
-3
390
F
  0
LAYER
  5
1FF
100
AcDbSymbolTableRecord
100
AcDbLayerTableRecord
  2
01_PLANES
 70
0
 62
7
  6
CONTINUOUS
370
-3
390
F
  0
LAYER
  5
200
100
AcDbSymbolTableRecord
100
AcDbLayerTableRecord
  2
02_COORD_SYS
 70
0
 62
7
  6
CONTINUOUS
370
-3
390
F
  0
LAYER
  5
201
100
AcDbSymbolTableRecord
100
AcDbLayerTableRecord
  2
03_AXES
 70
0
 62
7
  6
CONTINUOUS
370
-3
390
F
  0
LAYER
  5
202
100
AcDbSymbolTableRecord
100
AcDbLayerTableRecord
  2
04_POINTS
 70
0
 62
7
  6
CONTINUOUS
370
-3
390
F
  0
LAYER
  5
203
100
AcDbSymbolTableRecord
100
AcDbLayerTableRecord
  2
05_CURVES
 70
0
 62
7
  6
CONTINUOUS
370
-3
390
F
  0
LAYER
  5
204
100
AcDbSymbolTableRecord
100
AcDbLayerTableRecord
  2
06_SURFS
 70
0
 62
7
  6
CONTINUOUS
370
-3
390
F
  0
LAYER
  5
205
100
AcDbSymbolTableRecord
100
AcDbLayerTableRecord
  2
07_COSMETICS
 70
0
 62
7
  6
CONTINUOUS
370
-3
390
F
  0
LAYER
  5
206
100
AcDbSymbolTableRecord
100
AcDbLayerTableRecord
  2
1
 70
0
 62
7
  6
CONTINUOUS
370
-3
390
F
  0
LAYER
  5
207
100
AcDbSymbolTableRecord
100
AcDbLayerTableRecord
  2
10_NOTES
 70
0
 62
7
  6
CONTINUOUS
370
-3
390
F
  0
LAYER
  5
208
100
AcDbSymbolTableRecord
100
AcDbLayerTableRecord
  2
11_NOTES_PUB
 70
0
 62
7
  6
CONTINUOUS
370
-3
390
F
  0
LAYER
  5
209
100
AcDbSymbolTableRecord
100
AcDbLayerTableRecord
  2
13_REF_GTOL
 70
0
 62
7
  6
CONTINUOUS
370
-3
390
F
  0
LAYER
  5
20A
100
AcDbSymbolTableRecord
100
AcDbLayerTableRecord
  2
16_MISC
 70
0
 62
7
  6
CONTINUOUS
370
-3
390
F
  0
LAYER
  5
20B
100
AcDbSymbolTableRecord
100
AcDbLayerTableRecord
  2
17_NO_PRINT
 70
0
 62
7
  6
CONTINUOUS
370
-3
390
F
  0
LAYER
  5
20C
100
AcDbSymbolTableRecord
100
AcDbLayerTableRecord
  2
18_DATUM_CAMS_JOINTS
 70
0
 62
7
  6
CONTINUOUS
370
-3
390
F
  0
LAYER
  5
20D
100
AcDbSymbolTableRecord
100
AcDbLayerTableRecord
  2
19_DATUM_FUNCTIONAL
 70
0
 62
7
  6
CONTINUOUS
370
-3
390
F
  0
LAYER
  5
20E
100
AcDbSymbolTableRecord
100
AcDbLayerTableRecord
  2
20_DATUM_KINEMATIC_SCHEME
 70
0
 62
7
  6
CONTINUOUS
370
-3
390
F
  0
ENDTAB
  0
TABLE
  2
STYLE
  5
3
100
AcDbSymbolTable
 70
1
  0
STYLE
  5
11
100
AcDbSymbolTableRecord
100
AcDbTextStyleTableRecord
  2
STANDARD
 70
0
 40
0.0
 41
1.0
 50
0.0
 71
0
 42
0.2
  3
ARIAL.TTF
  4

  0
STYLE
  5
20F
100
AcDbSymbolTableRecord
100
AcDbTextStyleTableRecord
  2
TEXTSTYLE_1
 70
0
 40
0.0
 41
0.8
 50
0.0
 71
0
 42
0.2
  3
gdt
  4

  0
ENDTAB
  0
TABLE
  2
VIEW
  5
6
100
AcDbSymbolTable
 70
0
  0
ENDTAB
  0
TABLE
  2
UCS
  5
7
100
AcDbSymbolTable
 70
0
  0
ENDTAB
  0
TABLE
  2
APPID
  5
9
100
AcDbSymbolTable
 70
1
  0
APPID
  5
210
100
AcDbSymbolTableRecord
100
AcDbRegAppTableRecord
  2
ACAD
 70
0
  0
ENDTAB
  0
TABLE
  2
BLOCK_RECORD
  5
1
100
AcDbSymbolTable
 70
0
  0
BLOCK_RECORD
  5
211
100
AcDbSymbolTableRecord
100
AcDbBlockTableRecord
  2
*Model_Space
  0
BLOCK_RECORD
  5
212
100
AcDbSymbolTableRecord
100
AcDbBlockTableRecord
  2
*Paper_Space
  0
BLOCK_RECORD
  5
213
100
AcDbSymbolTableRecord
100
AcDbBlockTableRecord
  2
_FILLED
  0
ENDTAB
  0
TABLE
  2
DIMSTYLE
  5
A
100
AcDbSymbolTable
 70
1
100
AcDbDimStyleTable
 71
0
  0
DIMSTYLE
105
214
100
AcDbSymbolTableRecord
100
AcDbDimStyleTableRecord
  2
STANDARD
 70
0
  3

  4

 40
1.0
 41
0.528775187
 42
1.0
 43
0.38
 44
1.0
 45
0.0
 46
0.0
 47
0.01
 48
0.01
140
0.7402852618
141
0.09
142
0.0
143
25.4
144
1.0
145
0.0
146
1.0
147
0.625
 71
1
 72
0
 73
0
 74
0
 75
0
 76
0
 77
1
 78
8
 79
2
170
0
171
1
172
0
173
0
174
0
175
0
176
0
177
0
178
0
270
2
179
2
271
2
272
2
273
2
274
2
275
0
280
0
281
0
282
0
283
1
284
8
285
0
286
0
287
3
288
0
340
11
278
46
341
213
342
213
343
213
344
213
  0
ENDTAB
  0
ENDSEC
  0
SECTION
  2
BLOCKS
  0
BLOCK
  5
20
100
AcDbEntity
  8
0
100
AcDbBlockBegin
  2
*Model_Space
 70
0
 10
0.0
 20
0.0
 30
0.0
  3
*Model_Space
  1

  0
ENDBLK
  5
21
100
AcDbEntity
  8
0
100
AcDbBlockEnd
  0
BLOCK
  5
1C
100
AcDbEntity
  8
0
100
AcDbBlockBegin
  2
*Paper_Space
 70
0
 10
0.0
 20
0.0
 30
0.0
  3
*Paper_Space
  1

  0
ENDBLK
  5
1D
100
AcDbEntity
  8
0
100
AcDbBlockEnd
  0
BLOCK
  5
215
100
AcDbEntity
  8
0
100
AcDbBlockBegin
  2
_FILLED
 70
64
 10
0.0
 20
0.0
  3
_FILLED
  1

  0
SOLID
  5
216
100
AcDbEntity
  8
0
  6
BYBLOCK
 62
0
100
AcDbTrace
 10
0.0
 20
0.0
 11
-1.0
 21
0.25
 12
-1.0
 22
-0.25
 13
-1.0
 23
-0.25
  0
ENDBLK
  5
217
100
AcDbEntity
  8
0
  6
BYBLOCK
 62
0
100
AcDbBlockEnd
  0
ENDSEC
  0
SECTION
  2
ENTITIES
  0
LWPOLYLINE
  5
218
100
AcDbEntity
  8
0
100
AcDbPolyline
 62
7
  6
BYLAYER
 90
3
 70
0
 10
9.3174954189
 20
39.5883000677
 10
7.6624600477
 20
38.3426486818
 10
7.4710687555
 20
37.9704524855
  0
LINE
  5
219
100
AcDbEntity
  8
0
100
AcDbLine
 62
7
  6
BYLAYER
 10
8.0827451043
 20
40.8537799679
 11
13.0100048803
 21
43.7265655431
  0
LINE
  5
21A
100
AcDbEntity
  8
0
100
AcDbLine
 62
7
  6
BYLAYER
 10
8.9479068192
 20
39.1818282389
 11
8.64154383
 21
39.0049505404
  0
LINE
  5
21B
100
AcDbEntity
  8
0
100
AcDbLine
 62
7
  6
BYLAYER
 10
18.9484236226
 20
17.0606957287
 11
20.9282629301
 21
17.3844970153
  0
LINE
  5
21C
100
AcDbEntity
  8
0
100
AcDbLine
 62
7
  6
BYLAYER
 10
23.9561027762
 20
45.7105696838
 11
20.0400548793
 21
43.4496518722
  0
LINE
  5
21D
100
AcDbEntity
  8
0
100
AcDbLine
 62
7
  6
BYLAYER
 10
28.9694330494
 20
46.9884216478
 11
27.1723565014
 21
45.9508852124
  0
LWPOLYLINE
  5
21E
100
AcDbEntity
  8
0
100
AcDbPolyline
 62
7
  6
BYLAYER
 90
4
 70
0
 10
14.9040310428
 20
38.8418070056
 10
13.863327751
 20
39.3569441771
 10
11.4410195569
 20
39.9356009044
 10
9.3174954189
 20
39.5883000677
  0
LINE
  5
21F
100
AcDbEntity
  8
0
100
AcDbLine
 62
7
  6
BYLAYER
 10
38.0693923098
 20
31.226735778
 11
36.3331068347
 21
30.2242968753
  0
LWPOLYLINE
  5
220
100
AcDbEntity
  8
0
100
AcDbPolyline
 62
7
  6
BYLAYER
 90
3
 70
0
 10
30.6380444716
 20
26.3602011545
 10
30.248710363
 20
23.4602599162
 10
29.8456103696
 20
22.6739092046
  0
LINE
  5
221
100
AcDbEntity
  8
0
100
AcDbLine
 62
7
  6
BYLAYER
 10
30.8148045335
 20
28.6667714456
 11
30.5706424469
 21
26.9387650296
  0
LINE
  5
222
100
AcDbEntity
  8
0
100
AcDbLine
 62
7
  6
BYLAYER
 10
34.456055769
 20
27.5240090648
 11
30.4866122229
 21
25.2322634448
  0
LWPOLYLINE
  5
223
100
AcDbEntity
  8
0
100
AcDbPolyline
 62
7
  6
BYLAYER
 90
4
 70
0
 10
20.9282629301
 20
17.3844970153
 10
22.5832983013
 20
18.6301484012
 10
23.6354567028
 20
20.6762673776
 10
23.9647216946
 20
23.1223910171
  0
LWPOLYLINE
  5
224
100
AcDbEntity
  8
0
100
AcDbPolyline
 62
7
  6
BYLAYER
 90
8
 70
0
 10
21.441557959
 20
42.6408776429
 10
22.5465658626
 20
42.2946359831
 10
23.6954952353
 20
41.6320006429
 10
25.9289613623
 20
39.7556629783
 10
27.9126723659
 20
37.2908079348
 10
29.4729394422
 20
34.4530498376
 10
30.4708586462
 20
31.4912365279
 10
30.8148045335
 20
28.6667714456
  0
LINE
  5
225
100
AcDbEntity
  8
0
100
AcDbLine
 62
7
  6
BYLAYER
 10
21.2978515297
 20
17.7909688441
 11
20.9914885406
 21
17.6140911456
  0
LINE
  5
226
100
AcDbEntity
  8
0
100
AcDbLine
 62
7
  6
BYLAYER
 10
22.3132151488
 20
16.2057357072
 11
27.2647649578
 21
19.0364494599
  0
ARC
  5
227
100
AcDbEntity
  8
0
100
AcDbCircle
 62
7
  6
BYLAYER
 10
11.5768205532
 20
23.1160981508
 40
12.4202875888
100
AcDbArc
 50
0.0089191547
 51
1.4824335132
  0
SPLINE
  5
228
100
AcDbEntity
  8
0
100
AcDbSpline
 62
7
  6
BYLAYER
 70
0
 71
3
 72
31
 73
27
 74
0
 42
0.0000001
 43
0.0000001
 44
0.0000000001
 40
0.0
 40
0.0
 40
0.0
 40
0.0
 40
0.0623697433
 40
0.0950883586
 40
0.1287163434
 40
0.1982933921
 40
0.2702537894
 40
0.3436144361
 40
0.4173294225
 40
0.4903373272
 40
0.5616078234
 40
0.6301897116
 40
0.6632210435
 40
0.6952870771
 40
0.7263156545
 40
0.7562508056
 40
0.7850552247
 40
0.8127130446
 40
0.8392327605
 40
0.8646502901
 40
0.889031845
 40
0.91247626
 40
0.9351160923
 40
0.957116708
 40
0.9786725334
 40
1.0
 40
1.0
 40
1.0
 40
1.0
 10
6.0837110797
 20
33.3512941614
 30
0.0
 10
6.0837110807
 20
32.8389359913
 30
0.0
 10
6.1349917092
 20
32.057071553
 30
0.0
 10
6.2901388615
 20
31.0108569008
 30
0.0
 10
6.5117235376
 20
29.9159705834
 30
0.0
 10
6.9031285186
 20
28.5287909435
 30
0.0
 10
7.5362766347
 20
26.8784842058
 30
0.0
 10
8.3247937584
 20
25.2586511192
 30
0.0
 10
9.2518102469
 20
23.7039495889
 30
0.0
 10
10.2975920141
 20
22.24748124
 30
0.0
 10
11.4397568358
 20
20.9204102218
 30
0.0
 10
12.4645098117
 20
19.9334504291
 30
0.0
 10
13.3127462866
 20
19.2352901672
 30
0.0
 10
13.9492126008
 20
18.7671575598
 30
0.0
 10
14.5904256302
 20
18.3505265325
 30
0.0
 10
15.2329775032
 20
17.9876410639
 30
0.0
 10
15.873439702
 20
17.6804711428
 30
0.0
 10
16.5084111208
 20
17.4306978678
 30
0.0
 10
17.1345263798
 20
17.2397137457
 30
0.0
 10
17.7484696303
 20
17.1086238219
 30
0.0
 10
18.3469780107
 20
17.0382461981
 30
0.0
 10
18.9268425616
 20
17.0291125157
 30
0.0
 10
19.4848870474
 20
17.0814473348
 30
0.0
 10
20.0180064864
 20
17.1951652265
 30
0.0
 10
20.5230179004
 20
17.3697319638
 30
0.0
 10
20.8397584474
 20
17.5264914405
 30
0.0
 10
20.991488035
 20
17.6140920214
 30
0.0
  0
SPLINE
  5
229
100
AcDbEntity
  8
0
100
AcDbSpline
 62
7
  6
BYLAYER
 70
0
 71
3
 72
28
 73
24
 74
0
 42
0.0000001
 43
0.0000001
 44
0.0000000001
 40
0.0
 40
0.0
 40
0.0
 40
0.0
 40
0.0213296708
 40
0.0428875574
 40
0.064890457
 40
0.0875323794
 40
0.1109791554
 40
0.1353629545
 40
0.1607828499
 40
0.1873050291
 40
0.2437350817
 40
0.304674447
 40
0.3697528845
 40
0.4383402387
 40
0.5096164101
 40
0.5826302333
 40
0.656351633
 40
0.729718139
 40
0.8016839469
 40
0.8712660955
 40
0.9375980611
 40
0.9693380449
 40
1.0
 40
1.0
 40
1.0
 40
1.0
 10
28.969435122
 20
46.9884180578
 30
0.0
 10
29.0812375172
 20
47.0529670763
 30
0.0
 10
29.3146399772
 20
47.1684491524
 30
0.0
 10
29.6867463181
 20
47.2971142713
 30
0.0
 10
30.0795835736
 20
47.3808705041
 30
0.0
 10
30.4907752944
 20
47.4194598877
 30
0.0
 10
30.9180484333
 20
47.4127048403
 30
0.0
 10
31.3590554443
 20
47.3608590181
 30
0.0
 10
31.8114475882
 20
47.2642560201
 30
0.0
 10
32.4394709832
 20
47.0726644509
 30
0.0
 10
33.2391906288
 20
46.7192211965
 30
0.0
 10
34.1833916891
 20
46.1415334048
 30
0.0
 10
35.1126794354
 20
45.4140200947
 30
0.0
 10
36.0075227914
 20
44.5522001849
 30
0.0
 10
36.849160081
 20
43.5743095886
 30
0.0
 10
37.6197190463
 20
42.5011451508
 30
0.0
 10
38.3027844189
 20
41.3555703989
 30
0.0
 10
38.8837905303
 20
40.1620425419
 30
0.0
 10
39.3503387751
 20
38.9459620037
 30
0.0
 10
39.6924843599
 20
37.7333134375
 30
0.0
 10
39.87051648
 20
36.7321985839
 30
0.0
 10
39.9418367777
 20
35.9559503425
 30
0.0
 10
39.9541111785
 20
35.5781698928
 30
0.0
 10
39.9541111785
 20
35.3925878468
 30
0.0
  0
SPLINE
  5
22A
100
AcDbEntity
  8
0
100
AcDbSpline
 62
7
  6
BYLAYER
 70
0
 71
3
 72
17
 73
13
 74
0
 42
0.0000001
 43
0.0000001
 44
0.0000000001
 40
0.0
 40
0.0
 40
0.0
 40
0.0
 40
0.1485037325
 40
0.2893746405
 40
0.4225652106
 40
0.5484825094
 40
0.6678529308
 40
0.7818010482
 40
0.8372459698
 40
0.8919337093
 40
0.9461015812
 40
1.0
 40
1.0
 40
1.0
 40
1.0
 10
5.1528964534
 20
34.3493602396
 30
0.0
 10
5.1528964534
 20
34.7188400248
 30
0.0
 10
5.1826041196
 20
35.4393011183
 30
0.0
 10
5.3239568709
 20
36.4827644746
 30
0.0
 10
5.5601040208
 20
37.4515821967
 30
0.0
 10
5.8891998134
 20
38.3364480219
 30
0.0
 10
6.3086453984
 20
39.1287972094
 30
0.0
 10
6.7349439339
 20
39.7108954561
 30
0.0
 10
7.1159677608
 20
40.1186005519
 30
0.0
 10
7.4187232205
 20
40.3939844183
 30
0.0
 10
7.7402580138
 20
40.6408689858
 30
0.0
 10
7.9669047278
 20
40.7862235077
 30
0.0
 10
8.0827527136
 20
40.8537668313
 30
0.0
  0
SPLINE
  5
22B
100
AcDbEntity
  8
0
100
AcDbSpline
 62
7
  6
BYLAYER
 70
0
 71
3
 72
17
 73
13
 74
0
 42
0.0000001
 43
0.0000001
 44
0.0000000001
 40
0.0
 40
0.0
 40
0.0
 40
0.0
 40
0.1486094684
 40
0.2895299299
 40
0.4227182698
 40
0.5485919621
 40
0.6678949065
 40
0.7817791682
 40
0.8372047667
 40
0.8918868328
 40
0.9460670106
 40
1.0
 40
1.0
 40
1.0
 40
1.0
 10
30.234785324
 20
25.5722773216
 30
0.0
 10
30.234785324
 20
25.1999028179
 30
0.0
 10
30.2046686904
 20
24.473917366
 30
0.0
 10
30.0613123462
 20
23.4227505075
 30
0.0
 10
29.8218188654
 20
22.4474013024
 30
0.0
 10
29.4880795489
 20
21.5573550377
 30
0.0
 10
29.0627515277
 20
20.7613464812
 30
0.0
 10
28.6305535437
 20
20.1776155925
 30
0.0
 10
28.2443893712
 20
19.7695861273
 30
0.0
 10
27.9375694069
 20
19.494391631
 30
0.0
 10
27.6117616104
 20
19.2481728071
 30
0.0
 10
27.3821975378
 20
19.1036072968
 30
0.0
 10
27.2648750591
 20
19.0365357308
 30
0.0
  0
SPLINE
  5
22C
100
AcDbEntity
  8
0
100
AcDbSpline
 62
7
  6
BYLAYER
 70
0
 71
3
 72
33
 73
29
 74
0
 42
0.0000001
 43
0.0000001
 44
0.0000000001
 40
0.0
 40
0.0
 40
0.0
 40
0.0
 40
0.0213265047
 40
0.0428812578
 40
0.0648808503
 40
0.087519488
 40
0.1109627972
 40
0.1353430261
 40
0.1607593984
 40
0.1872776792
 40
0.2149342954
 40
0.2437371664
 40
0.2736710363
 40
0.3046979417
 40
0.3367625867
 40
0.3697921293
 40
0.4383706261
 40
0.5096375536
 40
0.5826418061
 40
0.6563531992
 40
0.7297103144
 40
0.8016673113
 40
0.8368200019
 40
0.8712611909
 40
0.9048853684
 40
0.9376056835
 40
0.9693406039
 40
1.0
 40
1.0
 40
1.0
 40
1.0
 10
23.9561084906
 20
45.7105597569
 30
0.0
 10
24.0851129806
 20
45.7850321328
 30
0.0
 10
24.3544019714
 20
45.9183164443
 30
0.0
 10
24.7837650999
 20
46.0667320014
 30
0.0
 10
25.2370234297
 20
46.1634111071
 30
0.0
 10
25.7114728211
 20
46.2079117612
 30
0.0
 10
26.2044724377
 20
46.2001389495
 30
0.0
 10
26.7133254798
 20
46.1403123503
 30
0.0
 10
27.2352970608
 20
46.0288507102
 30
0.0
 10
27.7676243381
 20
45.8664862537
 30
0.0
 10
28.3074723861
 20
45.6541187397
 30
0.0
 10
28.8520003749
 20
45.3929738517
 30
0.0
 10
29.3982913324
 20
45.0844376721
 30
0.0
 10
29.9434598267
 20
44.7302290102
 30
0.0
 10
30.48457529
 20
44.3322124614
 30
0.0
 10
31.2057557903
 20
43.7386486415
 30
0.0
 10
32.0769958692
 20
42.8995318365
 30
0.0
 10
33.0480676165
 20
41.7712584398
 30
0.0
 10
33.9371898831
 20
40.5329752548
 30
0.0
 10
34.7253519459
 20
39.211149476
 30
0.0
 10
35.3957148392
 20
37.8340380767
 30
0.0
 10
35.847910687
 20
36.6554791532
 30
0.0
 10
36.1374401297
 20
35.7098235391
 30
0.0
 10
36.3155339539
 20
35.0109243555
 30
0.0
 10
36.4552084053
 20
34.320664048
 30
0.0
 10
36.5557742404
 20
33.6426958136
 30
0.0
 10
36.6165704462
 20
32.9808026111
 30
0.0
 10
36.6307313866
 20
32.5449054277
 30
0.0
 10
36.6307313866
 20
32.3307614518
 30
0.0
  0
SPLINE
  5
22D
100
AcDbEntity
  8
0
100
AcDbSpline
 62
7
  6
BYLAYER
 70
0
 71
3
 72
25
 73
21
 74
0
 42
0.0000001
 43
0.0000001
 44
0.0000000001
 40
0.0
 40
0.0
 40
0.0
 40
0.0
 40
0.0225684066
 40
0.0459247369
 40
0.0952259287
 40
0.1482713438
 40
0.2051026407
 40
0.2655305054
 40
0.3291827391
 40
0.3955456347
 40
0.4639993344
 40
0.5338486271
 40
0.6043506452
 40
0.6747411309
 40
0.7442588495
 40
0.8121732641
 40
0.8778057086
 40
0.940569771
 40
0.9707353736
 40
1.0
 40
1.0
 40
1.0
 40
1.0
 10
16.6579753155
 20
44.2936423362
 30
0.0
 10
16.8428148273
 20
44.2964139472
 30
0.0
 10
17.2194146141
 20
44.2842259359
 30
0.0
 10
17.9946231048
 20
44.1910230761
 30
0.0
 10
18.9982064473
 20
43.9418002469
 30
0.0
 10
20.2107266719
 20
43.453105303
 30
0.0
 10
21.4349685292
 20
42.7781115058
 30
0.0
 10
22.6516756315
 20
41.9279336213
 30
0.0
 10
23.8418435331
 20
40.9162488031
 30
0.0
 10
24.9865432521
 20
39.7592888643
 30
0.0
 10
26.0674676577
 20
38.4756377932
 30
0.0
 10
27.0672403503
 20
37.0859560543
 30
0.0
 10
27.9697552245
 20
35.6126446576
 30
0.0
 10
28.7604484634
 20
34.0794656976
 30
0.0
 10
29.4265820097
 20
32.5111559136
 30
0.0
 10
29.9573940112
 20
30.9329425196
 30
0.0
 10
30.3443528334
 20
29.3702969006
 30
0.0
 10
30.54437055
 20
28.0848604182
 30
0.0
 10
30.6243470202
 20
27.08680325
 30
0.0
 10
30.6380444716
 20
26.5999109141
 30
0.0
 10
30.6380444716
 20
26.3602011545
 30
0.0
  0
SPLINE
  5
22E
100
AcDbEntity
  8
0
100
AcDbSpline
 62
7
  6
BYLAYER
 70
0
 71
3
 72
17
 73
13
 74
0
 42
0.0000001
 43
0.0000001
 44
0.0000000001
 40
0.0
 40
0.0
 40
0.0
 40
0.0
 40
0.1485513902
 40
0.2894537986
 40
0.4226439596
 40
0.5485373183
 40
0.6678752154
 40
0.7817911251
 40
0.8372259606
 40
0.8919103983
 40
0.9460845496
 40
1.0
 40
1.0
 40
1.0
 40
1.0
 10
36.6307313866
 20
32.3307614518
 30
0.0
 10
36.6307313866
 20
32.0573176904
 30
0.0
 10
36.6086720493
 20
31.5241435891
 30
0.0
 10
36.503737972
 20
30.75204072
 30
0.0
 10
36.3284170366
 20
30.0353918172
 30
0.0
 10
36.0840733982
 20
29.3811513943
 30
0.0
 10
35.7727066552
 20
28.7956571462
 30
0.0
 10
35.45625241
 20
28.3659229772
 30
0.0
 10
35.1734707297
 20
28.0652257556
 30
0.0
 10
34.9487621813
 20
27.8622929928
 30
0.0
 10
34.7101615305
 20
27.6805108237
 30
0.0
 10
34.5420003582
 20
27.5736368253
 30
0.0
 10
34.4560500546
 20
27.5240189917
 30
0.0
  0
SPLINE
  5
22F
100
AcDbEntity
  8
0
100
AcDbSpline
 62
7
  6
BYLAYER
 70
0
 71
3
 72
33
 73
29
 74
0
 42
0.0000001
 43
0.0000001
 44
0.0000000001
 40
0.0
 40
0.0
 40
0.0
 40
0.0
 40
0.0213232239
 40
0.0428818282
 40
0.0648908624
 40
0.0875439128
 40
0.1110044365
 40
0.1354043532
 40
0.1608406286
 40
0.18737919
 40
0.2150544277
 40
0.2438748456
 40
0.2738234745
 40
0.3048631893
 40
0.3369373254
 40
0.3699739858
 40
0.4385575263
 40
0.5098184066
 40
0.5828069549
 40
0.6564949939
 40
0.7298237155
 40
0.8017497968
 40
0.8368867735
 40
0.8713131081
 40
0.9049228245
 40
0.9376282978
 40
0.9693500992
 40
1.0
 40
1.0
 40
1.0
 40
1.0
 10
22.3132075724
 20
16.205748873
 30
0.0
 10
22.1380967303
 20
16.1056403041
 30
0.0
 10
21.7726387767
 20
15.9266462014
 30
0.0
 10
21.1902487035
 20
15.7279668828
 30
0.0
 10
20.5756681611
 20
15.5991976409
 30
0.0
 10
19.9325238072
 20
15.5410977779
 30
0.0
 10
19.2643953031
 20
15.5536016431
 30
0.0
 10
18.5749369831
 20
15.63658198
 30
0.0
 10
17.8678186373
 20
15.7892930235
 30
0.0
 10
17.1468169847
 20
16.0108968743
 30
0.0
 10
16.4157101412
 20
16.3000219855
 30
0.0
 10
15.678399843
 20
16.6551388079
 30
0.0
 10
14.9387597012
 20
17.0742456402
 30
0.0
 10
14.2007598529
 20
17.5551213213
 30
0.0
 10
13.4682877426
 20
18.0951450882
 30
0.0
 10
12.4922507773
 20
18.900172372
 30
0.0
 10
11.3132380308
 20
20.03764988
 30
0.0
 10
9.9992725919
 20
21.5665091004
 30
0.0
 10
8.7963374382
 20
23.2439035157
 30
0.0
 10
7.7301038634
 20
25.0340581323
 30
0.0
 10
6.8233071521
 20
26.8987811547
 30
0.0
 10
6.2116647424
 20
28.4944733704
 30
0.0
 10
5.8200537763
 20
29.7747507551
 30
0.0
 10
5.5791927857
 20
30.7209371113
 30
0.0
 10
5.390281577
 20
31.6554023755
 30
0.0
 10
5.2542722745
 20
32.5732172933
 30
0.0
 10
5.172040578
 20
33.4692929516
 30
0.0
 10
5.1528964534
 20
34.0594282014
 30
0.0
 10
5.1528964534
 20
34.3493602396
 30
0.0
  0
SPLINE
  5
230
100
AcDbEntity
  8
0
100
AcDbSpline
 62
7
  6
BYLAYER
 70
0
 71
3
 72
34
 73
30
 74
0
 42
0.0000001
 43
0.0000001
 44
0.0000000001
 40
0.0
 40
0.0
 40
0.0
 40
0.0
 40
0.0213294888
 40
0.0428804419
 40
0.0648700766
 40
0.0874945095
 40
0.1109198764
 40
0.1352807143
 40
0.1606762687
 40
0.18717453
 40
0.2148114469
 40
0.2435969134
 40
0.273514861
 40
0.304528978
 40
0.3365829897
 40
0.369605347
 40
0.4381775706
 40
0.5094493071
 40
0.5824680506
 40
0.6562014464
 40
0.7295857611
 40
0.7658258619
 40
0.8015899706
 40
0.8367573159
 40
0.8712133323
 40
0.9048513555
 40
0.9375832283
 40
0.9693290109
 40
1.0
 40
1.0
 40
1.0
 40
1.0
 10
13.0101346175
 20
43.7266177985
 30
0.0
 10
13.184987235
 20
43.8285626022
 30
0.0
 10
13.5500670404
 20
44.0111947107
 30
0.0
 10
14.1325127295
 20
44.215079083
 30
0.0
 10
14.7475557896
 20
44.3486922732
 30
0.0
 10
15.3915482266
 20
44.4112313349
 30
0.0
 10
16.0608819743
 20
44.4027498179
 30
0.0
 10
16.7518766954
 20
44.3233438927
 30
0.0
 10
17.4608377961
 20
44.1737608231
 30
0.0
 10
18.1839587626
 20
43.9548134017
 30
0.0
 10
18.9174391201
 20
43.6678825804
 30
0.0
 10
19.6573424577
 20
43.3144792777
 30
0.0
 10
20.3997732309
 20
42.896619893
 30
0.0
 10
21.1407226115
 20
42.4165154367
 30
0.0
 10
21.8762803531
 20
41.8768057117
 30
0.0
 10
22.8567007652
 20
41.0715123759
 30
0.0
 10
24.0413010546
 20
39.9325698988
 30
0.0
 10
25.3617515304
 20
38.4005334729
 30
0.0
 10
26.5709341898
 20
36.71856678
 30
0.0
 10
27.6428604946
 20
34.9228170378
 30
0.0
 10
28.4060813888
 20
33.356607074
 30
0.0
 10
28.9281029679
 20
32.0791487733
 30
0.0
 10
29.2705948216
 20
31.1211924059
 30
0.0
 10
29.5637140949
 20
30.164688236
 30
0.0
 10
29.8059798879
 20
29.2148340818
 30
0.0
 10
29.9959977589
 20
28.2767081354
 30
0.0
 10
30.1328082985
 20
27.3553029599
 30
0.0
 10
30.21552597
 20
26.4557436541
 30
0.0
 10
30.234785324
 20
25.8633222757
 30
0.0
 10
30.234785324
 20
25.5722773216
 30
0.0
  0
SPLINE
  5
231
100
AcDbEntity
  8
0
100
AcDbSpline
 62
7
  6
BYLAYER
 70
0
 71
3
 72
15
 73
11
 74
0
 42
0.0000001
 43
0.0000001
 44
0.0000000001
 40
0.0
 40
0.0
 40
0.0
 40
0.0
 40
0.1485721446
 40
0.2895074798
 40
0.4227237966
 40
0.5486379753
 40
0.6679994923
 40
0.7819361314
 40
0.8919849191
 40
1.0
 40
1.0
 40
1.0
 40
1.0
 10
39.9541111785
 20
35.3925878468
 30
0.0
 10
39.9541111785
 20
35.1556148018
 30
0.0
 10
39.9349850064
 20
34.6935322891
 30
0.0
 10
39.8440564466
 20
34.0243757995
 30
0.0
 10
39.6921075361
 20
33.4032682866
 30
0.0
 10
39.4803418799
 20
32.8362784427
 30
0.0
 10
39.210471327
 20
32.3288042986
 30
0.0
 10
38.884479372
 20
31.8860781038
 30
0.0
 10
38.5054395823
 20
31.5130678551
 30
0.0
 10
38.2185929752
 20
31.3128814428
 30
0.0
 10
38.0693902372
 20
31.226739368
 30
0.0
  0
SPLINE
  5
232
100
AcDbEntity
  8
0
100
AcDbSpline
 62
7
  6
BYLAYER
 70
0
 71
3
 72
17
 73
13
 74
0
 42
0.0000001
 43
0.0000001
 44
0.0000000001
 40
0.0
 40
0.0
 40
0.0
 40
0.0
 40
0.0539153973
 40
0.1080891734
 40
0.1627735666
 40
0.2182089974
 40
0.3321254894
 40
0.4514612287
 40
0.5773573867
 40
0.7105554687
 40
0.8514216274
 40
1.0
 40
1.0
 40
1.0
 40
1.0
 10
8.6415443356
 20
39.0049496647
 30
0.0
 10
8.5404530497
 20
38.9465849416
 30
0.0
 10
8.3426690655
 20
38.82087461
 30
0.0
 10
8.0620129571
 20
38.6070861969
 30
0.0
 10
7.7977203302
 20
38.3683877004
 30
0.0
 10
7.4651244053
 20
38.0146982383
 30
0.0
 10
7.0929076006
 20
37.5092570646
 30
0.0
 10
6.7266598787
 20
36.820609558
 30
0.0
 10
6.4392876005
 20
36.0510670778
 30
0.0
 10
6.2331035301
 20
35.2082036262
 30
0.0
 10
6.1096142003
 20
34.3000735039
 30
0.0
 10
6.0837110797
 20
33.6729750136
 30
0.0
 10
6.0837110797
 20
33.3512941614
 30
0.0
  0
SPLINE
  5
233
100
AcDbEntity
  8
0
100
AcDbSpline
 62
7
  6
BYLAYER
 70
0
 71
3
 72
23
 73
19
 74
0
 42
0.0000001
 43
0.0000001
 44
0.0000000001
 40
0.0
 40
0.0
 40
0.0
 40
0.0
 40
0.0556816102
 40
0.113815309
 40
0.1741730392
 40
0.2364733224
 40
0.3003904104
 40
0.3655656836
 40
0.4316156197
 40
0.4981393313
 40
0.5647277213
 40
0.6309701095
 40
0.6964619317
 40
0.7608144599
 40
0.82365951
 40
0.8846562229
 40
0.9435207577
 40
1.0
 40
1.0
 40
1.0
 40
1.0
 10
14.9109807012
 20
38.8558470184
 30
0.0
 10
15.2094152805
 20
38.6835407922
 30
0.0
 10
15.80464571
 20
38.3052398754
 30
0.0
 10
16.6686904802
 20
37.6592749933
 30
0.0
 10
17.5164906169
 20
36.9277728438
 30
0.0
 10
18.3401892307
 20
36.1174694894
 30
0.0
 10
19.1322920863
 20
35.2358169991
 30
0.0
 10
19.8855260006
 20
34.2909235148
 30
0.0
 10
20.5929375857
 20
33.2914543573
 30
0.0
 10
21.2480410003
 20
32.2466253611
 30
0.0
 10
21.8448156663
 20
31.1660588281
 30
0.0
 10
22.3777321753
 20
30.0596847953
 30
0.0
 10
22.8419126624
 20
28.9376969829
 30
0.0
 10
23.2330954013
 20
27.8104126107
 30
0.0
 10
23.5476324142
 20
26.6882054242
 30
0.0
 10
23.7827021174
 20
25.5813108291
 30
0.0
 10
23.9360721937
 20
24.4999319568
 30
0.0
 10
23.9839260135
 20
23.7868416243
 30
0.0
 10
23.9929511172
 20
23.437416693
 30
0.0
  0
SPLINE
  5
234
100
AcDbEntity
  8
0
100
AcDbSpline
 62
7
  6
BYLAYER
 70
0
 71
3
 72
20
 73
16
 74
0
 42
0.0000001
 43
0.0000001
 44
0.0000000001
 40
0.0
 40
0.0
 40
0.0
 40
0.0
 40
0.055830617
 40
0.1141953619
 40
0.1747980282
 40
0.2373674586
 40
0.3669639504
 40
0.4999389832
 40
0.6329171273
 40
0.6983775246
 40
0.7625924217
 40
0.825174428
 40
0.8857941977
 40
0.9441685601
 40
1.0
 40
1.0
 40
1.0
 40
1.0
 10
14.550313461
 20
34.3440465384
 30
0.0
 10
14.7298099906
 20
34.2404165132
 30
0.0
 10
15.0878268347
 20
34.0123448687
 30
0.0
 10
15.6071412029
 20
33.6223354353
 30
0.0
 10
16.1163620621
 20
33.1800391021
 30
0.0
 10
16.782858796
 20
32.5187041737
 30
0.0
 10
17.5576400702
 20
31.5889372128
 30
0.0
 10
18.3635313856
 20
30.3579368563
 30
0.0
 10
18.91946372
 20
29.2570809382
 30
0.0
 10
19.2817376361
 20
28.3513061448
 30
0.0
 10
19.5067865984
 20
27.673497988
 30
0.0
 10
19.6844402354
 20
27.0003157461
 30
0.0
 10
19.8130012555
 20
26.3380589361
 30
0.0
 10
19.8910112302
 20
25.6931924522
 30
0.0
 10
19.9094505865
 20
25.269066902
 30
0.0
 10
19.9094505865
 20
25.0618002801
 30
0.0
  0
SPLINE
  5
235
100
AcDbEntity
  8
0
100
AcDbSpline
 62
7
  6
BYLAYER
 70
0
 71
3
 72
24
 73
20
 74
0
 42
0.0000001
 43
0.0000001
 44
0.0000000001
 40
0.0
 40
0.0
 40
0.0
 40
0.0
 40
0.0742894654
 40
0.1447600011
 40
0.211360449
 40
0.2432875402
 40
0.2743436216
 40
0.3340202927
 40
0.3909804584
 40
0.4460017225
 40
0.500008408
 40
0.5540116874
 40
0.6090313249
 40
0.665995039
 40
0.7256781466
 40
0.7886396772
 40
0.8552511189
 40
0.9257194838
 40
1.0
 40
1.0
 40
1.0
 40
1.0
 10
9.1911763354
 20
31.2498588379
 30
0.0
 10
9.1911763362
 20
31.4472326184
 30
0.0
 10
9.2070907507
 20
31.8321058828
 30
0.0
 10
9.2827713873
 20
32.3893862705
 30
0.0
 10
9.3897818818
 20
32.8265114793
 30
0.0
 10
9.5012172487
 20
33.1524708036
 30
0.0
 10
9.625653639
 20
33.4538446382
 30
0.0
 10
9.8104884363
 20
33.8014939868
 30
0.0
 10
10.0819054299
 20
34.17017489
 30
0.0
 10
10.3976587027
 20
34.4808725461
 30
0.0
 10
10.7545630246
 20
34.7299915241
 30
0.0
 10
11.1487789905
 20
34.914464455
 30
0.0
 10
11.5756982567
 20
35.0326002805
 30
0.0
 10
12.0307221564
 20
35.08349525
 30
0.0
 10
12.5091515617
 20
35.066781974
 30
0.0
 10
13.0063044515
 20
34.9833393986
 30
0.0
 10
13.5175796565
 20
34.8342511268
 30
0.0
 10
14.0381192391
 20
34.6212706111
 30
0.0
 10
14.3794023774
 20
34.4427198663
 30
0.0
 10
14.550313461
 20
34.3440465384
 30
0.0
  0
SPLINE
  5
236
100
AcDbEntity
  8
0
100
AcDbSpline
 62
7
  6
BYLAYER
 70
0
 71
3
 72
17
 73
13
 74
0
 42
0.0000001
 43
0.0000001
 44
0.0000000001
 40
0.0
 40
0.0
 40
0.0
 40
0.0
 40
0.1485514333
 40
0.2894540267
 40
0.4226441168
 40
0.5485372331
 40
0.6678749698
 40
0.7817908924
 40
0.8372257842
 40
0.891910293
 40
0.9460845117
 40
1.0
 40
1.0
 40
1.0
 40
1.0
 10
23.85568428
 20
23.4446252232
 30
0.0
 10
23.85568428
 20
23.1230031841
 30
0.0
 10
23.8297380397
 20
22.4958884105
 30
0.0
 10
23.7063157494
 20
21.5877480052
 30
0.0
 10
23.5001047371
 20
20.7448327291
 30
0.0
 10
23.2127105359
 20
19.975322317
 30
0.0
 10
22.846484363
 20
19.2866703016
 30
0.0
 10
22.4742741989
 20
18.7812211006
 30
0.0
 10
22.1416689613
 20
18.4275435821
 30
0.0
 10
21.8773685134
 20
18.1888558055
 30
0.0
 10
21.5967284605
 20
17.9750450571
 30
0.0
 10
21.3989388179
 20
17.8493405613
 30
0.0
 10
21.2978448128
 20
17.7909805084
 30
0.0
  0
SPLINE
  5
237
100
AcDbEntity
  8
0
100
AcDbSpline
 62
7
  6
BYLAYER
 70
0
 71
3
 72
31
 73
27
 74
0
 42
0.0000001
 43
0.0000001
 44
0.0000000001
 40
0.0
 40
0.0
 40
0.0
 40
0.0
 40
0.0623697433
 40
0.0950883586
 40
0.1287163434
 40
0.1982933921
 40
0.2702537894
 40
0.3436144361
 40
0.4173294225
 40
0.4903373272
 40
0.5616078234
 40
0.6301897116
 40
0.6632210435
 40
0.6952870771
 40
0.7263156545
 40
0.7562508056
 40
0.7850552247
 40
0.8127130446
 40
0.8392327605
 40
0.8646502901
 40
0.889031845
 40
0.91247626
 40
0.9351160923
 40
0.957116708
 40
0.9786725334
 40
1.0
 40
1.0
 40
1.0
 40
1.0
 10
23.5493212909
 20
23.2677475247
 30
0.0
 10
23.5493212909
 20
23.7801056948
 30
0.0
 10
23.4980406611
 20
24.5619701331
 30
0.0
 10
23.3428935091
 20
25.6081847852
 30
0.0
 10
23.1213088329
 20
26.7030711027
 30
0.0
 10
22.729903852
 20
28.0902507426
 30
0.0
 10
22.0967557359
 20
29.7405574803
 30
0.0
 10
21.3082386122
 20
31.3603905669
 30
0.0
 10
20.3812221237
 20
32.9150920972
 30
0.0
 10
19.3354403565
 20
34.3715604461
 30
0.0
 10
18.1932755348
 20
35.6986314643
 30
0.0
 10
17.1685225589
 20
36.685591257
 30
0.0
 10
16.320286084
 20
37.3837515189
 30
0.0
 10
15.6838197698
 20
37.8518841263
 30
0.0
 10
15.0426067404
 20
38.2685151536
 30
0.0
 10
14.4000548674
 20
38.6314006222
 30
0.0
 10
13.7595926686
 20
38.9385705432
 30
0.0
 10
13.1246212498
 20
39.1883438183
 30
0.0
 10
12.4985059908
 20
39.3793279404
 30
0.0
 10
11.8845627403
 20
39.5104178642
 30
0.0
 10
11.2860543599
 20
39.580795488
 30
0.0
 10
10.706189809
 20
39.5899291704
 30
0.0
 10
10.1481453232
 20
39.5375943513
 30
0.0
 10
9.6150258841
 20
39.4238764596
 30
0.0
 10
9.1100144702
 20
39.2493097223
 30
0.0
 10
8.7932739232
 20
39.0925502456
 30
0.0
 10
8.6415443356
 20
39.0049496647
 30
0.0
  0
SPLINE
  5
238
100
AcDbEntity
  8
0
100
AcDbSpline
 62
7
  6
BYLAYER
 70
0
 71
3
 72
45
 73
41
 74
0
 42
0.0000001
 43
0.0000001
 44
0.0000000001
 40
0.0
 40
0.0
 40
0.0
 40
0.0
 40
0.0309834749
 40
0.0603691653
 40
0.0881476406
 40
0.1014645879
 40
0.1144175964
 40
0.1393069528
 40
0.1630657697
 40
0.1746275281
 40
0.186032766
 40
0.197331436
 40
0.2085762147
 40
0.2198209799
 40
0.2311196084
 40
0.2425247859
 40
0.2540864905
 40
0.2778452519
 40
0.3027340653
 40
0.3156867282
 40
0.329003846
 40
0.3567839291
 40
0.3861634273
 40
0.4171507981
 40
0.4496961761
 40
0.4836999648
 40
0.5190225644
 40
0.5554915968
 40
0.5929077128
 40
0.6310514642
 40
0.6696886151
 40
0.708574768
 40
0.7474609704
 40
0.7860981926
 40
0.8242419152
 40
0.8616585251
 40
0.8981276644
 40
0.9334485751
 40
0.9674585317
 40
1.0
 40
1.0
 40
1.0
 40
1.0
 10
23.9971079915
 20
23.1180315997
 30
0.0
 10
23.9971079915
 20
22.7833799118
 30
0.0
 10
23.9701180582
 20
22.1308699467
 30
0.0
 10
23.8417043442
 20
21.1860424449
 30
0.0
 10
23.6603841323
 20
20.4448801815
 30
0.0
 10
23.4714597377
 20
19.8921626785
 30
0.0
 10
23.2605029702
 20
19.3811255916
 30
0.0
 10
22.9470491765
 20
18.7917493411
 30
0.0
 10
22.559807178
 20
18.2658631869
 30
0.0
 10
22.2137296339
 20
17.8978679753
 30
0.0
 10
21.938759944
 20
17.649496489
 30
0.0
 10
21.6467291632
 20
17.4270363474
 30
0.0
 10
21.3383536599
 20
17.2310476717
 30
0.0
 10
21.0144392417
 20
17.0619733543
 30
0.0
 10
20.6757725093
 20
16.9202891459
 30
0.0
 10
20.323196172
 20
16.8063356328
 30
0.0
 10
19.8314685302
 20
16.6906103402
 30
0.0
 10
19.1824248841
 20
16.6181840972
 30
0.0
 10
18.5152929761
 20
16.6413931589
 30
0.0
 10
17.9672494141
 20
16.7142017327
 30
0.0
 10
17.3941018586
 20
16.8269465086
 30
0.0
 10
16.6616395795
 20
17.040496013
 30
0.0
 10
15.7791190914
 20
17.4016623012
 30
0.0
 10
14.8888501133
 20
17.867725803
 30
0.0
 10
13.9992487508
 20
18.4341607693
 30
0.0
 10
13.1186159284
 20
19.0955122101
 30
0.0
 10
12.2552720234
 20
19.8454662796
 30
0.0
 10
11.4174299141
 20
20.6768988201
 30
0.0
 10
10.6130496795
 20
21.5818561194
 30
0.0
 10
9.8497944992
 20
22.5516859897
 30
0.0
 10
9.1349830863
 20
23.5771374852
 30
0.0
 10
8.4754453232
 20
24.6483957927
 30
0.0
 10
7.8774715521
 20
25.7551991898
 30
0.0
 10
7.3468053708
 20
26.8869686475
 30
0.0
 10
6.8885237005
 20
28.0328829628
 30
0.0
 10
6.5069943295
 20
29.1819826208
 30
0.0
 10
6.2058747249
 20
30.3232730787
 30
0.0
 10
5.9880205737
 20
31.4459897586
 30
0.0
 10
5.8556286318
 20
32.53925802
 30
0.0
 10
5.8243880552
 20
33.2583394576
 30
0.0
 10
5.8243880552
 20
33.6098189909
 30
0.0
  0
SPLINE
  5
239
100
AcDbEntity
  8
0
100
AcDbSpline
 62
7
  6
BYLAYER
 70
0
 71
3
 72
29
 73
25
 74
0
 42
0.0000001
 43
0.0000001
 44
0.0000000001
 40
0.0
 40
0.0
 40
0.0
 40
0.0
 40
0.0742737439
 40
0.1447172044
 40
0.2113077805
 40
0.2432311532
 40
0.2742820804
 40
0.3339467745
 40
0.3909013435
 40
0.4186171731
 40
0.4459578093
 40
0.4730430043
 40
0.4999990401
 40
0.5269550775
 40
0.5540402738
 40
0.5813809304
 40
0.6090968569
 40
0.6660519077
 40
0.7257160904
 40
0.7567666325
 40
0.7886908812
 40
0.8552862955
 40
0.9257159223
 40
1.0
 40
1.0
 40
1.0
 40
1.0
 10
5.8243880552
 20
33.6098189909
 30
0.0
 10
5.8243880552
 20
33.9444759924
 30
0.0
 10
5.8513788291
 20
34.5969960363
 30
0.0
 10
5.9797966771
 20
35.5418374318
 30
0.0
 10
6.161122765
 20
36.2830095316
 30
0.0
 10
6.3500532577
 20
36.8357333457
 30
0.0
 10
6.5610167204
 20
37.3467753761
 30
0.0
 10
6.8744804593
 20
37.9361560221
 30
0.0
 10
7.2617345948
 20
38.462043681
 30
0.0
 10
7.6078226782
 20
38.8300380232
 30
0.0
 10
7.8828006937
 20
39.078407961
 30
0.0
 10
8.1748402149
 20
39.3008655509
 30
0.0
 10
8.4832247983
 20
39.4968506947
 30
0.0
 10
8.8071486011
 20
39.6659204806
 30
0.0
 10
9.1458249774
 20
39.8075991307
 30
0.0
 10
9.4984111466
 20
39.921546113
 30
0.0
 10
9.9901525604
 20
40.0372613669
 30
0.0
 10
10.6392137244
 20
40.1096722893
 30
0.0
 10
11.3063616495
 20
40.0864452884
 30
0.0
 10
11.8544183112
 20
40.0136205852
 30
0.0
 10
12.4275778081
 20
39.9008589813
 30
0.0
 10
13.1600672558
 20
39.6872788861
 30
0.0
 10
14.0425545171
 20
39.3261103174
 30
0.0
 10
14.6211209918
 20
39.0232023992
 30
0.0
 10
14.9109807012
 20
38.8558470184
 30
0.0
  0
SPLINE
  5
23A
100
AcDbEntity
  8
0
100
AcDbSpline
 62
7
  6
BYLAYER
 70
0
 71
3
 72
33
 73
29
 74
0
 42
0.0000001
 43
0.0000001
 44
0.0000000001
 40
0.0
 40
0.0
 40
0.0
 40
0.0
 40
0.0213298603
 40
0.0428812013
 40
0.0648712489
 40
0.0874961256
 40
0.1109219479
 40
0.1352832414
 40
0.1606792484
 40
0.1871779676
 40
0.2148153607
 40
0.2436013346
 40
0.2735198226
 40
0.3045345145
 40
0.3365891255
 40
0.3696121091
 40
0.4381856785
 40
0.5094588987
 40
0.5824791464
 40
0.6562140185
 40
0.7295996806
 40
0.8015873933
 40
0.8367552976
 40
0.8712117622
 40
0.9048501851
 40
0.9375823758
 40
0.9693285226
 40
1.0
 40
1.0
 40
1.0
 40
1.0
 10
8.0827527136
 20
40.8537668313
 30
0.0
 10
8.2573072427
 20
40.9555380701
 30
0.0
 10
8.6217647878
 20
41.1378593626
 30
0.0
 10
9.2032180483
 20
41.3413969446
 30
0.0
 10
9.817213705
 20
41.474783083
 30
0.0
 10
10.4601098243
 20
41.5372157261
 30
0.0
 10
11.1283041035
 20
41.528749141
 30
0.0
 10
11.8181220382
 20
41.4494782589
 30
0.0
 10
12.5258752898
 20
41.3001502128
 30
0.0
 10
13.2477638734
 20
41.0815757947
 30
0.0
 10
13.9799942041
 20
40.7951340253
 30
0.0
 10
14.718636702
 20
40.4423328174
 30
0.0
 10
15.4598027177
 20
40.0251853133
 30
0.0
 10
16.1994899816
 20
39.545898363
 30
0.0
 10
16.9337951209
 20
39.007107751
 30
0.0
 10
17.9125462423
 20
38.2031848072
 30
0.0
 10
19.0951296086
 20
37.0661813456
 30
0.0
 10
20.4133360622
 20
35.5367448973
 30
0.0
 10
21.6204473356
 20
33.8576601388
 30
0.0
 10
22.6905968406
 20
32.0648842819
 30
0.0
 10
23.6008725
 20
30.1968222793
 30
0.0
 10
24.2149370109
 20
28.5979298356
 30
0.0
 10
24.6081360892
 20
27.3149313296
 30
0.0
 10
24.8499844859
 20
26.3666852854
 30
0.0
 10
25.0396771786
 20
25.4301670356
 30
0.0
 10
25.1762526224
 20
24.5103369731
 30
0.0
 10
25.2588289332
 20
23.6123155563
 30
0.0
 10
25.2780549119
 20
23.0209059557
 30
0.0
 10
25.2780549119
 20
22.730357443
 30
0.0
  0
SPLINE
  5
23B
100
AcDbEntity
  8
0
100
AcDbSpline
 62
7
  6
BYLAYER
 70
0
 71
3
 72
17
 73
13
 74
0
 42
0.0000001
 43
0.0000001
 44
0.0000000001
 40
0.0
 40
0.0
 40
0.0
 40
0.0
 40
0.1486093783
 40
0.2895295783
 40
0.4227177211
 40
0.5485914029
 40
0.6678947471
 40
0.7817794511
 40
0.8372050348
 40
0.8918870012
 40
0.9460670792
 40
1.0
 40
1.0
 40
1.0
 40
1.0
 10
25.2780549119
 20
22.730357443
 30
0.0
 10
25.2780549119
 20
22.3586175869
 30
0.0
 10
25.2479898051
 20
21.6338698932
 30
0.0
 10
25.1048781704
 20
20.5844952365
 30
0.0
 10
24.865793461
 20
19.6108088576
 30
0.0
 10
24.532624392
 20
18.7222777874
 30
0.0
 10
24.1080194533
 20
17.9276238817
 30
0.0
 10
23.6765578465
 20
17.3448849538
 30
0.0
 10
23.2910512959
 20
16.9375497662
 30
0.0
 10
22.9847544526
 20
16.662824502
 30
0.0
 10
22.6595024191
 20
16.4170253955
 30
0.0
 10
22.430329951
 20
16.2727061988
 30
0.0
 10
22.3132075724
 20
16.205748873
 30
0.0
  0
SPLINE
  5
23C
100
AcDbEntity
  8
0
100
AcDbSpline
 62
7
  6
BYLAYER
 70
0
 71
3
 72
20
 73
16
 74
0
 42
0.0000001
 43
0.0000001
 44
0.0000000001
 40
0.0
 40
0.0
 40
0.0
 40
0.0
 40
0.0558294798
 40
0.1141932042
 40
0.1747962437
 40
0.2373664041
 40
0.3669632749
 40
0.4999383588
 40
0.6329165331
 40
0.6983769705
 40
0.7625919877
 40
0.8251738445
 40
0.8857933396
 40
0.9441680635
 40
1.0
 40
1.0
 40
1.0
 40
1.0
 10
14.550313461
 20
21.9676125533
 30
0.0
 10
14.3708207592
 20
22.0712403686
 30
0.0
 10
14.0128246954
 20
22.2993306042
 30
0.0
 10
13.4935384213
 20
22.6893634445
 30
0.0
 10
12.9843076457
 20
23.1316464303
 30
0.0
 10
12.3177761138
 20
23.7929530555
 30
0.0
 10
11.5429839584
 20
24.7227190576
 30
0.0
 10
10.7371224811
 20
25.9537375836
 30
0.0
 10
10.1811613087
 20
27.0545770985
 30
0.0
 10
9.8188856663
 20
27.9603516645
 30
0.0
 10
9.5938442888
 20
28.6381614988
 30
0.0
 10
9.4161812341
 20
29.3113389348
 30
0.0
 10
9.2876039198
 20
29.9735920393
 30
0.0
 10
9.2096055271
 20
30.6184621175
 30
0.0
 10
9.1911763354
 20
31.0425905444
 30
0.0
 10
9.1911763354
 20
31.2498588117
 30
0.0
  0
SPLINE
  5
23D
100
AcDbEntity
  8
0
100
AcDbSpline
 62
7
  6
BYLAYER
 70
0
 71
3
 72
17
 73
13
 74
0
 42
0.0000001
 43
0.0000001
 44
0.0000000001
 40
0.0
 40
0.0
 40
0.0
 40
0.0
 40
0.0539153973
 40
0.1080891734
 40
0.1627735666
 40
0.2182089974
 40
0.3321254894
 40
0.4514612287
 40
0.5773573867
 40
0.7105554687
 40
0.8514216274
 40
1.0
 40
1.0
 40
1.0
 40
1.0
 10
20.991488035
 20
17.6140920214
 30
0.0
 10
21.0925793209
 20
17.6724567445
 30
0.0
 10
21.2903633051
 20
17.7981670761
 30
0.0
 10
21.5710194135
 20
18.0119554892
 30
0.0
 10
21.8353120404
 20
18.2506539857
 30
0.0
 10
22.1679079653
 20
18.6043434478
 30
0.0
 10
22.54012477
 20
19.1097846215
 30
0.0
 10
22.9063724919
 20
19.798432128
 30
0.0
 10
23.1937447701
 20
20.5679746082
 30
0.0
 10
23.3999288405
 20
21.4108380598
 30
0.0
 10
23.5234181703
 20
22.3189681822
 30
0.0
 10
23.5493212909
 20
22.9460666725
 30
0.0
 10
23.5493212909
 20
23.2677475247
 30
0.0
  0
SPLINE
  5
23E
100
AcDbEntity
  8
0
100
AcDbSpline
 62
7
  6
BYLAYER
 70
0
 71
3
 72
24
 73
20
 74
0
 42
0.0000001
 43
0.0000001
 44
0.0000000001
 40
0.0
 40
0.0
 40
0.0
 40
0.0
 40
0.0742901986
 40
0.1447610944
 40
0.2113605495
 40
0.2432873436
 40
0.2743434922
 40
0.334020817
 40
0.3909815017
 40
0.4460027549
 40
0.5000081627
 40
0.5540092653
 40
0.6090297095
 40
0.6659956572
 40
0.7256776733
 40
0.7886364442
 40
0.8552466028
 40
0.9257173282
 40
1.0
 40
1.0
 40
1.0
 40
1.0
 10
19.9094505865
 20
25.0618002801
 30
0.0
 10
19.9094505865
 20
24.8644249151
 30
0.0
 10
19.8935272932
 20
24.4795495659
 30
0.0
 10
19.8178427579
 20
23.9222712511
 30
0.0
 10
19.7108448834
 20
23.4851464663
 30
0.0
 10
19.5994138669
 20
23.1591896189
 30
0.0
 10
19.4749768244
 20
22.8578154268
 30
0.0
 10
19.2901380161
 20
22.5101652665
 30
0.0
 10
19.0187187406
 20
22.141483383
 30
0.0
 10
18.7029678451
 20
21.8307876108
 30
0.0
 10
18.3460730853
 20
21.5816722843
 30
0.0
 10
17.9518627286
 20
21.3972054128
 30
0.0
 10
17.5249424738
 20
21.2790701839
 30
0.0
 10
17.0699155678
 20
21.2281616607
 30
0.0
 10
16.5914904986
 20
21.2448814125
 30
0.0
 10
16.0943553734
 20
21.3283434793
 30
0.0
 10
15.5830917748
 20
21.4774480676
 30
0.0
 10
15.0625352955
 20
21.6904032756
 30
0.0
 10
14.7212291896
 20
21.8689365437
 30
0.0
 10
14.550313461
 20
21.9676125533
 30
0.0
  0
SPLINE
  5
23F
100
AcDbEntity
  8
0
100
AcDbSpline
 62
7
  6
BYLAYER
 70
0
 71
3
 72
34
 73
30
 74
0
 42
0.0000001
 43
0.0000001
 44
0.0000000001
 40
0.0
 40
0.0
 40
0.0
 40
0.0
 40
0.0213260844
 40
0.0428804064
 40
0.064879561
 40
0.0875177417
 40
0.1109605788
 40
0.1353403048
 40
0.1607561513
 40
0.187273867
 40
0.2149298891
 40
0.2437321294
 40
0.2736653416
 40
0.3046915632
 40
0.3367555047
 40
0.3697843319
 40
0.4036926935
 40
0.4383820777
 40
0.5096475506
 40
0.5826503475
 40
0.6563602785
 40
0.7297159544
 40
0.80167141
 40
0.8368233037
 40
0.8712637165
 40
0.9048871841
 40
0.9376068683
 40
0.9693412021
 40
1.0
 40
1.0
 40
1.0
 40
1.0
 10
8.9479135362
 20
39.1818165746
 30
0.0
 10
9.0996475481
 20
39.2694103439
 30
0.0
 10
9.4163831099
 20
39.4261778782
 30
0.0
 10
9.921396215
 20
39.6007434008
 30
0.0
 10
10.4545148491
 20
39.7144558181
 30
0.0
 10
11.0125580021
 20
39.7667975568
 30
0.0
 10
11.5924196684
 20
39.7576544627
 30
0.0
 10
12.1909279297
 20
39.6872873675
 30
0.0
 10
12.8048656791
 20
39.5561865948
 30
0.0
 10
13.4309837541
 20
39.3652154776
 30
0.0
 10
14.0659471253
 20
39.1154306361
 30
0.0
 10
14.7064153451
 20
38.8082750035
 30
0.0
 10
15.3489559029
 20
38.4453782073
 30
0.0
 10
15.9901802111
 20
38.0287612817
 30
0.0
 10
16.6266223733
 20
37.5606215424
 30
0.0
 10
17.2549129339
 20
37.0435377217
 30
0.0
 10
17.8716475195
 20
36.480236665
 30
0.0
 10
18.6813343342
 20
35.6644208808
 30
0.0
 10
19.6418342496
 20
34.5483834438
 30
0.0
 10
20.6875523
 20
33.092011324
 30
0.0
 10
21.6145982911
 20
31.5372677838
 30
0.0
 10
22.4030687583
 20
29.9175280775
 30
0.0
 10
22.9349379662
 20
28.5313170958
 30
0.0
 10
23.2754793903
 20
27.4190476768
 30
0.0
 10
23.484951318
 20
26.597010232
 30
0.0
 10
23.649235284
 20
25.7851329481
 30
0.0
 10
23.7675200719
 20
24.9877123387
 30
0.0
 10
23.8390281112
 20
24.2091986123
 30
0.0
 10
23.85568428
 20
23.6964996264
 30
0.0
 10
23.85568428
 20
23.4446252232
 30
0.0
  0
ENDSEC
  0
SECTION
  2
OBJECTS
  0
DICTIONARY
  5
C
100
AcDbDictionary
280
0
281
1
  3
ACAD_GROUP
350
D
  3
ACAD_MLINESTYLE
350
17
  3
ACAD_LAYOUT
350
1A
  3
ACAD_PLOTSETTINGS
350
19
  3
ACAD_PLOTSTYLENAME
350
E
  0
DICTIONARY
  5
D
102
{ACAD_REACTORS
330
C
102
}
100
AcDbDictionary
280
0
281
1
  0
ACDBDICTIONARYWDFLT
  5
E
102
{ACAD_REACTORS
330
C
102
}
100
AcDbDictionary
281
1
  3
Normal
350
F
100
AcDbDictionaryWithDefault
340
F
  0
DICTIONARY
  5
17
102
{ACAD_REACTORS
330
C
102
}
100
AcDbDictionary
280
0
281
1
  3
Standard
350
18
  0
DICTIONARY
  5
19
102
{ACAD_REACTORS
330
C
102
}
100
AcDbDictionary
281
1
  0
DICTIONARY
  5
1A
102
{ACAD_REACTORS
330
C
102
}
100
AcDbDictionary
281
1
  3
Model
350
240
  3
Layout1
350
241
  0
ACDBPLACEHOLDER
  5
F
102
{ACAD_REACTORS
330
E
102
}
  0
MLINESTYLE
  5
18
102
{ACAD_REACTORS
330
17
102
}
100
AcDbMlineStyle
  2
STANDARD
 70
0
  3

 62
256
 51
90.0
 52
90.0
 71
2
 49
0.5
 62
256
  6
BYLAYER
 49
-0.5
 62
256
  6
BYLAYER
  0
LAYOUT
  5
240
102
{ACAD_REACTORS
330
1A
102
}
100
AcDbPlotSettings
  1

  2
none_device
  4

  6

 40
0.0
 41
0.0
 42
0.0
 43
0.0
 44
210.0
 45
297.0
 46
0.0
 47
0.0
 48
0.0
 49
0.0
140
0.0
141
0.0
142
1.0
143
1.0
 70
1024
 72
1
 73
0
 74
0
  7

 75
0
147
1.0
148
0.0
149
0.0
100
AcDbLayout
  1
Model
 70
0
 71
0
 10
0.0
 20
0.0
 11
210.0
 21
297.0
 12
0.0
 22
0.0
 32
0.0
 14
0.0
 24
0.0
 34
0.0
 15
0.0
 25
0.0
 35
0.0
146
0.0
 13
0.0
 23
0.0
 33
0.0
 16
1.0
 26
0.0
 36
0.0
 17
0.0
 27
1.0
 37
0.0
 76
0
330
211
345
0
346
0
  0
LAYOUT
  5
241
102
{ACAD_REACTORS
330
1A
102
}
100
AcDbPlotSettings
  1

  2
none_device
  4

  6

 40
0.0
 41
0.0
 42
0.0
 43
0.0
 44
210.0
 45
297.0
 46
0.0
 47
0.0
 48
0.0
 49
0.0
140
0.0
141
0.0
142
1.0
143
1.0
 70
0
 72
1
 73
0
 74
0
  7

 75
0
147
1.0
148
0.0
149
0.0
100
AcDbLayout
  1
Layout1
 70
0
 71
1
 10
0.0
 20
0.0
 11
210.0
 21
297.0
 12
0.0
 22
0.0
 32
0.0
 14
0.0
 24
0.0
 34
0.0
 15
0.0
 25
0.0
 35
0.0
146
0.0
 13
0.0
 23
0.0
 33
0.0
 16
1.0
 26
0.0
 36
0.0
 17
0.0
 27
1.0
 37
0.0
 76
0
330
212
345
0
346
0
  0
ENDSEC
  0
EOF
