999
DXF file: C:\Users\sesa63760\Dev\_Creo\CAD\MCADUE0002056_3D-CAD\drw0001_1.dxf
999
Pro/ENGINEER 2019471 by Parametric Technology Corporation
  0
SECTION
  2
HEADER
  9
$ACADVER
  1
AC1024
  9
$DWGCODEPAGE
  3
ANSI_1252
  9
$EXTMAX
 10
582.3489723944
 20
823.6078323864
 30
0.0
  9
$EXTMIN
 10
0.0
 20
0.0
 30
0.0
  9
$LIMMIN
 10
0.0
 20
0.0
  9
$LIMMAX
 10
582.3489723944
 20
823.6078323864
  9
$VIEWCTR
 10
291.1744861972
 20
411.8039161932
  9
$VIEWSIZE
 40
823.6078323864
  9
$CLAYER
  8
0
  9
$LTSCALE
 40
53.6870290741
  9
$CELTYPE
  6
BYLAYER
  9
$DIMSCALE
 40
1.0
  9
$DIMASZ
 40
6.9327258618
  9
$DIMEXO
 40
1.0
  9
$DIMDLI
 40
37.0928564512
  9
$DIMEXE
 40
1.0
  9
$DIMCEN
 40
8.7851502121
  9
$DIMLFAC
 40
1.0
  9
$DIMBLK
  1
_FILLED
  9
$DIMALT
 70
0
  9
$DIMALTF
 40
0.0393700787
  9
$DIMTXT
 40
9.7058162066
  9
$DIMTOL
 70
1
  9
$DIMLIM
 70
0
  9
$DIMTFAC
 40
1.0
  9
$DIMTP
 40
0.01
  9
$DIMTM
 40
0.01
  9
$DIMGAP
 40
0.625
  9
$DIMDSEP
 70
46
  9
$AUNITS
 70
0
  9
$PDMODE
 70
3
  9
$PDSIZE
 40
0.3125
  9
$HANDSEED
  5
2A0
  9
$TILEMODE
 70
1
  9
$MEASUREMENT
 70
1
  9
$INSUNITS
 70
4
  0
ENDSEC
  0
SECTION
  2
CLASSES
  0
CLASS
  1
ACDBDICTIONARYWDFLT
  2
AcDbDictionaryWithDefault
  3
AutoCAD 2000
 90
0
 91
1
280
0
281
0
  0
CLASS
  1
ACDBPLACEHOLDER
  2
AcDbPlaceHolder
  3
AutoCAD 2000
 90
0
 91
1
280
0
281
0
  0
CLASS
  1
LAYOUT
  2
AcDbLayout
  3
AutoCAD 2000
 90
0
 91
0
280
0
281
0
  0
ENDSEC
  0
SECTION
  2
TABLES
  0
TABLE
  2
VPORT
  5
8
100
AcDbSymbolTable
 70
2
  0
VPORT
  5
1F4
100
AcDbSymbolTableRecord
100
AcDbViewportTableRecord
  2
*ACTIVE
 70
0
 10
0.0
 20
0.0
 11
1.0
 21
1.0
 12
291.1744861972
 22
411.8039161932
 13
0.0
 23
0.0
 14
1.0
 24
1.0
 15
0.0
 25
0.0
 16
0.0
 26
0.0
 36
1.0
 17
0.0
 27
0.0
 37
0.0
 40
823.6078323864
 41
0.7070707071
 42
50.0
 43
0.0
 44
0.0
 50
0.0
 51
0.0
 71
0
 72
100
 73
1
 74
1
 75
0
 76
0
 77
0
 78
0
  0
ENDTAB
  0
TABLE
  2
LTYPE
  5
5
100
AcDbSymbolTable
 70
6
  0
LTYPE
  5
14
100
AcDbSymbolTableRecord
100
AcDbLinetypeTableRecord
  2
BYBLOCK
 70
0
  3

 72
65
 73
0
 40
0.0
  0
LTYPE
  5
15
100
AcDbSymbolTableRecord
100
AcDbLinetypeTableRecord
  2
BYLAYER
 70
0
  3

 72
65
 73
0
 40
0.0
  0
LTYPE
  5
16
100
AcDbSymbolTableRecord
100
AcDbLinetypeTableRecord
  2
CONTINUOUS
 70
64
  3
Solid line
 72
65
 73
0
 40
0.0
  0
LTYPE
  5
1F5
100
AcDbSymbolTableRecord
100
AcDbLinetypeTableRecord
  2
CENTER
 70
64
  3
____ _ ____ _ ____ _ ____ _ ____ _ ____ _ ____
 72
65
 73
4
 40
0.6
 49
0.375
 74
0
 49
-0.075
 74
0
 49
0.075
 74
0
 49
-0.075
 74
0
  0
LTYPE
  5
1F6
100
AcDbSymbolTableRecord
100
AcDbLinetypeTableRecord
  2
HIDDEN
 70
64
  3
- - - - - - - - - - - - - - - - - - - -
 72
65
 73
2
 40
0.2
 49
0.1
 74
0
 49
-0.1
 74
0
  0
LTYPE
  5
1F7
100
AcDbSymbolTableRecord
100
AcDbLinetypeTableRecord
  2
PHANTOM
 70
64
  3
_____ _ _ _____ _ _ _____ _ _ _____
 72
65
 73
6
 40
0.8
 49
0.45
 74
0
 49
-0.05
 74
0
 49
0.1
 74
0
 49
-0.05
 74
0
 49
0.1
 74
0
 49
-0.05
 74
0
  0
LTYPE
  5
1F8
100
AcDbSymbolTableRecord
100
AcDbLinetypeTableRecord
  2
DOT
 70
64
  3
. . . . . . . . . . . . . . . . . . . .
 72
65
 73
2
 40
0.2
 49
0.1
 74
0
 49
-0.1
 74
0
  0
LTYPE
  5
1F9
100
AcDbSymbolTableRecord
100
AcDbLinetypeTableRecord
  2
DASHED
 70
64
  3
- - - - - - - - - - - - - - - - - - - -
 72
65
 73
2
 40
0.2
 49
0.1
 74
0
 49
-0.1
 74
0
  0
ENDTAB
  0
TABLE
  2
LAYER
  5
2
100
AcDbSymbolTable
 70
36
  0
LAYER
  5
10
100
AcDbSymbolTableRecord
100
AcDbLayerTableRecord
  2
0
 70
0
 62
7
  6
CONTINUOUS
370
-3
390
F
  0
LAYER
  5
1FA
100
AcDbSymbolTableRecord
100
AcDbLayerTableRecord
  2
DEFAULT_1
 70
0
 62
7
  6
CENTER
370
-3
390
F
  0
LAYER
  5
1FB
100
AcDbSymbolTableRecord
100
AcDbLayerTableRecord
  2
DEFAULT_2
 70
0
 62
8
  6
HIDDEN
370
-3
390
F
  0
LAYER
  5
1FC
100
AcDbSymbolTableRecord
100
AcDbLayerTableRecord
  2
DEFAULT_3
 70
0
 62
7
  6
PHANTOM
370
-3
390
F
  0
LAYER
  5
1FD
100
AcDbSymbolTableRecord
100
AcDbLayerTableRecord
  2
00_COMPONENTS
 70
0
 62
7
  6
CONTINUOUS
370
-3
390
F
  0
LAYER
  5
1FE
100
AcDbSymbolTableRecord
100
AcDbLayerTableRecord
  2
01_1_DEFAULT_DATUMS
 70
0
 62
7
  6
CONTINUOUS
370
-3
390
F
  0
LAYER
  5
1FF
100
AcDbSymbolTableRecord
100
AcDbLayerTableRecord
  2
01_PLANES
 70
0
 62
7
  6
CONTINUOUS
370
-3
390
F
  0
LAYER
  5
200
100
AcDbSymbolTableRecord
100
AcDbLayerTableRecord
  2
02_COORD_SYS
 70
0
 62
7
  6
CONTINUOUS
370
-3
390
F
  0
LAYER
  5
201
100
AcDbSymbolTableRecord
100
AcDbLayerTableRecord
  2
03_AXES
 70
0
 62
7
  6
CONTINUOUS
370
-3
390
F
  0
LAYER
  5
202
100
AcDbSymbolTableRecord
100
AcDbLayerTableRecord
  2
04_POINTS
 70
0
 62
7
  6
CONTINUOUS
370
-3
390
F
  0
LAYER
  5
203
100
AcDbSymbolTableRecord
100
AcDbLayerTableRecord
  2
05_CURVES
 70
0
 62
7
  6
CONTINUOUS
370
-3
390
F
  0
LAYER
  5
204
100
AcDbSymbolTableRecord
100
AcDbLayerTableRecord
  2
06_SURFS
 70
0
 62
7
  6
CONTINUOUS
370
-3
390
F
  0
LAYER
  5
205
100
AcDbSymbolTableRecord
100
AcDbLayerTableRecord
  2
07_COSMETICS
 70
0
 62
7
  6
CONTINUOUS
370
-3
390
F
  0
LAYER
  5
206
100
AcDbSymbolTableRecord
100
AcDbLayerTableRecord
  2
10_NOTES
 70
0
 62
7
  6
CONTINUOUS
370
-3
390
F
  0
LAYER
  5
207
100
AcDbSymbolTableRecord
100
AcDbLayerTableRecord
  2
11_NOTES_PUB
 70
0
 62
7
  6
CONTINUOUS
370
-3
390
F
  0
LAYER
  5
208
100
AcDbSymbolTableRecord
100
AcDbLayerTableRecord
  2
13_REF_GTOL
 70
0
 62
7
  6
CONTINUOUS
370
-3
390
F
  0
LAYER
  5
209
100
AcDbSymbolTableRecord
100
AcDbLayerTableRecord
  2
16_MISC
 70
0
 62
7
  6
CONTINUOUS
370
-3
390
F
  0
LAYER
  5
20A
100
AcDbSymbolTableRecord
100
AcDbLayerTableRecord
  2
17_NO_PRINT
 70
0
 62
7
  6
CONTINUOUS
370
-3
390
F
  0
LAYER
  5
20B
100
AcDbSymbolTableRecord
100
AcDbLayerTableRecord
  2
18_DATUM_CAMS_JOINTS
 70
0
 62
7
  6
CONTINUOUS
370
-3
390
F
  0
LAYER
  5
20C
100
AcDbSymbolTableRecord
100
AcDbLayerTableRecord
  2
19_DATUM_FUNCTIONAL
 70
0
 62
7
  6
CONTINUOUS
370
-3
390
F
  0
LAYER
  5
20D
100
AcDbSymbolTableRecord
100
AcDbLayerTableRecord
  2
20_DATUM_KINEMATIC_SCHEME
 70
0
 62
7
  6
CONTINUOUS
370
-3
390
F
  0
ENDTAB
  0
TABLE
  2
STYLE
  5
3
100
AcDbSymbolTable
 70
1
  0
STYLE
  5
11
100
AcDbSymbolTableRecord
100
AcDbTextStyleTableRecord
  2
STANDARD
 70
0
 40
0.0
 41
0.8
 50
0.0
 71
0
 42
0.2
  3
txt
  4

  0
STYLE
  5
20E
100
AcDbSymbolTableRecord
100
AcDbTextStyleTableRecord
  2
TEXTSTYLE_1
 70
0
 40
0.0
 41
0.8
 50
0.0
 71
0
 42
0.2
  3
gdt
  4

  0
ENDTAB
  0
TABLE
  2
VIEW
  5
6
100
AcDbSymbolTable
 70
0
  0
ENDTAB
  0
TABLE
  2
UCS
  5
7
100
AcDbSymbolTable
 70
0
  0
ENDTAB
  0
TABLE
  2
APPID
  5
9
100
AcDbSymbolTable
 70
1
  0
APPID
  5
20F
100
AcDbSymbolTableRecord
100
AcDbRegAppTableRecord
  2
ACAD
 70
0
  0
ENDTAB
  0
TABLE
  2
BLOCK_RECORD
  5
1
100
AcDbSymbolTable
 70
0
  0
BLOCK_RECORD
  5
210
100
AcDbSymbolTableRecord
100
AcDbBlockTableRecord
  2
*Model_Space
  0
BLOCK_RECORD
  5
211
100
AcDbSymbolTableRecord
100
AcDbBlockTableRecord
  2
*Paper_Space
  0
BLOCK_RECORD
  5
212
100
AcDbSymbolTableRecord
100
AcDbBlockTableRecord
  2
_FILLED
  0
ENDTAB
  0
TABLE
  2
DIMSTYLE
  5
A
100
AcDbSymbolTable
 70
1
100
AcDbDimStyleTable
 71
0
  0
DIMSTYLE
105
213
100
AcDbSymbolTableRecord
100
AcDbDimStyleTableRecord
  2
STANDARD
 70
0
  3

  4

 40
1.0
 41
6.9327258618
 42
1.0
 43
0.38
 44
1.0
 45
0.0
 46
0.0
 47
0.01
 48
0.01
140
9.7058162066
141
0.09
142
0.0
143
25.4
144
1.0
145
0.0
146
1.0
147
0.625
 71
1
 72
0
 73
0
 74
0
 75
0
 76
0
 77
1
 78
8
 79
2
170
0
171
1
172
0
173
0
174
0
175
0
176
0
177
0
178
0
270
2
179
2
271
2
272
2
273
2
274
2
275
0
280
0
281
0
282
0
283
1
284
8
285
0
286
0
287
3
288
0
340
11
278
46
341
212
342
212
343
212
344
212
  0
ENDTAB
  0
ENDSEC
  0
SECTION
  2
BLOCKS
  0
BLOCK
  5
20
100
AcDbEntity
  8
0
100
AcDbBlockBegin
  2
*Model_Space
 70
0
 10
0.0
 20
0.0
 30
0.0
  3
*Model_Space
  1

  0
ENDBLK
  5
21
100
AcDbEntity
  8
0
100
AcDbBlockEnd
  0
BLOCK
  5
1C
100
AcDbEntity
  8
0
100
AcDbBlockBegin
  2
*Paper_Space
 70
0
 10
0.0
 20
0.0
 30
0.0
  3
*Paper_Space
  1

  0
ENDBLK
  5
1D
100
AcDbEntity
  8
0
100
AcDbBlockEnd
  0
BLOCK
  5
214
100
AcDbEntity
  8
0
100
AcDbBlockBegin
  2
_FILLED
 70
64
 10
0.0
 20
0.0
  3
_FILLED
  1

  0
SOLID
  5
215
100
AcDbEntity
  8
0
  6
BYBLOCK
 62
0
100
AcDbTrace
 10
0.0
 20
0.0
 11
-1.0
 21
0.25
 12
-1.0
 22
-0.25
 13
-1.0
 23
-0.25
  0
ENDBLK
  5
216
100
AcDbEntity
  8
0
  6
BYBLOCK
 62
0
100
AcDbBlockEnd
  0
ENDSEC
  0
SECTION
  2
ENTITIES
  0
LINE
  5
217
100
AcDbEntity
  8
0
100
AcDbLine
 62
7
  6
CONTINUOUS
 10
74.7256365411
 20
486.7002687306
 11
74.7256365411
 21
487.9250223563
  0
LINE
  5
218
100
AcDbEntity
  8
0
100
AcDbLine
 62
7
  6
CONTINUOUS
 10
74.7254893428
 20
508.3371450661
 11
131.2937963199
 21
540.9966773758
  0
LINE
  5
219
100
AcDbEntity
  8
0
100
AcDbLine
 62
7
  6
CONTINUOUS
 10
424.7449504889
 20
284.6210952431
 11
74.7256365411
 21
486.7002687306
  0
LINE
  5
21A
100
AcDbEntity
  8
0
100
AcDbLine
 62
7
  6
CONTINUOUS
 10
424.7449504889
 20
285.8458488688
 11
74.7256365411
 21
487.9250223563
  0
LINE
  5
21B
100
AcDbEntity
  8
0
100
AcDbLine
 62
7
  6
CONTINUOUS
 10
166.6491353789
 20
540.9967623596
 11
516.6684493267
 21
338.9175888721
  0
LINE
  5
21C
100
AcDbEntity
  8
0
100
AcDbLine
 62
7
  6
CONTINUOUS
 10
424.7449504889
 20
285.8458488688
 11
424.7449504889
 21
284.6210952431
  0
LINE
  5
21D
100
AcDbEntity
  8
0
100
AcDbLine
 62
7
  6
CONTINUOUS
 10
460.1002895479
 20
284.6211802269
 11
460.1002895479
 21
285.8459338525
  0
LINE
  5
21E
100
AcDbEntity
  8
0
100
AcDbLine
 62
7
  6
CONTINUOUS
 10
516.668596525
 20
318.5054661623
 11
460.1002895479
 21
285.8459338525
  0
LINE
  5
21F
100
AcDbEntity
  8
0
100
AcDbLine
 62
7
  6
CONTINUOUS
 10
516.668596525
 20
317.2807125366
 11
460.1002895479
 21
284.6211802269
  0
LINE
  5
220
100
AcDbEntity
  8
0
100
AcDbLine
 62
7
  6
CONTINUOUS
 10
516.668596525
 20
318.5054661623
 11
516.668596525
 21
317.2807125366
  0
ARC
  5
221
100
AcDbEntity
  8
0
100
AcDbCircle
 62
7
  6
CONTINUOUS
 10
436.6651656138
 20
306.4959754762
 40
23.843641868
100
AcDbArc
 50
240.0044555732
 51
241.1730605347
  0
ARC
  5
222
100
AcDbEntity
  8
0
100
AcDbCircle
 62
7
  6
CONTINUOUS
 10
448.1800684809
 20
306.4957269959
 40
23.8433560379
100
AcDbArc
 50
298.8273223169
 51
299.995957398
  0
ARC
  5
223
100
AcDbEntity
  8
0
100
AcDbCircle
 62
7
  6
CONTINUOUS
 10
86.1202947291
 20
506.443137467
 40
22.7951552125
100
AcDbArc
 50
238.11456962
 51
240.0084728055
  0
ARC
  5
224
100
AcDbEntity
  8
0
100
AcDbCircle
 62
7
  6
CONTINUOUS
 10
505.2739456216
 20
337.0232401253
 40
22.794856104
100
AcDbArc
 50
299.9919399705
 51
301.8858896592
  0
ARC
  5
225
100
AcDbEntity
  8
0
100
AcDbCircle
 62
7
  6
CONTINUOUS
 10
75.856934673
 20
498.1371615053
 40
8.4535205863
100
AcDbArc
 50
180.0409057226
 51
191.0192530713
  0
ARC
  5
226
100
AcDbEntity
  8
0
100
AcDbCircle
 62
7
  6
CONTINUOUS
 10
515.5371706967
 20
328.717518648
 40
8.4535010832
100
AcDbArc
 50
348.9815574909
 51
359.9591055652
  0
SPLINE
  5
227
100
AcDbEntity
  8
0
100
AcDbSpline
 62
7
  6
CONTINUOUS
 70
0
 71
3
 72
11
 73
7
 74
0
 42
0.0000001
 43
0.0000001
 44
0.0000000001
 40
0.0
 40
0.0
 40
0.0
 40
0.0
 40
0.2897776971
 40
0.5490719787
 40
0.7822272299
 40
1.0
 40
1.0
 40
1.0
 40
1.0
 10
74.7254893428
 20
508.3371450661
 30
0.0
 10
73.6282401875
 20
507.7036517524
 30
0.0
 10
71.6378153226
 20
506.3332811517
 30
0.0
 10
69.2597689697
 20
503.8330365284
 30
0.0
 10
67.7550555725
 20
501.0681366916
 30
0.0
 10
67.4034162289
 20
499.0832920375
 30
0.0
 10
67.4034162411
 20
498.1311262032
 30
0.0
  0
SPLINE
  5
228
100
AcDbEntity
  8
0
100
AcDbSpline
 62
7
  6
CONTINUOUS
 70
0
 71
3
 72
11
 73
7
 74
0
 42
0.0000001
 43
0.0000001
 44
0.0000000001
 40
0.0
 40
0.0
 40
0.0
 40
0.0
 40
0.237228705
 40
0.5000005261
 40
0.7627720609
 40
1.0
 40
1.0
 40
1.0
 40
1.0
 10
166.6491353789
 20
540.9967623596
 30
0.0
 10
164.1395144508
 20
542.4456598996
 30
0.0
 10
158.3031981226
 20
544.5601693577
 30
0.0
 10
148.9714380564
 20
545.5730398017
 30
0.0
 10
139.6396920703
 20
544.5601267727
 30
0.0
 10
133.803398697
 20
542.445588335
 30
0.0
 10
131.2937963199
 20
540.9966773758
 30
0.0
  0
SPLINE
  5
229
100
AcDbEntity
  8
0
100
AcDbSpline
 62
7
  6
CONTINUOUS
 70
0
 71
3
 72
9
 73
5
 74
0
 42
0.0000001
 43
0.0000001
 44
0.0000000001
 40
0.0
 40
0.0
 40
0.0
 40
0.0
 40
0.4997654627
 40
1.0
 40
1.0
 40
1.0
 40
1.0
 10
298.8793811412
 20
363.8198550779
 30
0.0
 10
298.2513705861
 20
363.4572751792
 30
0.0
 10
296.7631734851
 20
363.1693650564
 30
0.0
 10
295.2749344715
 20
363.454312276
 30
0.0
 10
294.6451077444
 20
363.8150993787
 30
0.0
  0
SPLINE
  5
22A
100
AcDbEntity
  8
0
100
AcDbSpline
 62
7
  6
CONTINUOUS
 70
0
 71
3
 72
9
 73
5
 74
0
 42
0.0000001
 43
0.0000001
 44
0.0000000001
 40
0.0
 40
0.0
 40
0.0
 40
0.0
 40
0.5510880621
 40
1.0
 40
1.0
 40
1.0
 40
1.0
 10
294.6451077444
 20
363.8150993787
 30
0.0
 10
294.3948804775
 20
363.9584384381
 30
0.0
 10
293.9647940089
 20
364.2852590785
 30
0.0
 10
293.7582069259
 20
364.8096697743
 30
0.0
 10
293.758100622
 20
365.0445772021
 30
0.0
  0
SPLINE
  5
22B
100
AcDbEntity
  8
0
100
AcDbSpline
 62
7
  6
CONTINUOUS
 70
0
 71
3
 72
9
 73
5
 74
0
 42
0.0000001
 43
0.0000001
 44
0.0000000001
 40
0.0
 40
0.0
 40
0.0
 40
0.0
 40
0.4997654627
 40
1.0
 40
1.0
 40
1.0
 40
1.0
 10
381.6105300952
 20
411.5844210809
 30
0.0
 10
380.9825195402
 20
411.2218411822
 30
0.0
 10
379.4943224391
 20
410.9339310594
 30
0.0
 10
378.0060834255
 20
411.2188782789
 30
0.0
 10
377.3762566985
 20
411.5796653817
 30
0.0
  0
SPLINE
  5
22C
100
AcDbEntity
  8
0
100
AcDbSpline
 62
7
  6
CONTINUOUS
 70
0
 71
3
 72
9
 73
5
 74
0
 42
0.0000001
 43
0.0000001
 44
0.0000000001
 40
0.0
 40
0.0
 40
0.0
 40
0.0
 40
0.5510880621
 40
1.0
 40
1.0
 40
1.0
 40
1.0
 10
377.3762566985
 20
411.5796653817
 30
0.0
 10
377.1260294315
 20
411.7230044411
 30
0.0
 10
376.695942963
 20
412.0498250815
 30
0.0
 10
376.4893558799
 20
412.5742357773
 30
0.0
 10
376.489249576
 20
412.8091432051
 30
0.0
  0
SPLINE
  5
22D
100
AcDbEntity
  8
0
100
AcDbSpline
 62
7
  6
CONTINUOUS
 70
0
 71
3
 72
9
 73
5
 74
0
 42
0.0000001
 43
0.0000001
 44
0.0000000001
 40
0.0
 40
0.0
 40
0.0
 40
0.0
 40
0.4997654627
 40
1.0
 40
1.0
 40
1.0
 40
1.0
 10
485.9095589985
 20
303.6045426482
 30
0.0
 10
485.2815484434
 20
303.2419627495
 30
0.0
 10
483.7933513424
 20
302.9540526267
 30
0.0
 10
482.3051123288
 20
303.2389998463
 30
0.0
 10
481.6752856017
 20
303.599786949
 30
0.0
  0
SPLINE
  5
22E
100
AcDbEntity
  8
0
100
AcDbSpline
 62
7
  6
CONTINUOUS
 70
0
 71
3
 72
9
 73
5
 74
0
 42
0.0000001
 43
0.0000001
 44
0.0000000001
 40
0.0
 40
0.0
 40
0.0
 40
0.0
 40
0.5510880621
 40
1.0
 40
1.0
 40
1.0
 40
1.0
 10
481.6752856017
 20
303.599786949
 30
0.0
 10
481.4250583348
 20
303.7431260084
 30
0.0
 10
480.9949718662
 20
304.0699466488
 30
0.0
 10
480.7883847831
 20
304.5943573446
 30
0.0
 10
480.7882784793
 20
304.8292647724
 30
0.0
  0
SPLINE
  5
22F
100
AcDbEntity
  8
0
100
AcDbSpline
 62
7
  6
CONTINUOUS
 70
0
 71
3
 72
9
 73
5
 74
0
 42
0.0000001
 43
0.0000001
 44
0.0000000001
 40
0.0
 40
0.0
 40
0.0
 40
0.0
 40
0.4997654627
 40
1.0
 40
1.0
 40
1.0
 40
1.0
 10
109.7271852203
 20
520.788624053
 30
0.0
 10
109.0991746652
 20
520.4260441543
 30
0.0
 10
107.6109775642
 20
520.1381340315
 30
0.0
 10
106.1227385506
 20
520.4230812511
 30
0.0
 10
105.4929118235
 20
520.7838683538
 30
0.0
  0
SPLINE
  5
230
100
AcDbEntity
  8
0
100
AcDbSpline
 62
7
  6
CONTINUOUS
 70
0
 71
3
 72
9
 73
5
 74
0
 42
0.0000001
 43
0.0000001
 44
0.0000000001
 40
0.0
 40
0.0
 40
0.0
 40
0.0
 40
0.5510880621
 40
1.0
 40
1.0
 40
1.0
 40
1.0
 10
105.4929118235
 20
520.7838683538
 30
0.0
 10
105.2426845566
 20
520.9272074132
 30
0.0
 10
104.812598088
 20
521.2540280536
 30
0.0
 10
104.606011005
 20
521.7784387494
 30
0.0
 10
104.6059047011
 20
522.0133461772
 30
0.0
  0
SPLINE
  5
231
100
AcDbEntity
  8
0
100
AcDbSpline
 62
7
  6
CONTINUOUS
 70
0
 71
3
 72
9
 73
5
 74
0
 42
0.0000001
 43
0.0000001
 44
0.0000000001
 40
0.0
 40
0.0
 40
0.0
 40
0.0
 40
0.4997654627
 40
1.0
 40
1.0
 40
1.0
 40
1.0
 10
466.4636971128
 20
362.5955305385
 30
0.0
 10
465.8356865578
 20
362.2329506398
 30
0.0
 10
464.3474894568
 20
361.945040517
 30
0.0
 10
462.8592504431
 20
362.2299877365
 30
0.0
 10
462.2294237161
 20
362.5907748392
 30
0.0
  0
SPLINE
  5
232
100
AcDbEntity
  8
0
100
AcDbSpline
 62
7
  6
CONTINUOUS
 70
0
 71
3
 72
9
 73
5
 74
0
 42
0.0000001
 43
0.0000001
 44
0.0000000001
 40
0.0
 40
0.0
 40
0.0
 40
0.0
 40
0.5510880621
 40
1.0
 40
1.0
 40
1.0
 40
1.0
 10
462.2294237161
 20
362.5907748392
 30
0.0
 10
461.9791964492
 20
362.7341138986
 30
0.0
 10
461.5491099806
 20
363.0609345391
 30
0.0
 10
461.3425228975
 20
363.5853452348
 30
0.0
 10
461.3424165937
 20
363.8202526627
 30
0.0
  0
SPLINE
  5
233
100
AcDbEntity
  8
0
100
AcDbSpline
 62
7
  6
CONTINUOUS
 70
0
 71
3
 72
9
 73
5
 74
0
 42
0.0000001
 43
0.0000001
 44
0.0000000001
 40
0.0
 40
0.0
 40
0.0
 40
0.0
 40
0.4997654627
 40
1.0
 40
1.0
 40
1.0
 40
1.0
 10
383.7325481588
 20
314.8309645355
 30
0.0
 10
383.1045376038
 20
314.4683846368
 30
0.0
 10
381.6163405028
 20
314.180474514
 30
0.0
 10
380.1281014891
 20
314.4654217335
 30
0.0
 10
379.4982747621
 20
314.8262088363
 30
0.0
  0
SPLINE
  5
234
100
AcDbEntity
  8
0
100
AcDbSpline
 62
7
  6
CONTINUOUS
 70
0
 71
3
 72
9
 73
5
 74
0
 42
0.0000001
 43
0.0000001
 44
0.0000000001
 40
0.0
 40
0.0
 40
0.0
 40
0.0
 40
0.5510880621
 40
1.0
 40
1.0
 40
1.0
 40
1.0
 10
379.4982747621
 20
314.8262088363
 30
0.0
 10
379.2480474952
 20
314.9695478957
 30
0.0
 10
378.8179610266
 20
315.2963685361
 30
0.0
 10
378.6113739435
 20
315.8207792319
 30
0.0
 10
378.6112676396
 20
316.0556866597
 30
0.0
  0
SPLINE
  5
235
100
AcDbEntity
  8
0
100
AcDbSpline
 62
7
  6
CONTINUOUS
 70
0
 71
3
 72
9
 73
5
 74
0
 42
0.0000001
 43
0.0000001
 44
0.0000000001
 40
0.0
 40
0.0
 40
0.0
 40
0.0
 40
0.4997654627
 40
1.0
 40
1.0
 40
1.0
 40
1.0
 10
211.9041960599
 20
509.5622021658
 30
0.0
 10
211.2761855049
 20
509.1996222671
 30
0.0
 10
209.7879884039
 20
508.9117121443
 30
0.0
 10
208.2997493902
 20
509.1966593638
 30
0.0
 10
207.6699226632
 20
509.5574464665
 30
0.0
  0
SPLINE
  5
236
100
AcDbEntity
  8
0
100
AcDbSpline
 62
7
  6
CONTINUOUS
 70
0
 71
3
 72
9
 73
5
 74
0
 42
0.0000001
 43
0.0000001
 44
0.0000000001
 40
0.0
 40
0.0
 40
0.0
 40
0.0
 40
0.5510880621
 40
1.0
 40
1.0
 40
1.0
 40
1.0
 10
207.6699226632
 20
509.5574464665
 30
0.0
 10
207.4196953963
 20
509.700785526
 30
0.0
 10
206.9896089277
 20
510.0276061664
 30
0.0
 10
206.7830218446
 20
510.5520168621
 30
0.0
 10
206.7829155408
 20
510.78692429
 30
0.0
  0
SPLINE
  5
237
100
AcDbEntity
  8
0
100
AcDbSpline
 62
7
  6
CONTINUOUS
 70
0
 71
3
 72
9
 73
5
 74
0
 42
0.0000001
 43
0.0000001
 44
0.0000000001
 40
0.0
 40
0.0
 40
0.0
 40
0.0
 40
0.4997654627
 40
1.0
 40
1.0
 40
1.0
 40
1.0
 10
129.1730471059
 20
461.7976361628
 30
0.0
 10
128.5450365509
 20
461.4350562641
 30
0.0
 10
127.0568394499
 20
461.1471461413
 30
0.0
 10
125.5686004362
 20
461.4320933608
 30
0.0
 10
124.9387737092
 20
461.7928804636
 30
0.0
  0
SPLINE
  5
238
100
AcDbEntity
  8
0
100
AcDbSpline
 62
7
  6
CONTINUOUS
 70
0
 71
3
 72
9
 73
5
 74
0
 42
0.0000001
 43
0.0000001
 44
0.0000000001
 40
0.0
 40
0.0
 40
0.0
 40
0.0
 40
0.5510880621
 40
1.0
 40
1.0
 40
1.0
 40
1.0
 10
124.9387737092
 20
461.7928804636
 30
0.0
 10
124.6885464422
 20
461.936219523
 30
0.0
 10
124.2584599737
 20
462.2630401634
 30
0.0
 10
124.0518728906
 20
462.7874508592
 30
0.0
 10
124.0517665867
 20
463.022358287
 30
0.0
  0
SPLINE
  5
239
100
AcDbEntity
  8
0
100
AcDbSpline
 62
7
  6
CONTINUOUS
 70
0
 71
3
 72
9
 73
5
 74
0
 42
0.0000001
 43
0.0000001
 44
0.0000000001
 40
0.0
 40
0.0
 40
0.0
 40
0.0
 40
0.4997654627
 40
1.0
 40
1.0
 40
1.0
 40
1.0
 10
214.0262141235
 20
412.8087456204
 30
0.0
 10
213.3982035685
 20
412.4461657217
 30
0.0
 10
211.9100064675
 20
412.1582555989
 30
0.0
 10
210.4217674538
 20
412.4432028184
 30
0.0
 10
209.7919407268
 20
412.8039899211
 30
0.0
  0
SPLINE
  5
23A
100
AcDbEntity
  8
0
100
AcDbSpline
 62
7
  6
CONTINUOUS
 70
0
 71
3
 72
9
 73
5
 74
0
 42
0.0000001
 43
0.0000001
 44
0.0000000001
 40
0.0
 40
0.0
 40
0.0
 40
0.0
 40
0.5510880621
 40
1.0
 40
1.0
 40
1.0
 40
1.0
 10
209.7919407268
 20
412.8039899211
 30
0.0
 10
209.5417134599
 20
412.9473289806
 30
0.0
 10
209.1116269913
 20
413.274149621
 30
0.0
 10
208.9050399082
 20
413.7985603167
 30
0.0
 10
208.9049336044
 20
414.0334677446
 30
0.0
  0
SPLINE
  5
23B
100
AcDbEntity
  8
0
100
AcDbSpline
 62
7
  6
CONTINUOUS
 70
0
 71
3
 72
9
 73
5
 74
0
 42
0.0000001
 43
0.0000001
 44
0.0000000001
 40
0.0
 40
0.0
 40
0.0
 40
0.0
 40
0.4997654627
 40
1.0
 40
1.0
 40
1.0
 40
1.0
 10
296.7573630775
 20
460.5733116233
 30
0.0
 10
296.1293525225
 20
460.2107317246
 30
0.0
 10
294.6411554215
 20
459.9228216018
 30
0.0
 10
293.1529164079
 20
460.2077688214
 30
0.0
 10
292.5230896808
 20
460.5685559241
 30
0.0
  0
SPLINE
  5
23C
100
AcDbEntity
  8
0
100
AcDbSpline
 62
7
  6
CONTINUOUS
 70
0
 71
3
 72
9
 73
5
 74
0
 42
0.0000001
 43
0.0000001
 44
0.0000000001
 40
0.0
 40
0.0
 40
0.0
 40
0.0
 40
0.5510880621
 40
1.0
 40
1.0
 40
1.0
 40
1.0
 10
292.5230896808
 20
460.5685559241
 30
0.0
 10
292.2728624139
 20
460.7118949835
 30
0.0
 10
291.8427759453
 20
461.0387156239
 30
0.0
 10
291.6361888622
 20
461.5631263197
 30
0.0
 10
291.6360825584
 20
461.7980337475
 30
0.0
  0
SPLINE
  5
23D
100
AcDbEntity
  8
0
100
AcDbSpline
 62
7
  6
CONTINUOUS
 70
0
 71
3
 72
9
 73
5
 74
0
 42
0.0000001
 43
0.0000001
 44
0.0000000001
 40
0.0
 40
0.0
 40
0.0
 40
0.0
 40
0.2342652181
 40
1.0
 40
1.0
 40
1.0
 40
1.0
 10
214.9048362918
 20
414.0334680233
 30
0.0
 10
214.9048706483
 20
413.957547967
 30
0.0
 10
214.8679443512
 20
413.6326976837
 30
0.0
 10
214.6767595001
 20
413.3410180699
 30
0.0
 10
214.5009336686
 20
413.1658971318
 30
0.0
  0
SPLINE
  5
23E
100
AcDbEntity
  8
0
100
AcDbSpline
 62
7
  6
CONTINUOUS
 70
0
 71
3
 72
9
 73
5
 74
0
 42
0.0000001
 43
0.0000001
 44
0.0000000001
 40
0.0
 40
0.0
 40
0.0
 40
0.0
 40
0.2375448916
 40
1.0
 40
1.0
 40
1.0
 40
1.0
 10
214.5009336686
 20
413.1658971318
 30
0.0
 10
214.4675512765
 20
413.1326485712
 30
0.0
 10
214.3217206852
 20
412.9980248311
 30
0.0
 10
214.1571810889
 20
412.8843589817
 30
0.0
 10
214.0262141235
 20
412.8087456204
 30
0.0
  0
SPLINE
  5
23F
100
AcDbEntity
  8
0
100
AcDbSpline
 62
7
  6
CONTINUOUS
 70
0
 71
3
 72
9
 73
5
 74
0
 42
0.0000001
 43
0.0000001
 44
0.0000000001
 40
0.0
 40
0.0
 40
0.0
 40
0.0
 40
0.2303435212
 40
1.0
 40
1.0
 40
1.0
 40
1.0
 10
214.675520342
 20
413.4728255869
 30
0.0
 10
214.6373223209
 20
413.5259447962
 30
0.0
 10
214.4558705342
 20
413.7453339729
 30
0.0
 10
214.2233711532
 20
413.9186678791
 30
0.0
 10
214.0344160961
 20
414.0286159711
 30
0.0
  0
SPLINE
  5
240
100
AcDbEntity
  8
0
100
AcDbSpline
 62
7
  6
CONTINUOUS
 70
0
 71
3
 72
9
 73
5
 74
0
 42
0.0000001
 43
0.0000001
 44
0.0000000001
 40
0.0
 40
0.0
 40
0.0
 40
0.0
 40
0.4997042732
 40
1.0
 40
1.0
 40
1.0
 40
1.0
 10
214.0344160961
 20
414.0286159711
 30
0.0
 10
213.4050716866
 20
414.3948153099
 30
0.0
 10
211.9100402313
 20
414.6850439556
 30
0.0
 10
210.4148839627
 20
414.3979318465
 30
0.0
 10
209.7835557726
 20
414.0334365218
 30
0.0
  0
SPLINE
  5
241
100
AcDbEntity
  8
0
100
AcDbSpline
 62
7
  6
CONTINUOUS
 70
0
 71
3
 72
9
 73
5
 74
0
 42
0.0000001
 43
0.0000001
 44
0.0000000001
 40
0.0
 40
0.0
 40
0.0
 40
0.0
 40
0.2342652181
 40
1.0
 40
1.0
 40
1.0
 40
1.0
 10
297.6359852458
 20
461.7980340262
 30
0.0
 10
297.6360196023
 20
461.72211397
 30
0.0
 10
297.5990933053
 20
461.3972636867
 30
0.0
 10
297.4079084542
 20
461.1055840729
 30
0.0
 10
297.2320826226
 20
460.9304631348
 30
0.0
  0
SPLINE
  5
242
100
AcDbEntity
  8
0
100
AcDbSpline
 62
7
  6
CONTINUOUS
 70
0
 71
3
 72
9
 73
5
 74
0
 42
0.0000001
 43
0.0000001
 44
0.0000000001
 40
0.0
 40
0.0
 40
0.0
 40
0.0
 40
0.2375448916
 40
1.0
 40
1.0
 40
1.0
 40
1.0
 10
297.2320826226
 20
460.9304631348
 30
0.0
 10
297.1987002305
 20
460.8972145742
 30
0.0
 10
297.0528696392
 20
460.7625908341
 30
0.0
 10
296.8883300429
 20
460.6489249847
 30
0.0
 10
296.7573630775
 20
460.5733116233
 30
0.0
  0
SPLINE
  5
243
100
AcDbEntity
  8
0
100
AcDbSpline
 62
7
  6
CONTINUOUS
 70
0
 71
3
 72
9
 73
5
 74
0
 42
0.0000001
 43
0.0000001
 44
0.0000000001
 40
0.0
 40
0.0
 40
0.0
 40
0.0
 40
0.2303435212
 40
1.0
 40
1.0
 40
1.0
 40
1.0
 10
297.406669296
 20
461.2373915899
 30
0.0
 10
297.3684712749
 20
461.2905107991
 30
0.0
 10
297.1870194882
 20
461.5098999758
 30
0.0
 10
296.9545201072
 20
461.6832338821
 30
0.0
 10
296.7655650501
 20
461.793181974
 30
0.0
  0
SPLINE
  5
244
100
AcDbEntity
  8
0
100
AcDbSpline
 62
7
  6
CONTINUOUS
 70
0
 71
3
 72
9
 73
5
 74
0
 42
0.0000001
 43
0.0000001
 44
0.0000000001
 40
0.0
 40
0.0
 40
0.0
 40
0.0
 40
0.4997042732
 40
1.0
 40
1.0
 40
1.0
 40
1.0
 10
296.7655650501
 20
461.793181974
 30
0.0
 10
296.1362206406
 20
462.1593813129
 30
0.0
 10
294.6411891853
 20
462.4496099586
 30
0.0
 10
293.1460329167
 20
462.1624978495
 30
0.0
 10
292.5147047267
 20
461.7980025248
 30
0.0
  0
SPLINE
  5
245
100
AcDbEntity
  8
0
100
AcDbSpline
 62
7
  6
CONTINUOUS
 70
0
 71
3
 72
11
 73
7
 74
0
 42
0.0000001
 43
0.0000001
 44
0.0000000001
 40
0.0
 40
0.0
 40
0.0
 40
0.0
 40
0.2876907917
 40
0.5461448129
 40
0.7801719915
 40
1.0
 40
1.0
 40
1.0
 40
1.0
 10
74.0793823488
 20
487.0876335931
 30
0.0
 10
73.0723927053
 20
487.714270254
 30
0.0
 10
71.2479890351
 20
489.0584197537
 30
0.0
 10
69.0824519416
 20
491.473717548
 30
0.0
 10
67.7198914549
 20
494.1172893516
 30
0.0
 10
67.4034162527
 20
496.0001016214
 30
0.0
 10
67.4034162411
 20
496.9063725775
 30
0.0
  0
SPLINE
  5
246
100
AcDbEntity
  8
0
100
AcDbSpline
 62
7
  6
CONTINUOUS
 70
0
 71
3
 72
11
 73
7
 74
0
 42
0.0000001
 43
0.0000001
 44
0.0000000001
 40
0.0
 40
0.0
 40
0.0
 40
0.0
 40
0.2372279391
 40
0.4999994739
 40
0.762771295
 40
1.0
 40
1.0
 40
1.0
 40
1.0
 10
460.1002895479
 20
284.6211802269
 30
0.0
 10
457.5906871709
 20
283.1722692677
 30
0.0
 10
451.7543937976
 20
281.05773083
 30
0.0
 10
442.4226478115
 20
280.044817801
 30
0.0
 10
433.0908877453
 20
281.0576882449
 30
0.0
 10
427.254571417
 20
283.1721977031
 30
0.0
 10
424.7449504889
 20
284.6210952431
 30
0.0
  0
SPLINE
  5
247
100
AcDbEntity
  8
0
100
AcDbSpline
 62
7
  6
CONTINUOUS
 70
0
 71
3
 72
9
 73
5
 74
0
 42
0.0000001
 43
0.0000001
 44
0.0000000001
 40
0.0
 40
0.0
 40
0.0
 40
0.0
 40
0.2342652181
 40
1.0
 40
1.0
 40
1.0
 40
1.0
 10
212.7828182282
 20
510.7869245687
 30
0.0
 10
212.7828525847
 20
510.7110045124
 30
0.0
 10
212.7459262876
 20
510.3861542291
 30
0.0
 10
212.5547414365
 20
510.0944746153
 30
0.0
 10
212.378915605
 20
509.9193536772
 30
0.0
  0
SPLINE
  5
248
100
AcDbEntity
  8
0
100
AcDbSpline
 62
7
  6
CONTINUOUS
 70
0
 71
3
 72
9
 73
5
 74
0
 42
0.0000001
 43
0.0000001
 44
0.0000000001
 40
0.0
 40
0.0
 40
0.0
 40
0.0
 40
0.2375448916
 40
1.0
 40
1.0
 40
1.0
 40
1.0
 10
212.378915605
 20
509.9193536772
 30
0.0
 10
212.3455332129
 20
509.8861051166
 30
0.0
 10
212.1997026216
 20
509.7514813765
 30
0.0
 10
212.0351630252
 20
509.6378155271
 30
0.0
 10
211.9041960599
 20
509.5622021658
 30
0.0
  0
SPLINE
  5
249
100
AcDbEntity
  8
0
100
AcDbSpline
 62
7
  6
CONTINUOUS
 70
0
 71
3
 72
9
 73
5
 74
0
 42
0.0000001
 43
0.0000001
 44
0.0000000001
 40
0.0
 40
0.0
 40
0.0
 40
0.0
 40
0.2303435212
 40
1.0
 40
1.0
 40
1.0
 40
1.0
 10
212.5535022784
 20
510.2262821324
 30
0.0
 10
212.5153042573
 20
510.2794013416
 30
0.0
 10
212.3338524706
 20
510.4987905183
 30
0.0
 10
212.1013530896
 20
510.6721244245
 30
0.0
 10
211.9123980324
 20
510.7820725165
 30
0.0
  0
SPLINE
  5
24A
100
AcDbEntity
  8
0
100
AcDbSpline
 62
7
  6
CONTINUOUS
 70
0
 71
3
 72
9
 73
5
 74
0
 42
0.0000001
 43
0.0000001
 44
0.0000000001
 40
0.0
 40
0.0
 40
0.0
 40
0.0
 40
0.4997042732
 40
1.0
 40
1.0
 40
1.0
 40
1.0
 10
211.9123980324
 20
510.7820725165
 30
0.0
 10
211.283053623
 20
511.1482718554
 30
0.0
 10
209.7880221677
 20
511.438500501
 30
0.0
 10
208.2928658991
 20
511.1513883919
 30
0.0
 10
207.661537709
 20
510.7868930672
 30
0.0
  0
SPLINE
  5
24B
100
AcDbEntity
  8
0
100
AcDbSpline
 62
7
  6
CONTINUOUS
 70
0
 71
3
 72
9
 73
5
 74
0
 42
0.0000001
 43
0.0000001
 44
0.0000000001
 40
0.0
 40
0.0
 40
0.0
 40
0.0
 40
0.2627946494
 40
1.0
 40
1.0
 40
1.0
 40
1.0
 10
377.3678717443
 20
412.8091119823
 30
0.0
 10
377.3227369377
 20
412.7830535451
 30
0.0
 10
377.1538925782
 20
412.6790745312
 30
0.0
 10
376.9967465715
 20
412.5551450449
 30
0.0
 10
376.8931568982
 20
412.4519747912
 30
0.0
  0
SPLINE
  5
24C
100
AcDbEntity
  8
0
100
AcDbSpline
 62
7
  6
CONTINUOUS
 70
0
 71
3
 72
8
 73
4
 74
0
 42
0.0000001
 43
0.0000001
 44
0.0000000001
 40
0.0
 40
0.0
 40
0.0
 40
0.0
 40
1.0
 40
1.0
 40
1.0
 40
1.0
 10
376.8931568982
 20
412.4519747912
 30
0.0
 10
376.8300279923
 20
412.389101485
 30
0.0
 10
376.771143631
 20
412.3214512042
 30
0.0
 10
376.7190172369
 20
412.2491936757
 30
0.0
  0
SPLINE
  5
24D
100
AcDbEntity
  8
0
100
AcDbSpline
 62
7
  6
CONTINUOUS
 70
0
 71
3
 72
9
 73
5
 74
0
 42
0.0000001
 43
0.0000001
 44
0.0000000001
 40
0.0
 40
0.0
 40
0.0
 40
0.0
 40
0.2627946494
 40
1.0
 40
1.0
 40
1.0
 40
1.0
 10
294.6367227903
 20
365.0445459794
 30
0.0
 10
294.5915879837
 20
365.0184875422
 30
0.0
 10
294.4227436242
 20
364.9145085282
 30
0.0
 10
294.2655976175
 20
364.790579042
 30
0.0
 10
294.1620079442
 20
364.6874087882
 30
0.0
  0
SPLINE
  5
24E
100
AcDbEntity
  8
0
100
AcDbSpline
 62
7
  6
CONTINUOUS
 70
0
 71
3
 72
8
 73
4
 74
0
 42
0.0000001
 43
0.0000001
 44
0.0000000001
 40
0.0
 40
0.0
 40
0.0
 40
0.0
 40
1.0
 40
1.0
 40
1.0
 40
1.0
 10
294.1620079442
 20
364.6874087882
 30
0.0
 10
294.0988790383
 20
364.6245354821
 30
0.0
 10
294.039994677
 20
364.5568852012
 30
0.0
 10
293.9878682829
 20
364.4846276728
 30
0.0
  0
SPLINE
  5
24F
100
AcDbEntity
  8
0
100
AcDbSpline
 62
7
  6
CONTINUOUS
 70
0
 71
3
 72
9
 73
5
 74
0
 42
0.0000001
 43
0.0000001
 44
0.0000000001
 40
0.0
 40
0.0
 40
0.0
 40
0.0
 40
0.2342652181
 40
1.0
 40
1.0
 40
1.0
 40
1.0
 10
130.0516692742
 20
463.0223585657
 30
0.0
 10
130.0517036307
 20
462.9464385095
 30
0.0
 10
130.0147773336
 20
462.6215882262
 30
0.0
 10
129.8235924825
 20
462.3299086123
 30
0.0
 10
129.647766651
 20
462.1547876743
 30
0.0
  0
SPLINE
  5
250
100
AcDbEntity
  8
0
100
AcDbSpline
 62
7
  6
CONTINUOUS
 70
0
 71
3
 72
9
 73
5
 74
0
 42
0.0000001
 43
0.0000001
 44
0.0000000001
 40
0.0
 40
0.0
 40
0.0
 40
0.0
 40
0.2375448916
 40
1.0
 40
1.0
 40
1.0
 40
1.0
 10
129.647766651
 20
462.1547876743
 30
0.0
 10
129.6143842588
 20
462.1215391136
 30
0.0
 10
129.4685536676
 20
461.9869153735
 30
0.0
 10
129.3040140712
 20
461.8732495241
 30
0.0
 10
129.1730471059
 20
461.7976361628
 30
0.0
  0
SPLINE
  5
251
100
AcDbEntity
  8
0
100
AcDbSpline
 62
7
  6
CONTINUOUS
 70
0
 71
3
 72
9
 73
5
 74
0
 42
0.0000001
 43
0.0000001
 44
0.0000000001
 40
0.0
 40
0.0
 40
0.0
 40
0.0
 40
0.2627946494
 40
1.0
 40
1.0
 40
1.0
 40
1.0
 10
481.6669006476
 20
304.8292335497
 30
0.0
 10
481.621765841
 20
304.8031751125
 30
0.0
 10
481.4529214815
 20
304.6991960985
 30
0.0
 10
481.2957754748
 20
304.5752666123
 30
0.0
 10
481.1921858015
 20
304.4720963585
 30
0.0
  0
SPLINE
  5
252
100
AcDbEntity
  8
0
100
AcDbSpline
 62
7
  6
CONTINUOUS
 70
0
 71
3
 72
8
 73
4
 74
0
 42
0.0000001
 43
0.0000001
 44
0.0000000001
 40
0.0
 40
0.0
 40
0.0
 40
0.0
 40
1.0
 40
1.0
 40
1.0
 40
1.0
 10
481.1921858015
 20
304.4720963585
 30
0.0
 10
481.1290568956
 20
304.4092230524
 30
0.0
 10
481.0701725343
 20
304.3415727715
 30
0.0
 10
481.0180461402
 20
304.2693152431
 30
0.0
  0
SPLINE
  5
253
100
AcDbEntity
  8
0
100
AcDbSpline
 62
7
  6
CONTINUOUS
 70
0
 71
3
 72
9
 73
5
 74
0
 42
0.0000001
 43
0.0000001
 44
0.0000000001
 40
0.0
 40
0.0
 40
0.0
 40
0.0
 40
0.2303435212
 40
1.0
 40
1.0
 40
1.0
 40
1.0
 10
129.8223533244
 20
462.4617161294
 30
0.0
 10
129.7841553033
 20
462.5148353386
 30
0.0
 10
129.6027035166
 20
462.7342245153
 30
0.0
 10
129.3702041355
 20
462.9075584216
 30
0.0
 10
129.1812490784
 20
463.0175065135
 30
0.0
  0
SPLINE
  5
254
100
AcDbEntity
  8
0
100
AcDbSpline
 62
7
  6
CONTINUOUS
 70
0
 71
3
 72
9
 73
5
 74
0
 42
0.0000001
 43
0.0000001
 44
0.0000000001
 40
0.0
 40
0.0
 40
0.0
 40
0.0
 40
0.4997042732
 40
1.0
 40
1.0
 40
1.0
 40
1.0
 10
129.1812490784
 20
463.0175065135
 30
0.0
 10
128.551904669
 20
463.3837058524
 30
0.0
 10
127.0568732136
 20
463.673934498
 30
0.0
 10
125.561716945
 20
463.3868223889
 30
0.0
 10
124.930388755
 20
463.0223270642
 30
0.0
  0
SPLINE
  5
255
100
AcDbEntity
  8
0
100
AcDbSpline
 62
7
  6
CONTINUOUS
 70
0
 71
3
 72
9
 73
5
 74
0
 42
0.0000001
 43
0.0000001
 44
0.0000000001
 40
0.0
 40
0.0
 40
0.0
 40
0.0
 40
0.2627946494
 40
1.0
 40
1.0
 40
1.0
 40
1.0
 10
105.4845268694
 20
522.0133149545
 30
0.0
 10
105.4393920628
 20
521.9872565173
 30
0.0
 10
105.2705477033
 20
521.8832775033
 30
0.0
 10
105.1134016966
 20
521.7593480171
 30
0.0
 10
105.0098120233
 20
521.6561777633
 30
0.0
  0
SPLINE
  5
256
100
AcDbEntity
  8
0
100
AcDbSpline
 62
7
  6
CONTINUOUS
 70
0
 71
3
 72
8
 73
4
 74
0
 42
0.0000001
 43
0.0000001
 44
0.0000000001
 40
0.0
 40
0.0
 40
0.0
 40
0.0
 40
1.0
 40
1.0
 40
1.0
 40
1.0
 10
105.0098120233
 20
521.6561777633
 30
0.0
 10
104.9466831174
 20
521.5933044572
 30
0.0
 10
104.8877987561
 20
521.5256541763
 30
0.0
 10
104.835672362
 20
521.4533966479
 30
0.0
  0
SPLINE
  5
257
100
AcDbEntity
  8
0
100
AcDbSpline
 62
7
  6
CONTINUOUS
 70
0
 71
3
 72
9
 73
5
 74
0
 42
0.0000001
 43
0.0000001
 44
0.0000000001
 40
0.0
 40
0.0
 40
0.0
 40
0.0
 40
0.2627946494
 40
1.0
 40
1.0
 40
1.0
 40
1.0
 10
379.4898898079
 20
316.0556554369
 30
0.0
 10
379.4447550013
 20
316.0295969997
 30
0.0
 10
379.2759106418
 20
315.9256179858
 30
0.0
 10
379.1187646351
 20
315.8016884995
 30
0.0
 10
379.0151749618
 20
315.6985182458
 30
0.0
  0
SPLINE
  5
258
100
AcDbEntity
  8
0
100
AcDbSpline
 62
7
  6
CONTINUOUS
 70
0
 71
3
 72
8
 73
4
 74
0
 42
0.0000001
 43
0.0000001
 44
0.0000000001
 40
0.0
 40
0.0
 40
0.0
 40
0.0
 40
1.0
 40
1.0
 40
1.0
 40
1.0
 10
379.0151749618
 20
315.6985182458
 30
0.0
 10
378.9520460559
 20
315.6356449396
 30
0.0
 10
378.8931616947
 20
315.5679946588
 30
0.0
 10
378.8410353006
 20
315.4957371303
 30
0.0
  0
SPLINE
  5
259
100
AcDbEntity
  8
0
100
AcDbSpline
 62
7
  6
CONTINUOUS
 70
0
 71
3
 72
9
 73
5
 74
0
 42
0.0000001
 43
0.0000001
 44
0.0000000001
 40
0.0
 40
0.0
 40
0.0
 40
0.0
 40
0.2303435212
 40
1.0
 40
1.0
 40
1.0
 40
1.0
 10
467.1130033313
 20
363.259610505
 30
0.0
 10
467.0748053102
 20
363.3127297143
 30
0.0
 10
466.8933535235
 20
363.532118891
 30
0.0
 10
466.6608541425
 20
363.7054527972
 30
0.0
 10
466.4718990854
 20
363.8154008892
 30
0.0
  0
SPLINE
  5
25A
100
AcDbEntity
  8
0
100
AcDbSpline
 62
7
  6
CONTINUOUS
 70
0
 71
3
 72
9
 73
5
 74
0
 42
0.0000001
 43
0.0000001
 44
0.0000000001
 40
0.0
 40
0.0
 40
0.0
 40
0.0
 40
0.4997042732
 40
1.0
 40
1.0
 40
1.0
 40
1.0
 10
466.4718990854
 20
363.8154008892
 30
0.0
 10
465.8425546759
 20
364.181600228
 30
0.0
 10
464.3475232206
 20
364.4718288737
 30
0.0
 10
462.852366952
 20
364.1847167646
 30
0.0
 10
462.2210387619
 20
363.8202214399
 30
0.0
  0
SPLINE
  5
25B
100
AcDbEntity
  8
0
100
AcDbSpline
 62
7
  6
CONTINUOUS
 70
0
 71
3
 72
9
 73
5
 74
0
 42
0.0000001
 43
0.0000001
 44
0.0000000001
 40
0.0
 40
0.0
 40
0.0
 40
0.0
 40
0.2627946494
 40
1.0
 40
1.0
 40
1.0
 40
1.0
 10
462.2210387619
 20
363.8202214399
 30
0.0
 10
462.1759039553
 20
363.7941630027
 30
0.0
 10
462.0070595958
 20
363.6901839887
 30
0.0
 10
461.8499135892
 20
363.5662545025
 30
0.0
 10
461.7463239158
 20
363.4630842487
 30
0.0
  0
SPLINE
  5
25C
100
AcDbEntity
  8
0
100
AcDbSpline
 62
7
  6
CONTINUOUS
 70
0
 71
3
 72
8
 73
4
 74
0
 42
0.0000001
 43
0.0000001
 44
0.0000000001
 40
0.0
 40
0.0
 40
0.0
 40
0.0
 40
1.0
 40
1.0
 40
1.0
 40
1.0
 10
461.7463239158
 20
363.4630842487
 30
0.0
 10
461.68319501
 20
363.4002109426
 30
0.0
 10
461.6243106487
 20
363.3325606617
 30
0.0
 10
461.5721842546
 20
363.2603031333
 30
0.0
  0
SPLINE
  5
25D
100
AcDbEntity
  8
0
100
AcDbSpline
 62
7
  6
CONTINUOUS
 70
0
 71
3
 72
9
 73
5
 74
0
 42
0.0000001
 43
0.0000001
 44
0.0000000001
 40
0.0
 40
0.0
 40
0.0
 40
0.0
 40
0.2342652181
 40
1.0
 40
1.0
 40
1.0
 40
1.0
 10
467.3423192811
 20
363.8202529414
 30
0.0
 10
467.3423536376
 20
363.7443328851
 30
0.0
 10
467.3054273405
 20
363.4194826018
 30
0.0
 10
467.1142424894
 20
363.127802988
 30
0.0
 10
466.9384166579
 20
362.9526820499
 30
0.0
  0
SPLINE
  5
25E
100
AcDbEntity
  8
0
100
AcDbSpline
 62
7
  6
CONTINUOUS
 70
0
 71
3
 72
9
 73
5
 74
0
 42
0.0000001
 43
0.0000001
 44
0.0000000001
 40
0.0
 40
0.0
 40
0.0
 40
0.0
 40
0.2375448916
 40
1.0
 40
1.0
 40
1.0
 40
1.0
 10
466.9384166579
 20
362.9526820499
 30
0.0
 10
466.9050342658
 20
362.9194334893
 30
0.0
 10
466.7592036745
 20
362.7848097492
 30
0.0
 10
466.5946640782
 20
362.6711438998
 30
0.0
 10
466.4636971128
 20
362.5955305385
 30
0.0
  0
SPLINE
  5
25F
100
AcDbEntity
  8
0
100
AcDbSpline
 62
7
  6
CONTINUOUS
 70
0
 71
3
 72
9
 73
5
 74
0
 42
0.0000001
 43
0.0000001
 44
0.0000000001
 40
0.0
 40
0.0
 40
0.0
 40
0.0
 40
0.2627946494
 40
1.0
 40
1.0
 40
1.0
 40
1.0
 10
124.930388755
 20
463.0223270642
 30
0.0
 10
124.8852539484
 20
462.996268627
 30
0.0
 10
124.7164095889
 20
462.8922896131
 30
0.0
 10
124.5592635822
 20
462.7683601269
 30
0.0
 10
124.4556739089
 20
462.6651898731
 30
0.0
  0
SPLINE
  5
260
100
AcDbEntity
  8
0
100
AcDbSpline
 62
7
  6
CONTINUOUS
 70
0
 71
3
 72
8
 73
4
 74
0
 42
0.0000001
 43
0.0000001
 44
0.0000000001
 40
0.0
 40
0.0
 40
0.0
 40
0.0
 40
1.0
 40
1.0
 40
1.0
 40
1.0
 10
124.4556739089
 20
462.6651898731
 30
0.0
 10
124.392545003
 20
462.602316567
 30
0.0
 10
124.3336606417
 20
462.5346662861
 30
0.0
 10
124.2815342476
 20
462.4624087576
 30
0.0
  0
SPLINE
  5
261
100
AcDbEntity
  8
0
100
AcDbSpline
 62
7
  6
CONTINUOUS
 70
0
 71
3
 72
9
 73
5
 74
0
 42
0.0000001
 43
0.0000001
 44
0.0000000001
 40
0.0
 40
0.0
 40
0.0
 40
0.0
 40
0.2627946494
 40
1.0
 40
1.0
 40
1.0
 40
1.0
 10
207.661537709
 20
510.7868930672
 30
0.0
 10
207.6164029024
 20
510.76083463
 30
0.0
 10
207.4475585429
 20
510.656855616
 30
0.0
 10
207.2904125362
 20
510.5329261298
 30
0.0
 10
207.1868228629
 20
510.429755876
 30
0.0
  0
SPLINE
  5
262
100
AcDbEntity
  8
0
100
AcDbSpline
 62
7
  6
CONTINUOUS
 70
0
 71
3
 72
8
 73
4
 74
0
 42
0.0000001
 43
0.0000001
 44
0.0000000001
 40
0.0
 40
0.0
 40
0.0
 40
0.0
 40
1.0
 40
1.0
 40
1.0
 40
1.0
 10
207.1868228629
 20
510.429755876
 30
0.0
 10
207.123693957
 20
510.3668825699
 30
0.0
 10
207.0648095958
 20
510.299232289
 30
0.0
 10
207.0126832017
 20
510.2269747606
 30
0.0
  0
SPLINE
  5
263
100
AcDbEntity
  8
0
100
AcDbSpline
 62
7
  6
CONTINUOUS
 70
0
 71
3
 72
9
 73
5
 74
0
 42
0.0000001
 43
0.0000001
 44
0.0000000001
 40
0.0
 40
0.0
 40
0.0
 40
0.0
 40
0.2303435212
 40
1.0
 40
1.0
 40
1.0
 40
1.0
 10
384.3818543773
 20
315.4950445021
 30
0.0
 10
384.3436563562
 20
315.5481637113
 30
0.0
 10
384.1622045695
 20
315.767552888
 30
0.0
 10
383.9297051885
 20
315.9408867943
 30
0.0
 10
383.7407501313
 20
316.0508348862
 30
0.0
  0
SPLINE
  5
264
100
AcDbEntity
  8
0
100
AcDbSpline
 62
7
  6
CONTINUOUS
 70
0
 71
3
 72
9
 73
5
 74
0
 42
0.0000001
 43
0.0000001
 44
0.0000000001
 40
0.0
 40
0.0
 40
0.0
 40
0.0
 40
0.4997042732
 40
1.0
 40
1.0
 40
1.0
 40
1.0
 10
383.7407501313
 20
316.0508348862
 30
0.0
 10
383.1114057219
 20
316.4170342251
 30
0.0
 10
381.6163742666
 20
316.7072628707
 30
0.0
 10
380.121217998
 20
316.4201507616
 30
0.0
 10
379.4898898079
 20
316.0556554369
 30
0.0
  0
SPLINE
  5
265
100
AcDbEntity
  8
0
100
AcDbSpline
 62
7
  6
CONTINUOUS
 70
0
 71
3
 72
9
 73
5
 74
0
 42
0.0000001
 43
0.0000001
 44
0.0000000001
 40
0.0
 40
0.0
 40
0.0
 40
0.0
 40
0.2627946494
 40
1.0
 40
1.0
 40
1.0
 40
1.0
 10
292.5147047267
 20
461.7980025248
 30
0.0
 10
292.4695699201
 20
461.7719440876
 30
0.0
 10
292.3007255606
 20
461.6679650736
 30
0.0
 10
292.1435795539
 20
461.5440355874
 30
0.0
 10
292.0399898806
 20
461.4408653336
 30
0.0
  0
SPLINE
  5
266
100
AcDbEntity
  8
0
100
AcDbSpline
 62
7
  6
CONTINUOUS
 70
0
 71
3
 72
8
 73
4
 74
0
 42
0.0000001
 43
0.0000001
 44
0.0000000001
 40
0.0
 40
0.0
 40
0.0
 40
0.0
 40
1.0
 40
1.0
 40
1.0
 40
1.0
 10
292.0399898806
 20
461.4408653336
 30
0.0
 10
291.9768609747
 20
461.3779920275
 30
0.0
 10
291.9179766134
 20
461.3103417466
 30
0.0
 10
291.8658502193
 20
461.2380842182
 30
0.0
  0
SPLINE
  5
267
100
AcDbEntity
  8
0
100
AcDbSpline
 62
7
  6
CONTINUOUS
 70
0
 71
3
 72
9
 73
5
 74
0
 42
0.0000001
 43
0.0000001
 44
0.0000000001
 40
0.0
 40
0.0
 40
0.0
 40
0.0
 40
0.2342652181
 40
1.0
 40
1.0
 40
1.0
 40
1.0
 10
384.6111703271
 20
316.0556869384
 30
0.0
 10
384.6112046836
 20
315.9797668822
 30
0.0
 10
384.5742783865
 20
315.6549165989
 30
0.0
 10
384.3830935354
 20
315.363236985
 30
0.0
 10
384.2072677039
 20
315.188116047
 30
0.0
  0
SPLINE
  5
268
100
AcDbEntity
  8
0
100
AcDbSpline
 62
7
  6
CONTINUOUS
 70
0
 71
3
 72
9
 73
5
 74
0
 42
0.0000001
 43
0.0000001
 44
0.0000000001
 40
0.0
 40
0.0
 40
0.0
 40
0.0
 40
0.2375448916
 40
1.0
 40
1.0
 40
1.0
 40
1.0
 10
384.2072677039
 20
315.188116047
 30
0.0
 10
384.1738853118
 20
315.1548674863
 30
0.0
 10
384.0280547205
 20
315.0202437462
 30
0.0
 10
383.8635151241
 20
314.9065778968
 30
0.0
 10
383.7325481588
 20
314.8309645355
 30
0.0
  0
SPLINE
  5
269
100
AcDbEntity
  8
0
100
AcDbSpline
 62
7
  6
CONTINUOUS
 70
0
 71
3
 72
9
 73
5
 74
0
 42
0.0000001
 43
0.0000001
 44
0.0000000001
 40
0.0
 40
0.0
 40
0.0
 40
0.0
 40
0.2627946494
 40
1.0
 40
1.0
 40
1.0
 40
1.0
 10
209.7835557726
 20
414.0334365218
 30
0.0
 10
209.738420966
 20
414.0073780846
 30
0.0
 10
209.5695766065
 20
413.9033990706
 30
0.0
 10
209.4124305999
 20
413.7794695844
 30
0.0
 10
209.3088409265
 20
413.6762993306
 30
0.0
  0
SPLINE
  5
26A
100
AcDbEntity
  8
0
100
AcDbSpline
 62
7
  6
CONTINUOUS
 70
0
 71
3
 72
8
 73
4
 74
0
 42
0.0000001
 43
0.0000001
 44
0.0000000001
 40
0.0
 40
0.0
 40
0.0
 40
0.0
 40
1.0
 40
1.0
 40
1.0
 40
1.0
 10
209.3088409265
 20
413.6762993306
 30
0.0
 10
209.2457120207
 20
413.6134260245
 30
0.0
 10
209.1868276594
 20
413.5457757436
 30
0.0
 10
209.1347012653
 20
413.4735182152
 30
0.0
  0
SPLINE
  5
26B
100
AcDbEntity
  8
0
100
AcDbSpline
 62
7
  6
CONTINUOUS
 70
0
 71
3
 72
11
 73
7
 74
0
 42
0.0000001
 43
0.0000001
 44
0.0000000001
 40
0.0
 40
0.0
 40
0.0
 40
0.0
 40
0.2177723091
 40
0.4509273687
 40
0.7102218233
 40
1.0
 40
1.0
 40
1.0
 40
1.0
 10
523.9906696267
 20
328.7114850252
 30
0.0
 10
523.9906696145
 20
329.6636611099
 30
0.0
 10
523.6390222409
 20
331.6485286655
 30
0.0
 10
522.1342762917
 20
334.413455273
 30
0.0
 10
519.7561816408
 20
336.9137184293
 30
0.0
 10
517.7657190012
 20
338.2840942617
 30
0.0
 10
516.6684493267
 20
338.9175888721
 30
0.0
  0
SPLINE
  5
26C
100
AcDbEntity
  8
0
100
AcDbSpline
 62
7
  6
CONTINUOUS
 70
0
 71
3
 72
11
 73
7
 74
0
 42
0.0000001
 43
0.0000001
 44
0.0000000001
 40
0.0
 40
0.0
 40
0.0
 40
0.0
 40
0.2198285079
 40
0.4538559024
 40
0.7123097413
 40
1.0
 40
1.0
 40
1.0
 40
1.0
 10
523.9906696267
 20
327.4867313995
 30
0.0
 10
523.9906696383
 20
326.5804713973
 30
0.0
 10
523.6742025079
 20
324.6976834104
 30
0.0
 10
522.3116752027
 20
322.0541407916
 30
0.0
 10
520.1461878945
 20
319.6388640586
 30
0.0
 10
518.3218234477
 20
318.294721326
 30
0.0
 10
517.3148551561
 20
317.6680867448
 30
0.0
  0
SPLINE
  5
26D
100
AcDbEntity
  8
0
100
AcDbSpline
 62
7
  6
CONTINUOUS
 70
0
 71
3
 72
9
 73
5
 74
0
 42
0.0000001
 43
0.0000001
 44
0.0000000001
 40
0.0
 40
0.0
 40
0.0
 40
0.0
 40
0.2342652181
 40
1.0
 40
1.0
 40
1.0
 40
1.0
 10
110.6058073885
 20
522.0133464559
 30
0.0
 10
110.605841745
 20
521.9374263997
 30
0.0
 10
110.568915448
 20
521.6125761164
 30
0.0
 10
110.3777305969
 20
521.3208965026
 30
0.0
 10
110.2019047653
 20
521.1457755645
 30
0.0
  0
SPLINE
  5
26E
100
AcDbEntity
  8
0
100
AcDbSpline
 62
7
  6
CONTINUOUS
 70
0
 71
3
 72
9
 73
5
 74
0
 42
0.0000001
 43
0.0000001
 44
0.0000000001
 40
0.0
 40
0.0
 40
0.0
 40
0.0
 40
0.2375448916
 40
1.0
 40
1.0
 40
1.0
 40
1.0
 10
110.2019047653
 20
521.1457755645
 30
0.0
 10
110.1685223732
 20
521.1125270039
 30
0.0
 10
110.0226917819
 20
520.9779032638
 30
0.0
 10
109.8581521856
 20
520.8642374144
 30
0.0
 10
109.7271852203
 20
520.788624053
 30
0.0
  0
SPLINE
  5
26F
100
AcDbEntity
  8
0
100
AcDbSpline
 62
7
  6
CONTINUOUS
 70
0
 71
3
 72
9
 73
5
 74
0
 42
0.0000001
 43
0.0000001
 44
0.0000000001
 40
0.0
 40
0.0
 40
0.0
 40
0.0
 40
0.2342652181
 40
1.0
 40
1.0
 40
1.0
 40
1.0
 10
382.4891522635
 20
412.8091434838
 30
0.0
 10
382.48918662
 20
412.7332234276
 30
0.0
 10
382.4522603229
 20
412.4083731443
 30
0.0
 10
382.2610754718
 20
412.1166935304
 30
0.0
 10
382.0852496403
 20
411.9415725924
 30
0.0
  0
SPLINE
  5
270
100
AcDbEntity
  8
0
100
AcDbSpline
 62
7
  6
CONTINUOUS
 70
0
 71
3
 72
9
 73
5
 74
0
 42
0.0000001
 43
0.0000001
 44
0.0000000001
 40
0.0
 40
0.0
 40
0.0
 40
0.0
 40
0.2375448916
 40
1.0
 40
1.0
 40
1.0
 40
1.0
 10
382.0852496403
 20
411.9415725924
 30
0.0
 10
382.0518672481
 20
411.9083240317
 30
0.0
 10
381.9060366569
 20
411.7737002916
 30
0.0
 10
381.7414970605
 20
411.6600344422
 30
0.0
 10
381.6105300952
 20
411.5844210809
 30
0.0
  0
SPLINE
  5
271
100
AcDbEntity
  8
0
100
AcDbSpline
 62
7
  6
CONTINUOUS
 70
0
 71
3
 72
9
 73
5
 74
0
 42
0.0000001
 43
0.0000001
 44
0.0000000001
 40
0.0
 40
0.0
 40
0.0
 40
0.0
 40
0.2303435212
 40
1.0
 40
1.0
 40
1.0
 40
1.0
 10
382.2598363137
 20
412.2485010475
 30
0.0
 10
382.2216382926
 20
412.3016202567
 30
0.0
 10
382.0401865059
 20
412.5210094334
 30
0.0
 10
381.8076871248
 20
412.6943433397
 30
0.0
 10
381.6187320677
 20
412.8042914316
 30
0.0
  0
SPLINE
  5
272
100
AcDbEntity
  8
0
100
AcDbSpline
 62
7
  6
CONTINUOUS
 70
0
 71
3
 72
9
 73
5
 74
0
 42
0.0000001
 43
0.0000001
 44
0.0000000001
 40
0.0
 40
0.0
 40
0.0
 40
0.0
 40
0.4997042732
 40
1.0
 40
1.0
 40
1.0
 40
1.0
 10
381.6187320677
 20
412.8042914316
 30
0.0
 10
380.9893876583
 20
413.1704907705
 30
0.0
 10
379.4943562029
 20
413.4607194161
 30
0.0
 10
377.9991999343
 20
413.173607307
 30
0.0
 10
377.3678717443
 20
412.8091119823
 30
0.0
  0
SPLINE
  5
273
100
AcDbEntity
  8
0
100
AcDbSpline
 62
7
  6
CONTINUOUS
 70
0
 71
3
 72
9
 73
5
 74
0
 42
0.0000001
 43
0.0000001
 44
0.0000000001
 40
0.0
 40
0.0
 40
0.0
 40
0.0
 40
0.2303435212
 40
1.0
 40
1.0
 40
1.0
 40
1.0
 10
110.3764914387
 20
521.4527040196
 30
0.0
 10
110.3382934176
 20
521.5058232288
 30
0.0
 10
110.156841631
 20
521.7252124055
 30
0.0
 10
109.9243422499
 20
521.8985463118
 30
0.0
 10
109.7353871928
 20
522.0084944037
 30
0.0
  0
SPLINE
  5
274
100
AcDbEntity
  8
0
100
AcDbSpline
 62
7
  6
CONTINUOUS
 70
0
 71
3
 72
9
 73
5
 74
0
 42
0.0000001
 43
0.0000001
 44
0.0000000001
 40
0.0
 40
0.0
 40
0.0
 40
0.0
 40
0.4997042732
 40
1.0
 40
1.0
 40
1.0
 40
1.0
 10
109.7353871928
 20
522.0084944037
 30
0.0
 10
109.1060427833
 20
522.3746937426
 30
0.0
 10
107.611011328
 20
522.6649223883
 30
0.0
 10
106.1158550594
 20
522.3778102792
 30
0.0
 10
105.4845268694
 20
522.0133149545
 30
0.0
  0
SPLINE
  5
275
100
AcDbEntity
  8
0
100
AcDbSpline
 62
7
  6
CONTINUOUS
 70
0
 71
3
 72
9
 73
5
 74
0
 42
0.0000001
 43
0.0000001
 44
0.0000000001
 40
0.0
 40
0.0
 40
0.0
 40
0.0
 40
0.2303435212
 40
1.0
 40
1.0
 40
1.0
 40
1.0
 10
486.5588652169
 20
304.2686226148
 30
0.0
 10
486.5206671958
 20
304.321741824
 30
0.0
 10
486.3392154091
 20
304.5411310007
 30
0.0
 10
486.1067160281
 20
304.714464907
 30
0.0
 10
485.917760971
 20
304.8244129989
 30
0.0
  0
SPLINE
  5
276
100
AcDbEntity
  8
0
100
AcDbSpline
 62
7
  6
CONTINUOUS
 70
0
 71
3
 72
9
 73
5
 74
0
 42
0.0000001
 43
0.0000001
 44
0.0000000001
 40
0.0
 40
0.0
 40
0.0
 40
0.0
 40
0.4997042732
 40
1.0
 40
1.0
 40
1.0
 40
1.0
 10
485.917760971
 20
304.8244129989
 30
0.0
 10
485.2884165615
 20
305.1906123378
 30
0.0
 10
483.7933851062
 20
305.4808409835
 30
0.0
 10
482.2982288376
 20
305.1937288744
 30
0.0
 10
481.6669006476
 20
304.8292335497
 30
0.0
  0
SPLINE
  5
277
100
AcDbEntity
  8
0
100
AcDbSpline
 62
7
  6
CONTINUOUS
 70
0
 71
3
 72
9
 73
5
 74
0
 42
0.0000001
 43
0.0000001
 44
0.0000000001
 40
0.0
 40
0.0
 40
0.0
 40
0.0
 40
0.2342652181
 40
1.0
 40
1.0
 40
1.0
 40
1.0
 10
299.7580033094
 20
365.0445774808
 30
0.0
 10
299.7580376659
 20
364.9686574246
 30
0.0
 10
299.7211113689
 20
364.6438071413
 30
0.0
 10
299.5299265178
 20
364.3521275275
 30
0.0
 10
299.3541006862
 20
364.1770065894
 30
0.0
  0
SPLINE
  5
278
100
AcDbEntity
  8
0
100
AcDbSpline
 62
7
  6
CONTINUOUS
 70
0
 71
3
 72
9
 73
5
 74
0
 42
0.0000001
 43
0.0000001
 44
0.0000000001
 40
0.0
 40
0.0
 40
0.0
 40
0.0
 40
0.2375448916
 40
1.0
 40
1.0
 40
1.0
 40
1.0
 10
299.3541006862
 20
364.1770065894
 30
0.0
 10
299.3207182941
 20
364.1437580288
 30
0.0
 10
299.1748877028
 20
364.0091342887
 30
0.0
 10
299.0103481065
 20
363.8954684393
 30
0.0
 10
298.8793811412
 20
363.8198550779
 30
0.0
  0
SPLINE
  5
279
100
AcDbEntity
  8
0
100
AcDbSpline
 62
7
  6
CONTINUOUS
 70
0
 71
3
 72
9
 73
5
 74
0
 42
0.0000001
 43
0.0000001
 44
0.0000000001
 40
0.0
 40
0.0
 40
0.0
 40
0.0
 40
0.2303435212
 40
1.0
 40
1.0
 40
1.0
 40
1.0
 10
299.5286873596
 20
364.4839350445
 30
0.0
 10
299.4904893385
 20
364.5370542537
 30
0.0
 10
299.3090375519
 20
364.7564434304
 30
0.0
 10
299.0765381708
 20
364.9297773367
 30
0.0
 10
298.8875831137
 20
365.0397254286
 30
0.0
  0
SPLINE
  5
27A
100
AcDbEntity
  8
0
100
AcDbSpline
 62
7
  6
CONTINUOUS
 70
0
 71
3
 72
9
 73
5
 74
0
 42
0.0000001
 43
0.0000001
 44
0.0000000001
 40
0.0
 40
0.0
 40
0.0
 40
0.0
 40
0.4997042732
 40
1.0
 40
1.0
 40
1.0
 40
1.0
 10
298.8875831137
 20
365.0397254286
 30
0.0
 10
298.2582387042
 20
365.4059247675
 30
0.0
 10
296.7632072489
 20
365.6961534132
 30
0.0
 10
295.2680509803
 20
365.4090413041
 30
0.0
 10
294.6367227903
 20
365.0445459794
 30
0.0
  0
SPLINE
  5
27B
100
AcDbEntity
  8
0
100
AcDbSpline
 62
7
  6
CONTINUOUS
 70
0
 71
3
 72
9
 73
5
 74
0
 42
0.0000001
 43
0.0000001
 44
0.0000000001
 40
0.0
 40
0.0
 40
0.0
 40
0.0
 40
0.2342652181
 40
1.0
 40
1.0
 40
1.0
 40
1.0
 10
486.7881811667
 20
304.8292650511
 30
0.0
 10
486.7882155232
 20
304.7533449949
 30
0.0
 10
486.7512892262
 20
304.4284947116
 30
0.0
 10
486.5601043751
 20
304.1368150978
 30
0.0
 10
486.3842785435
 20
303.9616941597
 30
0.0
  0
SPLINE
  5
27C
100
AcDbEntity
  8
0
100
AcDbSpline
 62
7
  6
CONTINUOUS
 70
0
 71
3
 72
9
 73
5
 74
0
 42
0.0000001
 43
0.0000001
 44
0.0000000001
 40
0.0
 40
0.0
 40
0.0
 40
0.0
 40
0.2375448916
 40
1.0
 40
1.0
 40
1.0
 40
1.0
 10
486.3842785435
 20
303.9616941597
 30
0.0
 10
486.3508961514
 20
303.9284455991
 30
0.0
 10
486.2050655601
 20
303.793821859
 30
0.0
 10
486.0405259638
 20
303.6801560096
 30
0.0
 10
485.9095589985
 20
303.6045426482
 30
0.0
  0
SPLINE
  5
27D
100
AcDbEntity
  8
0
100
AcDbSpline
 62
7
  6
CONTINUOUS
 70
0
 71
3
 72
8
 73
4
 74
0
 42
0.0000001
 43
0.0000001
 44
0.0000000001
 40
0.0
 40
0.0
 40
0.0
 40
0.0
 40
1.0
 40
1.0
 40
1.0
 40
1.0
 10
461.3424165937
 20
363.8202526627
 30
0.0
 10
461.3423475372
 20
363.9728518704
 30
0.0
 10
461.3797999433
 20
364.1281423038
 30
0.0
 10
461.4437534281
 20
364.2666936472
 30
0.0
  0
SPLINE
  5
27E
100
AcDbEntity
  8
0
100
AcDbSpline
 62
7
  6
CONTINUOUS
 70
0
 71
3
 72
9
 73
5
 74
0
 42
0.0000001
 43
0.0000001
 44
0.0000000001
 40
0.0
 40
0.0
 40
0.0
 40
0.0
 40
0.2246362028
 40
1.0
 40
1.0
 40
1.0
 40
1.0
 10
461.4437534281
 20
364.2666936472
 30
0.0
 10
461.4785954269
 20
364.3421767231
 30
0.0
 10
461.6691200521
 20
364.6621281751
 30
0.0
 10
461.9725262716
 20
364.9014971688
 30
0.0
 10
462.2210387619
 20
365.0449750656
 30
0.0
  0
SPLINE
  5
27F
100
AcDbEntity
  8
0
100
AcDbSpline
 62
7
  6
CONTINUOUS
 70
0
 71
3
 72
13
 73
9
 74
0
 42
0.0000001
 43
0.0000001
 44
0.0000000001
 40
0.0
 40
0.0
 40
0.0
 40
0.0
 40
0.2699335874
 40
0.5613258182
 40
0.6954698829
 40
0.8131403132
 40
0.9128521763
 40
1.0
 40
1.0
 40
1.0
 40
1.0
 10
462.2210387619
 20
365.0449750656
 30
0.0
 10
462.6851952077
 20
365.3129543149
 30
0.0
 10
463.7946047759
 20
365.6131706468
 30
0.0
 10
465.1973253918
 20
365.5421545235
 30
0.0
 10
466.2272477683
 20
365.1989631273
 30
0.0
 10
466.8295896269
 20
364.8317004814
 30
0.0
 10
467.2376708301
 20
364.3676515513
 30
0.0
 10
467.3422409769
 20
363.9932874331
 30
0.0
 10
467.3423192811
 20
363.8202529414
 30
0.0
  0
SPLINE
  5
280
100
AcDbEntity
  8
0
100
AcDbSpline
 62
7
  6
CONTINUOUS
 70
0
 71
3
 72
13
 73
9
 74
0
 42
0.0000001
 43
0.0000001
 44
0.0000000001
 40
0.0
 40
0.0
 40
0.0
 40
0.0
 40
0.2699335874
 40
0.5613258182
 40
0.6954698829
 40
0.8131403132
 40
0.9128521763
 40
1.0
 40
1.0
 40
1.0
 40
1.0
 10
377.3678717443
 20
414.033865608
 30
0.0
 10
377.8320281901
 20
414.3018448573
 30
0.0
 10
378.9414377583
 20
414.6020611892
 30
0.0
 10
380.3441583741
 20
414.5310450659
 30
0.0
 10
381.3740807506
 20
414.1878536698
 30
0.0
 10
381.9764226092
 20
413.8205910238
 30
0.0
 10
382.3845038125
 20
413.3565420937
 30
0.0
 10
382.4890739593
 20
412.9821779755
 30
0.0
 10
382.4891522635
 20
412.8091434838
 30
0.0
  0
SPLINE
  5
281
100
AcDbEntity
  8
0
100
AcDbSpline
 62
7
  6
CONTINUOUS
 70
0
 71
3
 72
13
 73
9
 74
0
 42
0.0000001
 43
0.0000001
 44
0.0000000001
 40
0.0
 40
0.0
 40
0.0
 40
0.0
 40
0.2699335874
 40
0.5613258182
 40
0.6954698829
 40
0.8131403132
 40
0.9128521763
 40
1.0
 40
1.0
 40
1.0
 40
1.0
 10
379.4898898079
 20
317.2804090626
 30
0.0
 10
379.9540462537
 20
317.5483883119
 30
0.0
 10
381.0634558219
 20
317.8486046438
 30
0.0
 10
382.4661764378
 20
317.7775885205
 30
0.0
 10
383.4960988143
 20
317.4343971244
 30
0.0
 10
384.0984406729
 20
317.0671344784
 30
0.0
 10
384.5065218761
 20
316.6030855483
 30
0.0
 10
384.6110920229
 20
316.2287214301
 30
0.0
 10
384.6111703271
 20
316.0556869384
 30
0.0
  0
SPLINE
  5
282
100
AcDbEntity
  8
0
100
AcDbSpline
 62
7
  6
CONTINUOUS
 70
0
 71
3
 72
8
 73
4
 74
0
 42
0.0000001
 43
0.0000001
 44
0.0000000001
 40
0.0
 40
0.0
 40
0.0
 40
0.0
 40
1.0
 40
1.0
 40
1.0
 40
1.0
 10
291.6360825584
 20
461.7980337475
 30
0.0
 10
291.6360135019
 20
461.9506329553
 30
0.0
 10
291.673465908
 20
462.1059233887
 30
0.0
 10
291.7374193928
 20
462.2444747321
 30
0.0
  0
SPLINE
  5
283
100
AcDbEntity
  8
0
100
AcDbSpline
 62
7
  6
CONTINUOUS
 70
0
 71
3
 72
9
 73
5
 74
0
 42
0.0000001
 43
0.0000001
 44
0.0000000001
 40
0.0
 40
0.0
 40
0.0
 40
0.0
 40
0.2246362028
 40
1.0
 40
1.0
 40
1.0
 40
1.0
 10
291.7374193928
 20
462.2444747321
 30
0.0
 10
291.7722613916
 20
462.319957808
 30
0.0
 10
291.9627860168
 20
462.6399092599
 30
0.0
 10
292.2661922364
 20
462.8792782537
 30
0.0
 10
292.5147047267
 20
463.0227561504
 30
0.0
  0
SPLINE
  5
284
100
AcDbEntity
  8
0
100
AcDbSpline
 62
7
  6
CONTINUOUS
 70
0
 71
3
 72
8
 73
4
 74
0
 42
0.0000001
 43
0.0000001
 44
0.0000000001
 40
0.0
 40
0.0
 40
0.0
 40
0.0
 40
1.0
 40
1.0
 40
1.0
 40
1.0
 10
378.6112676396
 20
316.0556866597
 30
0.0
 10
378.6111985832
 20
316.2082858674
 30
0.0
 10
378.6486509893
 20
316.3635763009
 30
0.0
 10
378.712604474
 20
316.5021276442
 30
0.0
  0
SPLINE
  5
285
100
AcDbEntity
  8
0
100
AcDbSpline
 62
7
  6
CONTINUOUS
 70
0
 71
3
 72
9
 73
5
 74
0
 42
0.0000001
 43
0.0000001
 44
0.0000000001
 40
0.0
 40
0.0
 40
0.0
 40
0.0
 40
0.2246362028
 40
1.0
 40
1.0
 40
1.0
 40
1.0
 10
378.712604474
 20
316.5021276442
 30
0.0
 10
378.7474464729
 20
316.5776107202
 30
0.0
 10
378.9379710981
 20
316.8975621721
 30
0.0
 10
379.2413773176
 20
317.1369311659
 30
0.0
 10
379.4898898079
 20
317.2804090626
 30
0.0
  0
SPLINE
  5
286
100
AcDbEntity
  8
0
100
AcDbSpline
 62
7
  6
CONTINUOUS
 70
0
 71
3
 72
11
 73
7
 74
0
 42
0.0000001
 43
0.0000001
 44
0.0000000001
 40
0.0
 40
0.0
 40
0.0
 40
0.0
 40
0.2379920132
 40
0.5000004856
 40
0.7620086952
 40
1.0
 40
1.0
 40
1.0
 40
1.0
 10
425.1685806585
 20
285.6070360131
 30
0.0
 10
427.648517529
 20
284.24194245
 30
0.0
 10
433.3454314322
 20
282.2470555144
 30
0.0
 10
442.4226428232
 20
281.2891289316
 30
0.0
 10
451.4998415558
 20
282.2470949641
 30
0.0
 10
457.1967348337
 20
284.2420086831
 30
0.0
 10
459.6766551971
 20
285.6071147628
 30
0.0
  0
SPLINE
  5
287
100
AcDbEntity
  8
0
100
AcDbSpline
 62
7
  6
CONTINUOUS
 70
0
 71
3
 72
13
 73
9
 74
0
 42
0.0000001
 43
0.0000001
 44
0.0000000001
 40
0.0
 40
0.0
 40
0.0
 40
0.0
 40
0.2699335874
 40
0.5613258182
 40
0.6954698829
 40
0.8131403132
 40
0.9128521763
 40
1.0
 40
1.0
 40
1.0
 40
1.0
 10
207.661537709
 20
512.0116466929
 30
0.0
 10
208.1256941548
 20
512.2796259422
 30
0.0
 10
209.235103723
 20
512.5798422741
 30
0.0
 10
210.6378243389
 20
512.5088261508
 30
0.0
 10
211.6677467154
 20
512.1656347546
 30
0.0
 10
212.270088574
 20
511.7983721087
 30
0.0
 10
212.6781697772
 20
511.3343231786
 30
0.0
 10
212.782739924
 20
510.9599590604
 30
0.0
 10
212.7828182282
 20
510.7869245687
 30
0.0
  0
SPLINE
  5
288
100
AcDbEntity
  8
0
100
AcDbSpline
 62
7
  6
CONTINUOUS
 70
0
 71
3
 72
13
 73
9
 74
0
 42
0.0000001
 43
0.0000001
 44
0.0000000001
 40
0.0
 40
0.0
 40
0.0
 40
0.0
 40
0.2699335874
 40
0.5613258182
 40
0.6954698829
 40
0.8131403132
 40
0.9128521763
 40
1.0
 40
1.0
 40
1.0
 40
1.0
 10
481.6669006476
 20
306.0539871753
 30
0.0
 10
482.1310570933
 20
306.3219664246
 30
0.0
 10
483.2404666615
 20
306.6221827565
 30
0.0
 10
484.6431872774
 20
306.5511666332
 30
0.0
 10
485.6731096539
 20
306.2079752371
 30
0.0
 10
486.2754515125
 20
305.8407125912
 30
0.0
 10
486.6835327157
 20
305.376663661
 30
0.0
 10
486.7881028626
 20
305.0022995428
 30
0.0
 10
486.7881811667
 20
304.8292650511
 30
0.0
  0
SPLINE
  5
289
100
AcDbEntity
  8
0
100
AcDbSpline
 62
7
  6
CONTINUOUS
 70
0
 71
3
 72
13
 73
9
 74
0
 42
0.0000001
 43
0.0000001
 44
0.0000000001
 40
0.0
 40
0.0
 40
0.0
 40
0.0
 40
0.2699335874
 40
0.5613258182
 40
0.6954698829
 40
0.8131403132
 40
0.9128521763
 40
1.0
 40
1.0
 40
1.0
 40
1.0
 10
124.930388755
 20
464.2470806899
 30
0.0
 10
125.3945452008
 20
464.5150599392
 30
0.0
 10
126.503954769
 20
464.8152762711
 30
0.0
 10
127.9066753848
 20
464.7442601478
 30
0.0
 10
128.9365977613
 20
464.4010687517
 30
0.0
 10
129.5389396199
 20
464.0338061057
 30
0.0
 10
129.9470208232
 20
463.5697571756
 30
0.0
 10
130.05159097
 20
463.1953930574
 30
0.0
 10
130.0516692742
 20
463.0223585657
 30
0.0
  0
SPLINE
  5
28A
100
AcDbEntity
  8
0
100
AcDbSpline
 62
7
  6
CONTINUOUS
 70
0
 71
3
 72
13
 73
9
 74
0
 42
0.0000001
 43
0.0000001
 44
0.0000000001
 40
0.0
 40
0.0
 40
0.0
 40
0.0
 40
0.2699335874
 40
0.5613258182
 40
0.6954698829
 40
0.8131403132
 40
0.9128521763
 40
1.0
 40
1.0
 40
1.0
 40
1.0
 10
294.6367227903
 20
366.269299605
 30
0.0
 10
295.1008792361
 20
366.5372788543
 30
0.0
 10
296.2102888042
 20
366.8374951862
 30
0.0
 10
297.6130094201
 20
366.7664790629
 30
0.0
 10
298.6429317966
 20
366.4232876668
 30
0.0
 10
299.2452736552
 20
366.0560250209
 30
0.0
 10
299.6533548584
 20
365.5919760907
 30
0.0
 10
299.7579250053
 20
365.2176119725
 30
0.0
 10
299.7580033094
 20
365.0445774808
 30
0.0
  0
SPLINE
  5
28B
100
AcDbEntity
  8
0
100
AcDbSpline
 62
7
  6
CONTINUOUS
 70
0
 71
3
 72
13
 73
9
 74
0
 42
0.0000001
 43
0.0000001
 44
0.0000000001
 40
0.0
 40
0.0
 40
0.0
 40
0.0
 40
0.2699335874
 40
0.5613258182
 40
0.6954698829
 40
0.8131403132
 40
0.9128521763
 40
1.0
 40
1.0
 40
1.0
 40
1.0
 10
209.7835557726
 20
415.2581901475
 30
0.0
 10
210.2477122184
 20
415.5261693968
 30
0.0
 10
211.3571217866
 20
415.8263857287
 30
0.0
 10
212.7598424025
 20
415.7553696054
 30
0.0
 10
213.789764779
 20
415.4121782092
 30
0.0
 10
214.3921066376
 20
415.0449155633
 30
0.0
 10
214.8001878408
 20
414.5808666332
 30
0.0
 10
214.9047579876
 20
414.206502515
 30
0.0
 10
214.9048362918
 20
414.0334680233
 30
0.0
  0
SPLINE
  5
28C
100
AcDbEntity
  8
0
100
AcDbSpline
 62
7
  6
CONTINUOUS
 70
0
 71
3
 72
11
 73
7
 74
0
 42
0.0000001
 43
0.0000001
 44
0.0000000001
 40
0.0
 40
0.0
 40
0.0
 40
0.0
 40
0.2187383422
 40
0.4548482924
 40
0.7146027481
 40
1.0
 40
1.0
 40
1.0
 40
1.0
 10
67.5592715563
 20
496.5213653841
 30
0.0
 10
67.7194961555
 20
495.6973620569
 30
0.0
 10
68.3090267576
 20
494.0270999285
 30
0.0
 10
69.8584774171
 20
491.7362525217
 30
0.0
 10
72.0335461491
 20
489.6467024526
 30
0.0
 10
73.7771181931
 20
488.4726372912
 30
0.0
 10
74.7256365411
 20
487.9250223563
 30
0.0
  0
SPLINE
  5
28D
100
AcDbEntity
  8
0
100
AcDbSpline
 62
7
  6
CONTINUOUS
 70
0
 71
3
 72
8
 73
4
 74
0
 42
0.0000001
 43
0.0000001
 44
0.0000000001
 40
0.0
 40
0.0
 40
0.0
 40
0.0
 40
1.0
 40
1.0
 40
1.0
 40
1.0
 10
104.6059047011
 20
522.0133461772
 30
0.0
 10
104.6058356446
 20
522.165945385
 30
0.0
 10
104.6432880507
 20
522.3212358184
 30
0.0
 10
104.7072415355
 20
522.4597871618
 30
0.0
  0
SPLINE
  5
28E
100
AcDbEntity
  8
0
100
AcDbSpline
 62
7
  6
CONTINUOUS
 70
0
 71
3
 72
9
 73
5
 74
0
 42
0.0000001
 43
0.0000001
 44
0.0000000001
 40
0.0
 40
0.0
 40
0.0
 40
0.0
 40
0.2246362028
 40
1.0
 40
1.0
 40
1.0
 40
1.0
 10
104.7072415355
 20
522.4597871618
 30
0.0
 10
104.7420835343
 20
522.5352702377
 30
0.0
 10
104.9326081596
 20
522.8552216896
 30
0.0
 10
105.2360143791
 20
523.0945906834
 30
0.0
 10
105.4845268694
 20
523.2380685802
 30
0.0
  0
SPLINE
  5
28F
100
AcDbEntity
  8
0
100
AcDbSpline
 62
7
  6
CONTINUOUS
 70
0
 71
3
 72
13
 73
9
 74
0
 42
0.0000001
 43
0.0000001
 44
0.0000000001
 40
0.0
 40
0.0
 40
0.0
 40
0.0
 40
0.2699335874
 40
0.5613258182
 40
0.6954698829
 40
0.8131403132
 40
0.9128521763
 40
1.0
 40
1.0
 40
1.0
 40
1.0
 10
105.4845268694
 20
523.2380685802
 30
0.0
 10
105.9486833151
 20
523.5060478294
 30
0.0
 10
107.0580928833
 20
523.8062641613
 30
0.0
 10
108.4608134992
 20
523.7352480381
 30
0.0
 10
109.4907358757
 20
523.3920566419
 30
0.0
 10
110.0930777343
 20
523.024793996
 30
0.0
 10
110.5011589375
 20
522.5607450658
 30
0.0
 10
110.6057290844
 20
522.1863809476
 30
0.0
 10
110.6058073885
 20
522.0133464559
 30
0.0
  0
SPLINE
  5
290
100
AcDbEntity
  8
0
100
AcDbSpline
 62
7
  6
CONTINUOUS
 70
0
 71
3
 72
8
 73
4
 74
0
 42
0.0000001
 43
0.0000001
 44
0.0000000001
 40
0.0
 40
0.0
 40
0.0
 40
0.0
 40
1.0
 40
1.0
 40
1.0
 40
1.0
 10
206.7829155408
 20
510.78692429
 30
0.0
 10
206.7828464843
 20
510.9395234977
 30
0.0
 10
206.8202988904
 20
511.0948139311
 30
0.0
 10
206.8842523752
 20
511.2333652745
 30
0.0
  0
SPLINE
  5
291
100
AcDbEntity
  8
0
100
AcDbSpline
 62
7
  6
CONTINUOUS
 70
0
 71
3
 72
9
 73
5
 74
0
 42
0.0000001
 43
0.0000001
 44
0.0000000001
 40
0.0
 40
0.0
 40
0.0
 40
0.0
 40
0.2246362028
 40
1.0
 40
1.0
 40
1.0
 40
1.0
 10
206.8842523752
 20
511.2333652745
 30
0.0
 10
206.919094374
 20
511.3088483504
 30
0.0
 10
207.1096189992
 20
511.6287998024
 30
0.0
 10
207.4130252187
 20
511.8681687962
 30
0.0
 10
207.661537709
 20
512.0116466929
 30
0.0
  0
SPLINE
  5
292
100
AcDbEntity
  8
0
100
AcDbSpline
 62
7
  6
CONTINUOUS
 70
0
 71
3
 72
13
 73
9
 74
0
 42
0.0000001
 43
0.0000001
 44
0.0000000001
 40
0.0
 40
0.0
 40
0.0
 40
0.0
 40
0.2699335874
 40
0.5613258182
 40
0.6954698829
 40
0.8131403132
 40
0.9128521763
 40
1.0
 40
1.0
 40
1.0
 40
1.0
 10
292.5147047267
 20
463.0227561504
 30
0.0
 10
292.9788611724
 20
463.2907353997
 30
0.0
 10
294.0882707406
 20
463.5909517316
 30
0.0
 10
295.4909913565
 20
463.5199356083
 30
0.0
 10
296.520913733
 20
463.1767442122
 30
0.0
 10
297.1232555916
 20
462.8094815663
 30
0.0
 10
297.5313367948
 20
462.3454326361
 30
0.0
 10
297.6359069416
 20
461.9710685179
 30
0.0
 10
297.6359852458
 20
461.7980340262
 30
0.0
  0
SPLINE
  5
293
100
AcDbEntity
  8
0
100
AcDbSpline
 62
7
  6
CONTINUOUS
 70
0
 71
3
 72
11
 73
7
 74
0
 42
0.0000001
 43
0.0000001
 44
0.0000000001
 40
0.0
 40
0.0
 40
0.0
 40
0.0
 40
0.2853971771
 40
0.5451514799
 40
0.781261382
 40
1.0
 40
1.0
 40
1.0
 40
1.0
 10
516.668596525
 20
318.5054661623
 30
0.0
 10
517.6171066745
 20
319.0530854836
 30
0.0
 10
519.3606616728
 20
320.2271588325
 30
0.0
 10
521.5357010505
 20
322.3167200603
 30
0.0
 10
523.0851192546
 20
324.6075762524
 30
0.0
 10
523.6746249979
 20
326.2778404961
 30
0.0
 10
523.8348375276
 20
327.1018436414
 30
0.0
  0
SPLINE
  5
294
100
AcDbEntity
  8
0
100
AcDbSpline
 62
7
  6
CONTINUOUS
 70
0
 71
3
 72
8
 73
4
 74
0
 42
0.0000001
 43
0.0000001
 44
0.0000000001
 40
0.0
 40
0.0
 40
0.0
 40
0.0
 40
1.0
 40
1.0
 40
1.0
 40
1.0
 10
124.0517665867
 20
463.022358287
 30
0.0
 10
124.0516975302
 20
463.1749574947
 30
0.0
 10
124.0891499364
 20
463.3302479282
 30
0.0
 10
124.1531034211
 20
463.4687992716
 30
0.0
  0
SPLINE
  5
295
100
AcDbEntity
  8
0
100
AcDbSpline
 62
7
  6
CONTINUOUS
 70
0
 71
3
 72
9
 73
5
 74
0
 42
0.0000001
 43
0.0000001
 44
0.0000000001
 40
0.0
 40
0.0
 40
0.0
 40
0.0
 40
0.2246362028
 40
1.0
 40
1.0
 40
1.0
 40
1.0
 10
124.1531034211
 20
463.4687992716
 30
0.0
 10
124.18794542
 20
463.5442823475
 30
0.0
 10
124.3784700452
 20
463.8642337994
 30
0.0
 10
124.6818762647
 20
464.1036027932
 30
0.0
 10
124.930388755
 20
464.2470806899
 30
0.0
  0
SPLINE
  5
296
100
AcDbEntity
  8
0
100
AcDbSpline
 62
7
  6
CONTINUOUS
 70
0
 71
3
 72
8
 73
4
 74
0
 42
0.0000001
 43
0.0000001
 44
0.0000000001
 40
0.0
 40
0.0
 40
0.0
 40
0.0
 40
1.0
 40
1.0
 40
1.0
 40
1.0
 10
208.9049336044
 20
414.0334677446
 30
0.0
 10
208.9048645479
 20
414.1860669523
 30
0.0
 10
208.942316954
 20
414.3413573857
 30
0.0
 10
209.0062704388
 20
414.4799087291
 30
0.0
  0
SPLINE
  5
297
100
AcDbEntity
  8
0
100
AcDbSpline
 62
7
  6
CONTINUOUS
 70
0
 71
3
 72
9
 73
5
 74
0
 42
0.0000001
 43
0.0000001
 44
0.0000000001
 40
0.0
 40
0.0
 40
0.0
 40
0.0
 40
0.2246362028
 40
1.0
 40
1.0
 40
1.0
 40
1.0
 10
209.0062704388
 20
414.4799087291
 30
0.0
 10
209.0411124376
 20
414.555391805
 30
0.0
 10
209.2316370628
 20
414.875343257
 30
0.0
 10
209.5350432823
 20
415.1147122508
 30
0.0
 10
209.7835557726
 20
415.2581901475
 30
0.0
  0
SPLINE
  5
298
100
AcDbEntity
  8
0
100
AcDbSpline
 62
7
  6
CONTINUOUS
 70
0
 71
3
 72
8
 73
4
 74
0
 42
0.0000001
 43
0.0000001
 44
0.0000000001
 40
0.0
 40
0.0
 40
0.0
 40
0.0
 40
1.0
 40
1.0
 40
1.0
 40
1.0
 10
376.489249576
 20
412.8091432051
 30
0.0
 10
376.4891805195
 20
412.9617424128
 30
0.0
 10
376.5266329257
 20
413.1170328463
 30
0.0
 10
376.5905864104
 20
413.2555841896
 30
0.0
  0
SPLINE
  5
299
100
AcDbEntity
  8
0
100
AcDbSpline
 62
7
  6
CONTINUOUS
 70
0
 71
3
 72
9
 73
5
 74
0
 42
0.0000001
 43
0.0000001
 44
0.0000000001
 40
0.0
 40
0.0
 40
0.0
 40
0.0
 40
0.2246362028
 40
1.0
 40
1.0
 40
1.0
 40
1.0
 10
376.5905864104
 20
413.2555841896
 30
0.0
 10
376.6254284093
 20
413.3310672656
 30
0.0
 10
376.8159530345
 20
413.6510187175
 30
0.0
 10
377.119359254
 20
413.8903877113
 30
0.0
 10
377.3678717443
 20
414.033865608
 30
0.0
  0
SPLINE
  5
29A
100
AcDbEntity
  8
0
100
AcDbSpline
 62
7
  6
CONTINUOUS
 70
0
 71
3
 72
8
 73
4
 74
0
 42
0.0000001
 43
0.0000001
 44
0.0000000001
 40
0.0
 40
0.0
 40
0.0
 40
0.0
 40
1.0
 40
1.0
 40
1.0
 40
1.0
 10
480.7882784793
 20
304.8292647724
 30
0.0
 10
480.7882094228
 20
304.9818639802
 30
0.0
 10
480.8256618289
 20
305.1371544136
 30
0.0
 10
480.8896153137
 20
305.275705757
 30
0.0
  0
SPLINE
  5
29B
100
AcDbEntity
  8
0
100
AcDbSpline
 62
7
  6
CONTINUOUS
 70
0
 71
3
 72
9
 73
5
 74
0
 42
0.0000001
 43
0.0000001
 44
0.0000000001
 40
0.0
 40
0.0
 40
0.0
 40
0.0
 40
0.2246362028
 40
1.0
 40
1.0
 40
1.0
 40
1.0
 10
480.8896153137
 20
305.275705757
 30
0.0
 10
480.9244573125
 20
305.3511888329
 30
0.0
 10
481.1149819378
 20
305.6711402848
 30
0.0
 10
481.4183881573
 20
305.9105092786
 30
0.0
 10
481.6669006476
 20
306.0539871753
 30
0.0
  0
SPLINE
  5
29C
100
AcDbEntity
  8
0
100
AcDbSpline
 62
7
  6
CONTINUOUS
 70
0
 71
3
 72
8
 73
4
 74
0
 42
0.0000001
 43
0.0000001
 44
0.0000000001
 40
0.0
 40
0.0
 40
0.0
 40
0.0
 40
1.0
 40
1.0
 40
1.0
 40
1.0
 10
293.758100622
 20
365.0445772021
 30
0.0
 10
293.7580315655
 20
365.1971764099
 30
0.0
 10
293.7954839716
 20
365.3524668433
 30
0.0
 10
293.8594374564
 20
365.4910181867
 30
0.0
  0
SPLINE
  5
29D
100
AcDbEntity
  8
0
100
AcDbSpline
 62
7
  6
CONTINUOUS
 70
0
 71
3
 72
9
 73
5
 74
0
 42
0.0000001
 43
0.0000001
 44
0.0000000001
 40
0.0
 40
0.0
 40
0.0
 40
0.0
 40
0.2246362028
 40
1.0
 40
1.0
 40
1.0
 40
1.0
 10
293.8594374564
 20
365.4910181867
 30
0.0
 10
293.8942794552
 20
365.5665012626
 30
0.0
 10
294.0848040805
 20
365.8864527145
 30
0.0
 10
294.3882103
 20
366.1258217083
 30
0.0
 10
294.6367227903
 20
366.269299605
 30
0.0
  0
ENDSEC
  0
SECTION
  2
OBJECTS
  0
DICTIONARY
  5
C
100
AcDbDictionary
280
0
281
1
  3
ACAD_GROUP
350
D
  3
ACAD_MLINESTYLE
350
17
  3
ACAD_LAYOUT
350
1A
  3
ACAD_PLOTSETTINGS
350
19
  3
ACAD_PLOTSTYLENAME
350
E
  0
DICTIONARY
  5
D
102
{ACAD_REACTORS
330
C
102
}
100
AcDbDictionary
280
0
281
1
  0
ACDBDICTIONARYWDFLT
  5
E
102
{ACAD_REACTORS
330
C
102
}
100
AcDbDictionary
281
1
  3
Normal
350
F
100
AcDbDictionaryWithDefault
340
F
  0
DICTIONARY
  5
17
102
{ACAD_REACTORS
330
C
102
}
100
AcDbDictionary
280
0
281
1
  3
Standard
350
18
  0
DICTIONARY
  5
19
102
{ACAD_REACTORS
330
C
102
}
100
AcDbDictionary
281
1
  0
DICTIONARY
  5
1A
102
{ACAD_REACTORS
330
C
102
}
100
AcDbDictionary
281
1
  3
Model
350
29E
  3
Layout1
350
29F
  0
ACDBPLACEHOLDER
  5
F
102
{ACAD_REACTORS
330
E
102
}
  0
MLINESTYLE
  5
18
102
{ACAD_REACTORS
330
17
102
}
100
AcDbMlineStyle
  2
STANDARD
 70
0
  3

 62
256
 51
90.0
 52
90.0
 71
2
 49
0.5
 62
256
  6
BYLAYER
 49
-0.5
 62
256
  6
BYLAYER
  0
LAYOUT
  5
29E
102
{ACAD_REACTORS
330
1A
102
}
100
AcDbPlotSettings
  1

  2
none_device
  4

  6

 40
0.0
 41
0.0
 42
0.0
 43
0.0
 44
210.0
 45
297.0
 46
0.0
 47
0.0
 48
0.0
 49
0.0
140
0.0
141
0.0
142
1.0
143
1.0
 70
1024
 72
1
 73
0
 74
0
  7

 75
0
147
1.0
148
0.0
149
0.0
100
AcDbLayout
  1
Model
 70
0
 71
0
 10
0.0
 20
0.0
 11
210.0
 21
297.0
 12
0.0
 22
0.0
 32
0.0
 14
0.0
 24
0.0
 34
0.0
 15
0.0
 25
0.0
 35
0.0
146
0.0
 13
0.0
 23
0.0
 33
0.0
 16
1.0
 26
0.0
 36
0.0
 17
0.0
 27
1.0
 37
0.0
 76
0
330
210
345
0
346
0
  0
LAYOUT
  5
29F
102
{ACAD_REACTORS
330
1A
102
}
100
AcDbPlotSettings
  1

  2
none_device
  4

  6

 40
0.0
 41
0.0
 42
0.0
 43
0.0
 44
210.0
 45
297.0
 46
0.0
 47
0.0
 48
0.0
 49
0.0
140
0.0
141
0.0
142
1.0
143
1.0
 70
0
 72
1
 73
0
 74
0
  7

 75
0
147
1.0
148
0.0
149
0.0
100
AcDbLayout
  1
Layout1
 70
0
 71
1
 10
0.0
 20
0.0
 11
210.0
 21
297.0
 12
0.0
 22
0.0
 32
0.0
 14
0.0
 24
0.0
 34
0.0
 15
0.0
 25
0.0
 35
0.0
146
0.0
 13
0.0
 23
0.0
 33
0.0
 16
1.0
 26
0.0
 36
0.0
 17
0.0
 27
1.0
 37
0.0
 76
0
330
211
345
0
346
0
  0
ENDSEC
  0
EOF
