999
DXF file: C:\Users\sesa63760\Dev\_Creo\CAD\MCADID0000488_3D-CAD\drw0001_7.dxf
999
Pro/ENGINEER 2019471 by Parametric Technology Corporation
  0
SECTION
  2
HEADER
  9
$ACADVER
  1
AC1024
  9
$DWGCODEPAGE
  3
ANSI_1252
  9
$EXTMAX
 10
389.9634197555
 20
551.5196936543
 30
0.0
  9
$EXTMIN
 10
0.0
 20
0.0
 30
0.0
  9
$LIMMIN
 10
0.0
 20
0.0
  9
$LIMMAX
 10
389.9634197555
 20
551.5196936543
  9
$VIEWCTR
 10
194.9817098778
 20
275.7598468271
  9
$VIEWSIZE
 40
551.5196936543
  9
$CLAYER
  8
0
  9
$LTSCALE
 40
35.9509133641
  9
$CELTYPE
  6
BYLAYER
  9
$DIMSCALE
 40
1.0
  9
$DIMASZ
 40
4.6424216638
  9
$DIMEXO
 40
1.0
  9
$DIMDLI
 40
24.8388128698
  9
$DIMEXE
 40
1.0
  9
$DIMCEN
 40
5.8828767323
  9
$DIMLFAC
 40
1.0
  9
$DIMBLK
  1
_FILLED
  9
$DIMALT
 70
0
  9
$DIMALTF
 40
0.0393700787
  9
$DIMTXT
 40
6.4993903293
  9
$DIMTOL
 70
1
  9
$DIMLIM
 70
0
  9
$DIMTFAC
 40
1.0
  9
$DIMTP
 40
0.01
  9
$DIMTM
 40
0.01
  9
$DIMGAP
 40
0.625
  9
$DIMDSEP
 70
46
  9
$AUNITS
 70
0
  9
$PDMODE
 70
3
  9
$PDSIZE
 40
0.3125
  9
$HANDSEED
  5
2F1
  9
$TILEMODE
 70
1
  9
$MEASUREMENT
 70
1
  9
$INSUNITS
 70
4
  0
ENDSEC
  0
SECTION
  2
CLASSES
  0
CLASS
  1
ACDBDICTIONARYWDFLT
  2
AcDbDictionaryWithDefault
  3
AutoCAD 2000
 90
0
 91
1
280
0
281
0
  0
CLASS
  1
ACDBPLACEHOLDER
  2
AcDbPlaceHolder
  3
AutoCAD 2000
 90
0
 91
1
280
0
281
0
  0
CLASS
  1
LAYOUT
  2
AcDbLayout
  3
AutoCAD 2000
 90
0
 91
0
280
0
281
0
  0
ENDSEC
  0
SECTION
  2
TABLES
  0
TABLE
  2
VPORT
  5
8
100
AcDbSymbolTable
 70
2
  0
VPORT
  5
1F4
100
AcDbSymbolTableRecord
100
AcDbViewportTableRecord
  2
*ACTIVE
 70
0
 10
0.0
 20
0.0
 11
1.0
 21
1.0
 12
194.9817098778
 22
275.7598468271
 13
0.0
 23
0.0
 14
1.0
 24
1.0
 15
0.0
 25
0.0
 16
0.0
 26
0.0
 36
1.0
 17
0.0
 27
0.0
 37
0.0
 40
551.5196936543
 41
0.7070707071
 42
50.0
 43
0.0
 44
0.0
 50
0.0
 51
0.0
 71
0
 72
100
 73
1
 74
1
 75
0
 76
0
 77
0
 78
0
  0
ENDTAB
  0
TABLE
  2
LTYPE
  5
5
100
AcDbSymbolTable
 70
6
  0
LTYPE
  5
14
100
AcDbSymbolTableRecord
100
AcDbLinetypeTableRecord
  2
BYBLOCK
 70
0
  3

 72
65
 73
0
 40
0.0
  0
LTYPE
  5
15
100
AcDbSymbolTableRecord
100
AcDbLinetypeTableRecord
  2
BYLAYER
 70
0
  3

 72
65
 73
0
 40
0.0
  0
LTYPE
  5
16
100
AcDbSymbolTableRecord
100
AcDbLinetypeTableRecord
  2
CONTINUOUS
 70
64
  3
Solid line
 72
65
 73
0
 40
0.0
  0
LTYPE
  5
1F5
100
AcDbSymbolTableRecord
100
AcDbLinetypeTableRecord
  2
CENTER
 70
64
  3
____ _ ____ _ ____ _ ____ _ ____ _ ____ _ ____
 72
65
 73
4
 40
0.6
 49
0.375
 74
0
 49
-0.075
 74
0
 49
0.075
 74
0
 49
-0.075
 74
0
  0
LTYPE
  5
1F6
100
AcDbSymbolTableRecord
100
AcDbLinetypeTableRecord
  2
HIDDEN
 70
64
  3
- - - - - - - - - - - - - - - - - - - -
 72
65
 73
2
 40
0.2
 49
0.1
 74
0
 49
-0.1
 74
0
  0
LTYPE
  5
1F7
100
AcDbSymbolTableRecord
100
AcDbLinetypeTableRecord
  2
PHANTOM
 70
64
  3
_____ _ _ _____ _ _ _____ _ _ _____
 72
65
 73
6
 40
0.8
 49
0.45
 74
0
 49
-0.05
 74
0
 49
0.1
 74
0
 49
-0.05
 74
0
 49
0.1
 74
0
 49
-0.05
 74
0
  0
LTYPE
  5
1F8
100
AcDbSymbolTableRecord
100
AcDbLinetypeTableRecord
  2
DOT
 70
64
  3
. . . . . . . . . . . . . . . . . . . .
 72
65
 73
2
 40
0.2
 49
0.1
 74
0
 49
-0.1
 74
0
  0
LTYPE
  5
1F9
100
AcDbSymbolTableRecord
100
AcDbLinetypeTableRecord
  2
DASHED
 70
64
  3
- - - - - - - - - - - - - - - - - - - -
 72
65
 73
2
 40
0.2
 49
0.1
 74
0
 49
-0.1
 74
0
  0
ENDTAB
  0
TABLE
  2
LAYER
  5
2
100
AcDbSymbolTable
 70
36
  0
LAYER
  5
10
100
AcDbSymbolTableRecord
100
AcDbLayerTableRecord
  2
0
 70
0
 62
7
  6
CONTINUOUS
370
-3
390
F
  0
LAYER
  5
1FA
100
AcDbSymbolTableRecord
100
AcDbLayerTableRecord
  2
DEFAULT_1
 70
0
 62
7
  6
CENTER
370
-3
390
F
  0
LAYER
  5
1FB
100
AcDbSymbolTableRecord
100
AcDbLayerTableRecord
  2
DEFAULT_2
 70
0
 62
8
  6
HIDDEN
370
-3
390
F
  0
LAYER
  5
1FC
100
AcDbSymbolTableRecord
100
AcDbLayerTableRecord
  2
DEFAULT_3
 70
0
 62
7
  6
PHANTOM
370
-3
390
F
  0
LAYER
  5
1FD
100
AcDbSymbolTableRecord
100
AcDbLayerTableRecord
  2
00_COMPONENTS
 70
0
 62
7
  6
CONTINUOUS
370
-3
390
F
  0
LAYER
  5
1FE
100
AcDbSymbolTableRecord
100
AcDbLayerTableRecord
  2
01_1_DEFAULT_DATUMS
 70
0
 62
7
  6
CONTINUOUS
370
-3
390
F
  0
LAYER
  5
1FF
100
AcDbSymbolTableRecord
100
AcDbLayerTableRecord
  2
01_PLANES
 70
0
 62
7
  6
CONTINUOUS
370
-3
390
F
  0
LAYER
  5
200
100
AcDbSymbolTableRecord
100
AcDbLayerTableRecord
  2
02_COORD_SYS
 70
0
 62
7
  6
CONTINUOUS
370
-3
390
F
  0
LAYER
  5
201
100
AcDbSymbolTableRecord
100
AcDbLayerTableRecord
  2
03_AXES
 70
0
 62
7
  6
CONTINUOUS
370
-3
390
F
  0
LAYER
  5
202
100
AcDbSymbolTableRecord
100
AcDbLayerTableRecord
  2
04_POINTS
 70
0
 62
7
  6
CONTINUOUS
370
-3
390
F
  0
LAYER
  5
203
100
AcDbSymbolTableRecord
100
AcDbLayerTableRecord
  2
05_CURVES
 70
0
 62
7
  6
CONTINUOUS
370
-3
390
F
  0
LAYER
  5
204
100
AcDbSymbolTableRecord
100
AcDbLayerTableRecord
  2
06_SURFS
 70
0
 62
7
  6
CONTINUOUS
370
-3
390
F
  0
LAYER
  5
205
100
AcDbSymbolTableRecord
100
AcDbLayerTableRecord
  2
07_COSMETICS
 70
0
 62
7
  6
CONTINUOUS
370
-3
390
F
  0
LAYER
  5
206
100
AcDbSymbolTableRecord
100
AcDbLayerTableRecord
  2
10_NOTES
 70
0
 62
7
  6
CONTINUOUS
370
-3
390
F
  0
LAYER
  5
207
100
AcDbSymbolTableRecord
100
AcDbLayerTableRecord
  2
11_NOTES_PUB
 70
0
 62
7
  6
CONTINUOUS
370
-3
390
F
  0
LAYER
  5
208
100
AcDbSymbolTableRecord
100
AcDbLayerTableRecord
  2
13_REF_GTOL
 70
0
 62
7
  6
CONTINUOUS
370
-3
390
F
  0
LAYER
  5
209
100
AcDbSymbolTableRecord
100
AcDbLayerTableRecord
  2
16_MISC
 70
0
 62
7
  6
CONTINUOUS
370
-3
390
F
  0
LAYER
  5
20A
100
AcDbSymbolTableRecord
100
AcDbLayerTableRecord
  2
17_NO_PRINT
 70
0
 62
7
  6
CONTINUOUS
370
-3
390
F
  0
LAYER
  5
20B
100
AcDbSymbolTableRecord
100
AcDbLayerTableRecord
  2
18_DATUM_CAMS_JOINTS
 70
0
 62
7
  6
CONTINUOUS
370
-3
390
F
  0
LAYER
  5
20C
100
AcDbSymbolTableRecord
100
AcDbLayerTableRecord
  2
19_DATUM_FUNCTIONAL
 70
0
 62
7
  6
CONTINUOUS
370
-3
390
F
  0
LAYER
  5
20D
100
AcDbSymbolTableRecord
100
AcDbLayerTableRecord
  2
20_DATUM_KINEMATIC_SCHEME
 70
0
 62
7
  6
CONTINUOUS
370
-3
390
F
  0
ENDTAB
  0
TABLE
  2
STYLE
  5
3
100
AcDbSymbolTable
 70
1
  0
STYLE
  5
11
100
AcDbSymbolTableRecord
100
AcDbTextStyleTableRecord
  2
STANDARD
 70
0
 40
0.0
 41
0.8
 50
0.0
 71
0
 42
0.2
  3
txt
  4

  0
STYLE
  5
20E
100
AcDbSymbolTableRecord
100
AcDbTextStyleTableRecord
  2
TEXTSTYLE_1
 70
0
 40
0.0
 41
0.8
 50
0.0
 71
0
 42
0.2
  3
gdt
  4

  0
ENDTAB
  0
TABLE
  2
VIEW
  5
6
100
AcDbSymbolTable
 70
0
  0
ENDTAB
  0
TABLE
  2
UCS
  5
7
100
AcDbSymbolTable
 70
0
  0
ENDTAB
  0
TABLE
  2
APPID
  5
9
100
AcDbSymbolTable
 70
1
  0
APPID
  5
20F
100
AcDbSymbolTableRecord
100
AcDbRegAppTableRecord
  2
ACAD
 70
0
  0
ENDTAB
  0
TABLE
  2
BLOCK_RECORD
  5
1
100
AcDbSymbolTable
 70
0
  0
BLOCK_RECORD
  5
210
100
AcDbSymbolTableRecord
100
AcDbBlockTableRecord
  2
*Model_Space
  0
BLOCK_RECORD
  5
211
100
AcDbSymbolTableRecord
100
AcDbBlockTableRecord
  2
*Paper_Space
  0
BLOCK_RECORD
  5
212
100
AcDbSymbolTableRecord
100
AcDbBlockTableRecord
  2
_FILLED
  0
ENDTAB
  0
TABLE
  2
DIMSTYLE
  5
A
100
AcDbSymbolTable
 70
1
100
AcDbDimStyleTable
 71
0
  0
DIMSTYLE
105
213
100
AcDbSymbolTableRecord
100
AcDbDimStyleTableRecord
  2
STANDARD
 70
0
  3

  4

 40
1.0
 41
4.6424216638
 42
1.0
 43
0.38
 44
1.0
 45
0.0
 46
0.0
 47
0.01
 48
0.01
140
6.4993903293
141
0.09
142
0.0
143
25.4
144
1.0
145
0.0
146
1.0
147
0.625
 71
1
 72
0
 73
0
 74
0
 75
0
 76
0
 77
1
 78
8
 79
2
170
0
171
1
172
0
173
0
174
0
175
0
176
0
177
0
178
0
270
2
179
2
271
2
272
2
273
2
274
2
275
0
280
0
281
0
282
0
283
1
284
8
285
0
286
0
287
3
288
0
340
11
278
46
341
212
342
212
343
212
344
212
  0
ENDTAB
  0
ENDSEC
  0
SECTION
  2
BLOCKS
  0
BLOCK
  5
20
100
AcDbEntity
  8
0
100
AcDbBlockBegin
  2
*Model_Space
 70
0
 10
0.0
 20
0.0
 30
0.0
  3
*Model_Space
  1

  0
ENDBLK
  5
21
100
AcDbEntity
  8
0
100
AcDbBlockEnd
  0
BLOCK
  5
1C
100
AcDbEntity
  8
0
100
AcDbBlockBegin
  2
*Paper_Space
 70
0
 10
0.0
 20
0.0
 30
0.0
  3
*Paper_Space
  1

  0
ENDBLK
  5
1D
100
AcDbEntity
  8
0
100
AcDbBlockEnd
  0
BLOCK
  5
214
100
AcDbEntity
  8
0
100
AcDbBlockBegin
  2
_FILLED
 70
64
 10
0.0
 20
0.0
  3
_FILLED
  1

  0
SOLID
  5
215
100
AcDbEntity
  8
0
  6
BYBLOCK
 62
0
100
AcDbTrace
 10
0.0
 20
0.0
 11
-1.0
 21
0.25
 12
-1.0
 22
-0.25
 13
-1.0
 23
-0.25
  0
ENDBLK
  5
216
100
AcDbEntity
  8
0
  6
BYBLOCK
 62
0
100
AcDbBlockEnd
  0
ENDSEC
  0
SECTION
  2
ENTITIES
  0
LINE
  5
217
100
AcDbEntity
  8
0
100
AcDbLine
 62
7
  6
CONTINUOUS
 10
41.4067645824
 20
250.5999562363
 11
41.992938628
 21
243.8999562363
  0
LINE
  5
218
100
AcDbEntity
  8
0
100
AcDbLine
 62
7
  6
CONTINUOUS
 10
44.6814159564
 20
243.8999562363
 11
44.6814159564
 21
243.7999562363
  0
LINE
  5
219
100
AcDbEntity
  8
0
100
AcDbLine
 62
7
  6
CONTINUOUS
 10
48.9067645837
 20
243.8999562363
 11
48.9067645838
 21
250.5999562363
  0
LINE
  5
21A
100
AcDbEntity
  8
0
100
AcDbLine
 62
7
  6
CONTINUOUS
 10
48.5567645824
 20
250.5999562363
 11
49.1567645824
 21
273.8999562363
  0
LINE
  5
21B
100
AcDbEntity
  8
0
100
AcDbLine
 62
7
  6
CONTINUOUS
 10
49.6067645824
 20
242.8999562363
 11
49.6067645826
 21
243.8999562363
  0
LINE
  5
21C
100
AcDbEntity
  8
0
100
AcDbLine
 62
7
  6
CONTINUOUS
 10
50.5609175674
 20
275.8999562364
 11
50.5608994193
 21
276.8825048739
  0
LINE
  5
21D
100
AcDbEntity
  8
0
100
AcDbLine
 62
7
  6
CONTINUOUS
 10
50.6319779742
 20
278.9174086428
 11
50.6319779742
 21
279.8999562363
  0
LINE
  5
21E
100
AcDbEntity
  8
0
100
AcDbLine
 62
7
  6
CONTINUOUS
 10
50.8067645824
 20
278.2999562363
 11
50.8067645824
 21
275.8999562363
  0
LINE
  5
21F
100
AcDbEntity
  8
0
100
AcDbLine
 62
7
  6
CONTINUOUS
 10
53.9067645824
 20
279.8999562363
 11
53.9067645861
 21
278.2999562363
  0
LINE
  5
220
100
AcDbEntity
  8
0
100
AcDbLine
 62
7
  6
CONTINUOUS
 10
56.4067645824
 20
278.2999562363
 11
56.4067645824
 21
275.8999562363
  0
LINE
  5
221
100
AcDbEntity
  8
0
100
AcDbLine
 62
7
  6
CONTINUOUS
 10
52.9546324766
 20
273.8999562363
 11
52.963362682
 21
274.399956466
  0
LINE
  5
222
100
AcDbEntity
  8
0
100
AcDbLine
 62
7
  6
CONTINUOUS
 10
57.9588251282
 20
276.882502912
 11
57.9943445316
 21
278.9174081675
  0
LINE
  5
223
100
AcDbEntity
  8
0
100
AcDbLine
 62
7
  6
CONTINUOUS
 10
58.958016238
 20
276.8650580944
 11
58.9941036832
 21
278.9349167805
  0
LINE
  5
224
100
AcDbEntity
  8
0
100
AcDbLine
 62
7
  6
CONTINUOUS
 10
52.6556047031
 20
273.8999562363
 11
52.0556047031
 21
250.5999562363
  0
LINE
  5
225
100
AcDbEntity
  8
0
100
AcDbLine
 62
7
  6
CONTINUOUS
 10
49.6325871471
 20
278.934855733
 11
49.4567645824
 21
273.8999562363
  0
LINE
  5
226
100
AcDbEntity
  8
0
100
AcDbLine
 62
7
  6
CONTINUOUS
 10
50.6319779742
 20
278.9174086428
 11
50.5608993884
 21
276.8825048739
  0
LINE
  5
227
100
AcDbEntity
  8
0
100
AcDbLine
 62
7
  6
CONTINUOUS
 10
52.963362682
 20
274.399956466
 11
53.0244739654
 21
275.8999549579
  0
LINE
  5
228
100
AcDbEntity
  8
0
100
AcDbLine
 62
7
  6
CONTINUOUS
 10
43.7543883875
 20
243.7999562363
 11
43.6067645823
 21
243.1156995505
  0
LINE
  5
229
100
AcDbEntity
  8
0
100
AcDbLine
 62
7
  6
CONTINUOUS
 10
62.6567645824
 20
279.9999562363
 11
62.6567645824
 21
279.8999561663
  0
LINE
  5
22A
100
AcDbEntity
  8
0
100
AcDbLine
 62
7
  6
CONTINUOUS
 10
62.6567645824
 20
242.8999562363
 11
62.6567645824
 21
242.8199562363
  0
LINE
  5
22B
100
AcDbEntity
  8
0
100
AcDbLine
 62
7
  6
CONTINUOUS
 10
64.6567645824
 20
242.8199562363
 11
64.6567645824
 21
242.8999562363
  0
LINE
  5
22C
100
AcDbEntity
  8
0
100
AcDbLine
 62
7
  6
CONTINUOUS
 10
67.9646356483
 20
289.3999562363
 11
67.9646356483
 21
289.8999562363
  0
LINE
  5
22D
100
AcDbEntity
  8
0
100
AcDbLine
 62
7
  6
CONTINUOUS
 10
68.6567645824
 20
279.9999562363
 11
68.6567645824
 21
279.8999562326
  0
LINE
  5
22E
100
AcDbEntity
  8
0
100
AcDbLine
 62
7
  6
CONTINUOUS
 10
69.8649722773
 20
289.3999562363
 11
69.8649722773
 21
289.8999562363
  0
LINE
  5
22F
100
AcDbEntity
  8
0
100
AcDbLine
 62
7
  6
CONTINUOUS
 10
67.5192566593
 20
279.9999562363
 11
67.8475118925
 21
289.3999562363
  0
LINE
  5
230
100
AcDbEntity
  8
0
100
AcDbLine
 62
7
  6
CONTINUOUS
 10
68.7782798979
 20
287.3999562363
 11
68.5862156657
 21
281.8999562363
  0
LINE
  5
231
100
AcDbEntity
  8
0
100
AcDbLine
 62
7
  6
CONTINUOUS
 10
72.0567645824
 20
281.8999562363
 11
72.0567645824
 21
287.3999562363
  0
LINE
  5
232
100
AcDbEntity
  8
0
100
AcDbLine
 62
7
  6
CONTINUOUS
 10
73.0567645824
 20
279.8999562363
 11
73.0567645824
 21
289.3999562363
  0
LINE
  5
233
100
AcDbEntity
  8
0
100
AcDbLine
 62
7
  6
CONTINUOUS
 10
83.053962259
 20
272.4175943265
 11
86.2788047922
 21
260.3823181461
  0
LINE
  5
234
100
AcDbEntity
  8
0
100
AcDbLine
 62
7
  6
CONTINUOUS
 10
98.1567645824
 20
242.8999562363
 11
98.1567645824
 21
242.8199562363
  0
LINE
  5
235
100
AcDbEntity
  8
0
100
AcDbLine
 62
7
  6
CONTINUOUS
 10
100.1567645824
 20
242.8199562363
 11
100.1567645824
 21
242.8999562363
  0
LINE
  5
236
100
AcDbEntity
  8
0
100
AcDbLine
 62
7
  6
CONTINUOUS
 10
72.0567645824
 20
287.3999562363
 11
73.0567645824
 21
288.3999562363
  0
LINE
  5
237
100
AcDbEntity
  8
0
100
AcDbLine
 62
7
  6
CONTINUOUS
 10
68.5862156657
 20
281.8999562363
 11
67.5506853519
 21
280.8999562363
  0
LINE
  5
238
100
AcDbEntity
  8
0
100
AcDbLine
 62
7
  6
CONTINUOUS
 10
73.0567645824
 20
280.8999562363
 11
72.0567645824
 21
281.8999562363
  0
LINE
  5
239
100
AcDbEntity
  8
0
100
AcDbLine
 62
7
  6
CONTINUOUS
 10
67.8125911231
 20
288.3999562363
 11
68.7782798979
 21
287.3999562363
  0
LINE
  5
23A
100
AcDbEntity
  8
0
100
AcDbLine
 62
7
  6
CONTINUOUS
 10
346.7797370135
 20
242.9156995504
 11
347.7067645824
 21
243.1156995505
  0
LINE
  5
23B
100
AcDbEntity
  8
0
100
AcDbLine
 62
7
  6
CONTINUOUS
 10
43.6067645824
 20
243.1156995505
 11
44.5337921513
 21
242.9156995504
  0
LINE
  5
23C
100
AcDbEntity
  8
0
100
AcDbLine
 62
7
  6
CONTINUOUS
 10
155.1567645824
 20
268.8999562363
 11
155.1567645824
 21
275.3121040014
  0
LINE
  5
23D
100
AcDbEntity
  8
0
100
AcDbLine
 62
7
  6
CONTINUOUS
 10
157.1567645824
 20
275.3121040014
 11
157.1567645824
 21
268.8999562363
  0
LINE
  5
23E
100
AcDbEntity
  8
0
100
AcDbLine
 62
7
  6
CONTINUOUS
 10
161.1567645824
 20
262.7786358928
 11
161.1567645824
 21
267.8999562363
  0
LINE
  5
23F
100
AcDbEntity
  8
0
100
AcDbLine
 62
7
  6
CONTINUOUS
 10
328.6567645824
 20
242.8199562363
 11
310.1567645824
 21
242.8199562363
  0
LINE
  5
240
100
AcDbEntity
  8
0
100
AcDbLine
 62
7
  6
CONTINUOUS
 10
62.6567645824
 20
242.8199562363
 11
100.1567645824
 21
242.8199562363
  0
LINE
  5
241
100
AcDbEntity
  8
0
100
AcDbLine
 62
7
  6
CONTINUOUS
 10
44.6814159564
 20
242.8999562363
 11
346.6321132084
 21
242.8999562363
  0
LINE
  5
242
100
AcDbEntity
  8
0
100
AcDbLine
 62
7
  6
CONTINUOUS
 10
346.7797370135
 20
242.9156995505
 11
44.5337921557
 21
242.9156995495
  0
LINE
  5
243
100
AcDbEntity
  8
0
100
AcDbLine
 62
7
  6
CONTINUOUS
 10
43.6067645824
 20
243.1156995504
 11
347.7067645824
 21
243.1156995505
  0
LINE
  5
244
100
AcDbEntity
  8
0
100
AcDbLine
 62
7
  6
CONTINUOUS
 10
43.7543883875
 20
243.7999562363
 11
347.5591407772
 21
243.7999562363
  0
LINE
  5
245
100
AcDbEntity
  8
0
100
AcDbLine
 62
7
  6
CONTINUOUS
 10
41.992938628
 20
243.8999562363
 11
349.3205905367
 21
243.8999562363
  0
LINE
  5
246
100
AcDbEntity
  8
0
100
AcDbLine
 62
7
  6
CONTINUOUS
 10
170.1567645824
 20
262.7786358928
 11
170.1567645824
 21
267.8999562363
  0
LINE
  5
247
100
AcDbEntity
  8
0
100
AcDbLine
 62
7
  6
CONTINUOUS
 10
174.1567645824
 20
268.8999562363
 11
174.1567645824
 21
275.3121040014
  0
LINE
  5
248
100
AcDbEntity
  8
0
100
AcDbLine
 62
7
  6
CONTINUOUS
 10
41.4067645824
 20
250.5999562363
 11
349.9067645824
 21
250.5999562363
  0
LINE
  5
249
100
AcDbEntity
  8
0
100
AcDbLine
 62
7
  6
CONTINUOUS
 10
176.1567645824
 20
275.3121040014
 11
176.1567645824
 21
268.8999562363
  0
LINE
  5
24A
100
AcDbEntity
  8
0
100
AcDbLine
 62
7
  6
CONTINUOUS
 10
179.0847243725
 20
260.3823181461
 11
182.3095669057
 21
272.4175943265
  0
LINE
  5
24B
100
AcDbEntity
  8
0
100
AcDbLine
 62
7
  6
CONTINUOUS
 10
88.2106564448
 20
258.8999562363
 11
177.1528727199
 21
258.8999562363
  0
LINE
  5
24C
100
AcDbEntity
  8
0
100
AcDbLine
 62
7
  6
CONTINUOUS
 10
214.1606564448
 20
258.8999562363
 11
303.10287272
 21
258.8999562363
  0
LINE
  5
24D
100
AcDbEntity
  8
0
100
AcDbLine
 62
7
  6
CONTINUOUS
 10
161.1567645824
 20
262.7786358928
 11
170.1567645824
 21
262.7786358928
  0
LINE
  5
24E
100
AcDbEntity
  8
0
100
AcDbLine
 62
7
  6
CONTINUOUS
 10
170.1567645824
 20
267.8999562363
 11
161.1567645824
 21
267.8999562363
  0
LINE
  5
24F
100
AcDbEntity
  8
0
100
AcDbLine
 62
7
  6
CONTINUOUS
 10
155.1567645824
 20
268.8999562363
 11
157.1567645824
 21
268.8999562363
  0
LINE
  5
250
100
AcDbEntity
  8
0
100
AcDbLine
 62
7
  6
CONTINUOUS
 10
174.1567645824
 20
268.8999562363
 11
176.1567645824
 21
268.8999562363
  0
LINE
  5
251
100
AcDbEntity
  8
0
100
AcDbLine
 62
7
  6
CONTINUOUS
 10
176.1567645824
 20
269.8999562363
 11
174.1567645824
 21
269.8999562363
  0
LINE
  5
252
100
AcDbEntity
  8
0
100
AcDbLine
 62
7
  6
CONTINUOUS
 10
157.1567645824
 20
269.8999562363
 11
155.1567645824
 21
269.8999562363
  0
LINE
  5
253
100
AcDbEntity
  8
0
100
AcDbLine
 62
7
  6
CONTINUOUS
 10
49.1567645824
 20
273.8999562363
 11
81.1221106064
 21
273.8999562363
  0
LINE
  5
254
100
AcDbEntity
  8
0
100
AcDbLine
 62
7
  6
CONTINUOUS
 10
184.2414185583
 20
273.8999562363
 11
207.0721106064
 21
273.8999562363
  0
LINE
  5
255
100
AcDbEntity
  8
0
100
AcDbLine
 62
7
  6
CONTINUOUS
 10
310.1914185584
 20
273.8999562363
 11
342.1567645824
 21
273.8999562363
  0
LINE
  5
256
100
AcDbEntity
  8
0
100
AcDbLine
 62
7
  6
CONTINUOUS
 10
327.679985777
 20
274.8999562363
 11
323.6335433877
 21
274.8999562363
  0
LINE
  5
257
100
AcDbEntity
  8
0
100
AcDbLine
 62
7
  6
CONTINUOUS
 10
67.679985777
 20
274.8999562363
 11
63.6335433877
 21
274.8999562363
  0
LINE
  5
258
100
AcDbEntity
  8
0
100
AcDbLine
 62
7
  6
CONTINUOUS
 10
176.1567645824
 20
275.3121040014
 11
174.1567645824
 21
275.3121040014
  0
LINE
  5
259
100
AcDbEntity
  8
0
100
AcDbLine
 62
7
  6
CONTINUOUS
 10
157.1567645824
 20
275.3121040014
 11
155.1567645824
 21
275.3121040014
  0
LINE
  5
25A
100
AcDbEntity
  8
0
100
AcDbLine
 62
7
  6
CONTINUOUS
 10
49.5266061213
 20
275.8999562363
 11
57.2469640424
 21
275.8999562363
  0
LINE
  5
25B
100
AcDbEntity
  8
0
100
AcDbLine
 62
7
  6
CONTINUOUS
 10
334.066565139
 20
275.8999562363
 11
341.7869230806
 21
275.8999562363
  0
LINE
  5
25C
100
AcDbEntity
  8
0
100
AcDbLine
 62
7
  6
CONTINUOUS
 10
340.7526386209
 20
276.8825029163
 11
340.5067645824
 21
276.8825029163
  0
LINE
  5
25D
100
AcDbEntity
  8
0
100
AcDbLine
 62
7
  6
CONTINUOUS
 10
57.9588251303
 20
276.8825030302
 11
56.4067645824
 21
276.8825030302
  0
LINE
  5
25E
100
AcDbEntity
  8
0
100
AcDbLine
 62
7
  6
CONTINUOUS
 10
334.9067645824
 20
276.882503396
 11
333.354704028
 21
276.882503396
  0
LINE
  5
25F
100
AcDbEntity
  8
0
100
AcDbLine
 62
7
  6
CONTINUOUS
 10
50.8067645824
 20
276.8825048739
 11
50.5608993884
 21
276.8825048739
  0
LINE
  5
260
100
AcDbEntity
  8
0
100
AcDbLine
 62
7
  6
CONTINUOUS
 10
50.8067645824
 20
278.2999562363
 11
56.4067645824
 21
278.2999562363
  0
LINE
  5
261
100
AcDbEntity
  8
0
100
AcDbLine
 62
7
  6
CONTINUOUS
 10
334.9067645824
 20
278.2999562363
 11
340.5067645824
 21
278.2999562363
  0
LWPOLYLINE
  5
262
100
AcDbEntity
  8
0
100
AcDbPolyline
 62
7
  6
CONTINUOUS
 90
3
 70
0
 10
226.7700216899
 20
284.897253523
 10
225.7745375797
 20
284.697452681
 10
225.1384648923
 20
284.3526627597
  0
LINE
  5
263
100
AcDbEntity
  8
0
100
AcDbLine
 62
7
  6
CONTINUOUS
 10
226.7715734023
 20
284.8974420609
 11
226.8942356569
 21
284.8999562334
  0
LINE
  5
264
100
AcDbEntity
  8
0
100
AcDbLine
 62
7
  6
CONTINUOUS
 10
50.6319779742
 20
278.9174086428
 11
57.9943445357
 21
278.9174084051
  0
LINE
  5
265
100
AcDbEntity
  8
0
100
AcDbLine
 62
7
  6
CONTINUOUS
 10
50.6319779742
 20
279.8999562363
 11
62.8557061229
 21
279.8999562363
  0
LINE
  5
266
100
AcDbEntity
  8
0
100
AcDbLine
 62
7
  6
CONTINUOUS
 10
68.4577258937
 20
279.8999562363
 11
256.2176066259
 21
279.8999562363
  0
LINE
  5
267
100
AcDbEntity
  8
0
100
AcDbLine
 62
7
  6
CONTINUOUS
 10
62.6567645824
 20
279.9999562363
 11
68.6567645824
 21
279.9999562363
  0
LINE
  5
268
100
AcDbEntity
  8
0
100
AcDbLine
 62
7
  6
CONTINUOUS
 10
323.4543343313
 20
279.9999562363
 11
327.8591948334
 21
279.9999562363
  0
LINE
  5
269
100
AcDbEntity
  8
0
100
AcDbLine
 62
7
  6
CONTINUOUS
 10
67.5506853519
 20
280.8999562363
 11
73.0567645824
 21
280.8999562363
  0
LINE
  5
26A
100
AcDbEntity
  8
0
100
AcDbLine
 62
7
  6
CONTINUOUS
 10
232.1567645824
 20
280.8999562363
 11
237.6567645824
 21
280.8999562363
  0
LINE
  5
26B
100
AcDbEntity
  8
0
100
AcDbLine
 62
7
  6
CONTINUOUS
 10
237.6567645824
 20
281.8999562363
 11
233.1567645824
 21
281.8999562363
  0
LINE
  5
26C
100
AcDbEntity
  8
0
100
AcDbLine
 62
7
  6
CONTINUOUS
 10
68.5862156657
 20
281.8999562363
 11
72.0567645824
 21
281.8999562363
  0
LINE
  5
26D
100
AcDbEntity
  8
0
100
AcDbLine
 62
7
  6
CONTINUOUS
 10
333.2319093045
 20
283.9174084021
 11
340.5069473575
 21
283.9174081601
  0
LINE
  5
26E
100
AcDbEntity
  8
0
100
AcDbLine
 62
7
  6
CONTINUOUS
 10
226.8943688883
 20
284.3999415857
 11
232.1567645824
 21
284.3999562363
  0
LINE
  5
26F
100
AcDbEntity
  8
0
100
AcDbLine
 62
7
  6
CONTINUOUS
 10
238.1567645824
 20
284.6070630175
 11
257.4130847127
 21
284.6070630175
  0
LINE
  5
270
100
AcDbEntity
  8
0
100
AcDbLine
 62
7
  6
CONTINUOUS
 10
226.8943688871
 20
284.8999562363
 11
232.1567645824
 21
284.8999562363
  0
LINE
  5
271
100
AcDbEntity
  8
0
100
AcDbLine
 62
7
  6
CONTINUOUS
 10
237.6567645824
 20
284.8999562363
 11
257.4284345959
 21
284.8999562363
  0
LINE
  5
272
100
AcDbEntity
  8
0
100
AcDbLine
 62
7
  6
CONTINUOUS
 10
258.3773991625
 20
284.8999562363
 11
340.5069473432
 21
284.8999562363
  0
LINE
  5
273
100
AcDbEntity
  8
0
100
AcDbLine
 62
7
  6
CONTINUOUS
 10
313.2765316344
 20
285.4206310154
 11
262.3369849497
 21
285.4206310154
  0
LINE
  5
274
100
AcDbEntity
  8
0
100
AcDbLine
 62
7
  6
CONTINUOUS
 10
72.0567645824
 20
287.3999562363
 11
68.7782798979
 21
287.3999562363
  0
LINE
  5
275
100
AcDbEntity
  8
0
100
AcDbLine
 62
7
  6
CONTINUOUS
 10
233.1567645824
 20
287.3999562363
 11
237.6567645824
 21
287.3999562363
  0
LWPOLYLINE
  5
276
100
AcDbEntity
  8
0
100
AcDbPolyline
 62
7
  6
CONTINUOUS
 90
3
 70
0
 10
331.4925097813
 20
284.9014490896
 10
325.6559401229
 20
284.9329595178
 10
319.1340405459
 20
284.9287486492
  0
LINE
  5
277
100
AcDbEntity
  8
0
100
AcDbLine
 62
7
  6
CONTINUOUS
 10
209.003962259
 20
272.4175943265
 11
212.2288047922
 21
260.3823181461
  0
LINE
  5
278
100
AcDbEntity
  8
0
100
AcDbLine
 62
7
  6
CONTINUOUS
 10
222.2755667359
 20
279.8999562363
 11
224.2953990222
 21
283.3984083789
  0
LINE
  5
279
100
AcDbEntity
  8
0
100
AcDbLine
 62
7
  6
CONTINUOUS
 10
224.7293180681
 20
283.1499489117
 11
222.8529235916
 21
279.8999562363
  0
LINE
  5
27A
100
AcDbEntity
  8
0
100
AcDbLine
 62
7
  6
CONTINUOUS
 10
225.1384648923
 20
284.3526627597
 11
224.4275671153
 21
283.6076973565
  0
LINE
  5
27B
100
AcDbEntity
  8
0
100
AcDbLine
 62
7
  6
CONTINUOUS
 10
237.6567645824
 20
289.3999562363
 11
232.1567645824
 21
289.3999562363
  0
LINE
  5
27C
100
AcDbEntity
  8
0
100
AcDbLine
 62
7
  6
CONTINUOUS
 10
73.0567645824
 20
289.3999562363
 11
67.8475118925
 21
289.3999562363
  0
LINE
  5
27D
100
AcDbEntity
  8
0
100
AcDbLine
 62
7
  6
CONTINUOUS
 10
69.8649722773
 20
289.8999562363
 11
67.9646356483
 21
289.8999562363
  0
LINE
  5
27E
100
AcDbEntity
  8
0
100
AcDbLine
 62
7
  6
CONTINUOUS
 10
224.2962926785
 20
283.3999562372
 11
224.7293117245
 21
283.1499525744
  0
LINE
  5
27F
100
AcDbEntity
  8
0
100
AcDbLine
 62
7
  6
CONTINUOUS
 10
226.8943688871
 20
284.399948911
 11
226.8943688871
 21
284.8999562363
  0
LINE
  5
280
100
AcDbEntity
  8
0
100
AcDbLine
 62
7
  6
CONTINUOUS
 10
233.1567645824
 20
281.8999562363
 11
232.1567645824
 21
280.8999562363
  0
LINE
  5
281
100
AcDbEntity
  8
0
100
AcDbLine
 62
7
  6
CONTINUOUS
 10
231.156764582
 20
284.8999562363
 11
231.156764582
 21
279.8999562363
  0
LINE
  5
282
100
AcDbEntity
  8
0
100
AcDbLine
 62
7
  6
CONTINUOUS
 10
232.1567645824
 20
279.8999562363
 11
232.1567645824
 21
289.3999562363
  0
LINE
  5
283
100
AcDbEntity
  8
0
100
AcDbLine
 62
7
  6
CONTINUOUS
 10
233.1567645824
 20
281.8999562363
 11
233.1567645824
 21
287.3999562363
  0
LINE
  5
284
100
AcDbEntity
  8
0
100
AcDbLine
 62
7
  6
CONTINUOUS
 10
237.6567645824
 20
279.8999562363
 11
237.6567645824
 21
284.3999562363
  0
LINE
  5
285
100
AcDbEntity
  8
0
100
AcDbLine
 62
7
  6
CONTINUOUS
 10
237.6567645824
 20
284.8999562363
 11
237.6567645824
 21
289.3999562363
  0
LINE
  5
286
100
AcDbEntity
  8
0
100
AcDbLine
 62
7
  6
CONTINUOUS
 10
238.1567645824
 20
279.8999562363
 11
238.1567645824
 21
284.8999562363
  0
LINE
  5
287
100
AcDbEntity
  8
0
100
AcDbLine
 62
7
  6
CONTINUOUS
 10
258.7910368573
 20
310.8999562363
 11
316.8224923075
 21
310.8999562363
  0
LINE
  5
288
100
AcDbEntity
  8
0
100
AcDbLine
 62
7
  6
CONTINUOUS
 10
268.1567645824
 20
310.9999562363
 11
312.1567645824
 21
310.9999562363
  0
LINE
  5
289
100
AcDbEntity
  8
0
100
AcDbLine
 62
7
  6
CONTINUOUS
 10
260.8172407469
 20
311.3999562363
 11
258.8172407469
 21
311.3999562363
  0
LINE
  5
28A
100
AcDbEntity
  8
0
100
AcDbLine
 62
7
  6
CONTINUOUS
 10
233.1567645824
 20
287.3999562363
 11
232.1567645824
 21
288.3999562363
  0
LINE
  5
28B
100
AcDbEntity
  8
0
100
AcDbLine
 62
7
  6
CONTINUOUS
 10
256.2182830236
 20
278.9390379775
 11
256.2166328552
 21
279.9002488598
  0
LINE
  5
28C
100
AcDbEntity
  8
0
100
AcDbLine
 62
7
  6
CONTINUOUS
 10
258.3773996688
 20
283.9351880593
 11
258.3773998067
 21
284.8999561792
  0
LINE
  5
28D
100
AcDbEntity
  8
0
100
AcDbLine
 62
7
  6
CONTINUOUS
 10
257.2160586682
 20
280.8475821297
 11
258.8172407469
 21
311.3999562363
  0
LINE
  5
28E
100
AcDbEntity
  8
0
100
AcDbLine
 62
7
  6
CONTINUOUS
 10
258.3773994186
 20
283.9351881755
 11
258.2147291652
 21
280.8309273548
  0
LINE
  5
28F
100
AcDbEntity
  8
0
100
AcDbLine
 62
7
  6
CONTINUOUS
 10
260.8172407469
 20
310.8999562363
 11
260.8172407469
 21
311.3999562363
  0
LINE
  5
290
100
AcDbEntity
  8
0
100
AcDbLine
 62
7
  6
CONTINUOUS
 10
262.3369817996
 20
285.4206310154
 11
262.3369817996
 21
284.8999562363
  0
LINE
  5
291
100
AcDbEntity
  8
0
100
AcDbLine
 62
7
  6
CONTINUOUS
 10
268.1567645824
 20
310.9999562363
 11
268.1567645824
 21
310.8999562363
  0
LINE
  5
292
100
AcDbEntity
  8
0
100
AcDbLine
 62
7
  6
CONTINUOUS
 10
269.1567645824
 20
310.8999562363
 11
269.1567645824
 21
310.9999562363
  0
LINE
  5
293
100
AcDbEntity
  8
0
100
AcDbLine
 62
7
  6
CONTINUOUS
 10
263.6722967762
 20
310.8999562363
 11
262.3369849497
 21
285.4206310154
  0
LINE
  5
294
100
AcDbEntity
  8
0
100
AcDbLine
 62
7
  6
CONTINUOUS
 10
310.1567645824
 20
242.8999562363
 11
310.1567645824
 21
242.8199562363
  0
LINE
  5
295
100
AcDbEntity
  8
0
100
AcDbLine
 62
7
  6
CONTINUOUS
 10
310.1567645824
 20
310.8999562363
 11
310.1567645824
 21
310.9999562363
  0
LINE
  5
296
100
AcDbEntity
  8
0
100
AcDbLine
 62
7
  6
CONTINUOUS
 10
312.1567645824
 20
310.9999562363
 11
312.1567645824
 21
310.8999562363
  0
LINE
  5
297
100
AcDbEntity
  8
0
100
AcDbLine
 62
7
  6
CONTINUOUS
 10
312.1567645824
 20
242.8199562363
 11
312.1567645824
 21
242.8999562363
  0
LINE
  5
298
100
AcDbEntity
  8
0
100
AcDbLine
 62
7
  6
CONTINUOUS
 10
305.0347243725
 20
260.3823181461
 11
308.2595669057
 21
272.4175943265
  0
LINE
  5
299
100
AcDbEntity
  8
0
100
AcDbLine
 62
7
  6
CONTINUOUS
 10
313.2765316344
 20
285.4206310154
 11
311.9412323885
 21
310.8999562363
  0
LINE
  5
29A
100
AcDbEntity
  8
0
100
AcDbLine
 62
7
  6
CONTINUOUS
 10
316.8224923075
 20
310.8999562363
 11
318.1354296013
 21
285.8476202692
  0
LINE
  5
29B
100
AcDbEntity
  8
0
100
AcDbLine
 62
7
  6
CONTINUOUS
 10
313.2765393049
 20
285.4206310154
 11
313.2765393049
 21
284.8999562363
  0
LINE
  5
29C
100
AcDbEntity
  8
0
100
AcDbLine
 62
7
  6
CONTINUOUS
 10
332.3555221306
 20
276.8650588892
 11
332.2320599211
 21
283.9351906917
  0
LINE
  5
29D
100
AcDbEntity
  8
0
100
AcDbLine
 62
7
  6
CONTINUOUS
 10
333.2319093002
 20
283.9174086428
 11
333.3547040018
 21
276.882504898
  0
LINE
  5
29E
100
AcDbEntity
  8
0
100
AcDbLine
 62
7
  6
CONTINUOUS
 10
326.6567645824
 20
242.8999562363
 11
326.6567645824
 21
242.8199562363
  0
LINE
  5
29F
100
AcDbEntity
  8
0
100
AcDbLine
 62
7
  6
CONTINUOUS
 10
328.6567645824
 20
242.8199562363
 11
328.6567645824
 21
242.8999562363
  0
LINE
  5
2A0
100
AcDbEntity
  8
0
100
AcDbLine
 62
7
  6
CONTINUOUS
 10
332.2320622508
 20
284.8999562363
 11
332.2320599214
 21
283.9351906315
  0
LINE
  5
2A1
100
AcDbEntity
  8
0
100
AcDbLine
 62
7
  6
CONTINUOUS
 10
338.2890551488
 20
275.8999562363
 11
338.350166452
 21
274.399956821
  0
LINE
  5
2A2
100
AcDbEntity
  8
0
100
AcDbLine
 62
7
  6
CONTINUOUS
 10
340.7526386209
 20
276.8825029163
 11
340.5069473575
 21
283.9174081601
  0
LINE
  5
2A3
100
AcDbEntity
  8
0
100
AcDbLine
 62
7
  6
CONTINUOUS
 10
341.8567645824
 20
273.8999562363
 11
341.5063381702
 21
283.934855733
  0
LINE
  5
2A4
100
AcDbEntity
  8
0
100
AcDbLine
 62
7
  6
CONTINUOUS
 10
339.2579244617
 20
250.5999562363
 11
338.6579244617
 21
273.8999562363
  0
LINE
  5
2A5
100
AcDbEntity
  8
0
100
AcDbLine
 62
7
  6
CONTINUOUS
 10
342.1567645824
 20
273.8999562363
 11
342.7567645824
 21
250.5999562363
  0
LINE
  5
2A6
100
AcDbEntity
  8
0
100
AcDbLine
 62
7
  6
CONTINUOUS
 10
338.350166452
 20
274.399956821
 11
338.3588966878
 21
273.8999562363
  0
LINE
  5
2A7
100
AcDbEntity
  8
0
100
AcDbLine
 62
7
  6
CONTINUOUS
 10
334.9067645824
 20
278.2999562363
 11
334.9067645824
 21
275.8999562363
  0
LINE
  5
2A8
100
AcDbEntity
  8
0
100
AcDbLine
 62
7
  6
CONTINUOUS
 10
337.4067645854
 20
278.2999562363
 11
337.4067645821
 21
284.8999562363
  0
LINE
  5
2A9
100
AcDbEntity
  8
0
100
AcDbLine
 62
7
  6
CONTINUOUS
 10
340.5067645824
 20
278.2999562363
 11
340.5067645824
 21
275.8999562363
  0
LINE
  5
2AA
100
AcDbEntity
  8
0
100
AcDbLine
 62
7
  6
CONTINUOUS
 10
340.5069473432
 20
284.8999562363
 11
340.5069473432
 21
283.9174081601
  0
LINE
  5
2AB
100
AcDbEntity
  8
0
100
AcDbLine
 62
7
  6
CONTINUOUS
 10
341.7067645826
 20
243.8999562363
 11
341.7067645824
 21
242.8999562363
  0
LINE
  5
2AC
100
AcDbEntity
  8
0
100
AcDbLine
 62
7
  6
CONTINUOUS
 10
342.4067645789
 20
250.5999562363
 11
342.4067645791
 21
243.8999562363
  0
LINE
  5
2AD
100
AcDbEntity
  8
0
100
AcDbLine
 62
7
  6
CONTINUOUS
 10
346.6321132084
 20
243.7999562363
 11
346.6321132084
 21
243.8999562363
  0
LINE
  5
2AE
100
AcDbEntity
  8
0
100
AcDbLine
 62
7
  6
CONTINUOUS
 10
340.7526386245
 20
276.8825029163
 11
340.7526116263
 21
275.8999562364
  0
LINE
  5
2AF
100
AcDbEntity
  8
0
100
AcDbLine
 62
7
  6
CONTINUOUS
 10
349.3205905367
 20
243.8999562363
 11
349.9067645824
 21
250.5999562363
  0
LINE
  5
2B0
100
AcDbEntity
  8
0
100
AcDbLine
 62
7
  6
CONTINUOUS
 10
347.7067645824
 20
243.1156995505
 11
347.5591407773
 21
243.7999562363
  0
ARC
  5
2B1
100
AcDbEntity
  8
0
100
AcDbCircle
 62
7
  6
CONTINUOUS
 10
44.6814159564
 20
243.5999562365
 40
0.7
100
AcDbArc
 50
257.8254189776
 51
269.9999999971
  0
ARC
  5
2B2
100
AcDbEntity
  8
0
100
AcDbCircle
 62
7
  6
CONTINUOUS
 10
-771.5325500157
 20
306.9308645697
 40
839.8235882138
100
AcDbArc
 50
357.8142063163
 51
358.0896631317
  0
ARC
  5
2B3
100
AcDbEntity
  8
0
100
AcDbCircle
 62
7
  6
CONTINUOUS
 10
56.9589774491
 20
276.8999562363
 40
1.0
100
AcDbArc
 50
285.6433756349
 51
358.9999474027
  0
ARC
  5
2B4
100
AcDbEntity
  8
0
100
AcDbCircle
 62
7
  6
CONTINUOUS
 10
58.9941922351
 20
278.8999562363
 40
1.0
100
AcDbArc
 50
90.0056445749
 51
179.0000272358
  0
ARC
  5
2B5
100
AcDbEntity
  8
0
100
AcDbCircle
 62
7
  6
CONTINUOUS
 10
50.6319779742
 20
278.8999562363
 40
1.0
100
AcDbArc
 50
90.0
 51
178.0000000001
  0
ARC
  5
2B6
100
AcDbEntity
  8
0
100
AcDbCircle
 62
7
  6
CONTINUOUS
 10
88.2106564448
 20
260.8999562363
 40
2.0
100
AcDbArc
 50
194.9999999998
 51
270.0
  0
ARC
  5
2B7
100
AcDbEntity
  8
0
100
AcDbCircle
 62
7
  6
CONTINUOUS
 10
177.1528727199
 20
260.8999562363
 40
2.0
100
AcDbArc
 50
270.0
 51
344.9999999999
  0
ARC
  5
2B8
100
AcDbEntity
  8
0
100
AcDbCircle
 62
7
  6
CONTINUOUS
 10
184.2414185583
 20
271.8999562363
 40
2.0
100
AcDbArc
 50
90.0
 51
164.9999999999
  0
ARC
  5
2B9
100
AcDbEntity
  8
0
100
AcDbCircle
 62
7
  6
CONTINUOUS
 10
207.0721106064
 20
271.8999562363
 40
2.0
100
AcDbArc
 50
15.0000000001
 51
90.0
  0
ARC
  5
2BA
100
AcDbEntity
  8
0
100
AcDbCircle
 62
7
  6
CONTINUOUS
 10
214.1606564448
 20
260.8999562363
 40
2.0
100
AcDbArc
 50
195.0000000001
 51
270.0
  0
ARC
  5
2BB
100
AcDbEntity
  8
0
100
AcDbCircle
 62
7
  6
CONTINUOUS
 10
303.10287272
 20
260.8999562363
 40
2.0
100
AcDbArc
 50
270.0
 51
345.0000000002
  0
ARC
  5
2BC
100
AcDbEntity
  8
0
100
AcDbCircle
 62
7
  6
CONTINUOUS
 10
310.1914185584
 20
271.8999562363
 40
2.0
100
AcDbArc
 50
90.0
 51
165.0
  0
ARC
  5
2BD
100
AcDbEntity
  8
0
100
AcDbCircle
 62
7
  6
CONTINUOUS
 10
81.1221106064
 20
271.8999562363
 40
2.0
100
AcDbArc
 50
14.9999999999
 51
90.0
  0
ARC
  5
2BE
100
AcDbEntity
  8
0
100
AcDbCircle
 62
7
  6
CONTINUOUS
 10
346.6321132084
 20
243.5999562364
 40
0.7
100
AcDbArc
 50
270.0000000013
 51
282.1745810232
  0
ARC
  5
2BF
100
AcDbEntity
  8
0
100
AcDbCircle
 62
7
  6
CONTINUOUS
 10
902.839968376
 20
306.9289766963
 40
839.8174098536
100
AcDbArc
 50
181.910222638
 51
182.1856808798
  0
ARC
  5
2C0
100
AcDbEntity
  8
0
100
AcDbCircle
 62
7
  6
CONTINUOUS
 10
226.8943688894
 20
281.8999562363
 40
3.0
100
AcDbArc
 50
90.0025445539
 51
150.0145632311
  0
ARC
  5
2C1
100
AcDbEntity
  8
0
100
AcDbCircle
 62
7
  6
CONTINUOUS
 10
226.8943688894
 20
281.8999562363
 40
2.4999853494
100
AcDbArc
 50
90.0000000258
 51
149.9999999831
  0
ARC
  5
2C2
100
AcDbEntity
  8
0
100
AcDbCircle
 62
7
  6
CONTINUOUS
 10
256.2174512773
 20
280.9349601094
 40
2.0000008643
100
AcDbArc
 50
270.0035720677
 51
357.0183137789
  0
ARC
  5
2C3
100
AcDbEntity
  8
0
100
AcDbCircle
 62
7
  6
CONTINUOUS
 10
256.4794700292
 20
285.8999562363
 40
1.0
100
AcDbArc
 50
270.0000001344
 51
356.9996632739
  0
ARC
  5
2C4
100
AcDbEntity
  8
0
100
AcDbCircle
 62
7
  6
CONTINUOUS
 10
258.3773991626
 20
283.8999562363
 40
1.0
100
AcDbArc
 50
89.9988676227
 51
177.0000003925
  0
ARC
  5
2C5
100
AcDbEntity
  8
0
100
AcDbCircle
 62
7
  6
CONTINUOUS
 10
256.2174311328
 20
280.8999562363
 40
1.0
100
AcDbArc
 50
270.0
 51
356.9989055707
  0
ARC
  5
2C6
100
AcDbEntity
  8
0
100
AcDbCircle
 62
7
  6
CONTINUOUS
 10
319.1340591356
 20
285.8999562363
 40
1.0
100
AcDbArc
 50
183.0000006222
 51
270.0
  0
ARC
  5
2C7
100
AcDbEntity
  8
0
100
AcDbCircle
 62
7
  6
CONTINUOUS
 10
332.232061605
 20
283.8999562363
 40
1.0
100
AcDbArc
 50
1.0000000002
 51
89.9999999985
  0
ARC
  5
2C8
100
AcDbEntity
  8
0
100
AcDbCircle
 62
7
  6
CONTINUOUS
 10
334.3545517156
 20
276.8999562363
 40
1.0
100
AcDbArc
 50
180.9999387929
 51
254.3370923588
  0
ARC
  5
2C9
100
AcDbEntity
  8
0
100
AcDbCircle
 62
7
  6
CONTINUOUS
 10
340.5069473432
 20
283.8999562363
 40
1.0
100
AcDbArc
 50
1.9999999999
 51
90.0
  0
ARC
  5
2CA
100
AcDbEntity
  8
0
100
AcDbCircle
 62
7
  6
CONTINUOUS
 10
238.1567645824
 20
284.3999562231
 40
0.499999875
100
AcDbArc
 50
90.0
 51
179.9999984878
  0
SPLINE
  5
2CB
100
AcDbEntity
  8
0
100
AcDbSpline
 62
7
  6
CONTINUOUS
 70
0
 71
3
 72
10
 73
6
 74
0
 42
0.0000001
 43
0.0000001
 44
0.0000000001
 40
0.0
 40
0.0
 40
0.0
 40
0.0
 40
0.499919679
 40
0.7501157983
 40
1.0
 40
1.0
 40
1.0
 40
1.0
 10
331.1565575614
 20
283.9348162199
 30
0.0
 10
331.3357845232
 20
283.9337494027
 30
0.0
 10
331.6048417564
 20
283.9390648544
 30
0.0
 10
331.9630219206
 20
283.9330438261
 30
0.0
 10
332.1428532223
 20
283.9269344314
 30
0.0
 10
332.2320599211
 20
283.9351906917
 30
0.0
  0
SPLINE
  5
2CC
100
AcDbEntity
  8
0
100
AcDbSpline
 62
7
  6
CONTINUOUS
 70
0
 71
3
 72
9
 73
5
 74
0
 42
0.0000001
 43
0.0000001
 44
0.0000000001
 40
0.0
 40
0.0
 40
0.0
 40
0.0
 40
0.7395052965
 40
1.0
 40
1.0
 40
1.0
 40
1.0
 10
257.4781653421
 20
285.8474619553
 30
0.0
 10
257.4716453378
 20
285.7250832374
 30
0.0
 10
257.507929062
 20
285.5543158028
 30
0.0
 10
257.5891452081
 20
285.4097907579
 30
0.0
 10
257.6127017806
 20
285.3736146521
 30
0.0
  0
SPLINE
  5
2CD
100
AcDbEntity
  8
0
100
AcDbSpline
 62
7
  6
CONTINUOUS
 70
0
 71
3
 72
11
 73
7
 74
0
 42
0.0000001
 43
0.0000001
 44
0.0000000001
 40
0.0
 40
0.0
 40
0.0
 40
0.0
 40
0.0846829012
 40
0.2728454444
 40
0.5772039336
 40
1.0
 40
1.0
 40
1.0
 40
1.0
 10
257.4781754824
 20
285.8476560829
 30
0.0
 10
257.476154688
 20
285.8089306152
 30
0.0
 10
257.6097154431
 20
285.7244431951
 30
0.0
 10
257.8456103555
 20
285.6676492155
 30
0.0
 10
258.269733421
 20
285.5888569412
 30
0.0
 10
258.5974139627
 20
285.5551591946
 30
0.0
 10
258.7901823723
 20
285.5371525747
 30
0.0
  0
SPLINE
  5
2CE
100
AcDbEntity
  8
0
100
AcDbSpline
 62
7
  6
CONTINUOUS
 70
0
 71
3
 72
9
 73
5
 74
0
 42
0.0000001
 43
0.0000001
 44
0.0000000001
 40
0.0
 40
0.0
 40
0.0
 40
0.0
 40
0.4445940964
 40
1.0
 40
1.0
 40
1.0
 40
1.0
 10
258.7902069185
 20
285.5372243214
 30
0.0
 10
259.3139803685
 20
285.4882969451
 30
0.0
 10
260.4964739009
 20
285.4277050238
 30
0.0
 10
261.679832544
 20
285.4154490627
 30
0.0
 10
262.3369799749
 20
285.4207409112
 30
0.0
  0
SPLINE
  5
2CF
100
AcDbEntity
  8
0
100
AcDbSpline
 62
7
  6
CONTINUOUS
 70
0
 71
3
 72
16
 73
12
 74
0
 42
0.0000001
 43
0.0000001
 44
0.0000000001
 40
0.0
 40
0.0
 40
0.0
 40
0.0
 40
0.0051349942
 40
0.0196470547
 40
0.0435051697
 40
0.0765503724
 40
0.1690234251
 40
0.2932472685
 40
0.4446323251
 40
0.6174932602
 40
1.0
 40
1.0
 40
1.0
 40
1.0
 10
49.6325871471
 20
278.934855733
 30
0.0
 10
49.6326468817
 20
278.936566306
 30
0.0
 10
49.642532763
 20
278.9360116285
 30
0.0
 10
49.6538444105
 20
278.9383948142
 30
0.0
 10
49.6793957168
 20
278.9383140767
 30
0.0
 10
49.7281401165
 20
278.9393846192
 30
0.0
 10
49.8121430365
 20
278.9386092446
 30
0.0
 10
49.9344747559
 20
278.9370003127
 30
0.0
 10
50.0840530315
 20
278.9337934549
 30
0.0
 10
50.3194999862
 20
278.9277423806
 30
0.0
 10
50.5045479246
 20
278.9218572225
 30
0.0
 10
50.6319688951
 20
278.9174089597
 30
0.0
  0
SPLINE
  5
2D0
100
AcDbEntity
  8
0
100
AcDbSpline
 62
7
  6
CONTINUOUS
 70
0
 71
3
 72
11
 73
7
 74
0
 42
0.0000001
 43
0.0000001
 44
0.0000000001
 40
0.0
 40
0.0
 40
0.0
 40
0.0
 40
0.2500004056
 40
0.4999711937
 40
0.750044757
 40
1.0
 40
1.0
 40
1.0
 40
1.0
 10
60.6649013983
 20
278.9348716372
 30
0.0
 10
60.5256661685
 20
278.934468247
 30
0.0
 10
60.2472187102
 20
278.9357842169
 30
0.0
 10
59.8294490356
 20
278.9317295161
 30
0.0
 10
59.4119008265
 20
278.9365091991
 30
0.0
 10
59.1330958144
 20
278.9427139362
 30
0.0
 10
58.9941036832
 20
278.9349167805
 30
0.0
  0
SPLINE
  5
2D1
100
AcDbEntity
  8
0
100
AcDbSpline
 62
7
  6
CONTINUOUS
 70
0
 71
3
 72
14
 73
10
 74
0
 42
0.0000001
 43
0.0000001
 44
0.0000000001
 40
0.0
 40
0.0
 40
0.0
 40
0.0
 40
0.0179092908
 40
0.0716051828
 40
0.1646992383
 40
0.2940830462
 40
0.4537365537
 40
0.6324557647
 40
1.0
 40
1.0
 40
1.0
 40
1.0
 10
257.2160504662
 20
280.8476072624
 30
0.0
 10
257.2163634131
 20
280.8535697485
 30
0.0
 10
257.2519467894
 20
280.8519296646
 30
0.0
 10
257.2951373305
 20
280.8596566478
 30
0.0
 10
257.3940593265
 20
280.8575301837
 30
0.0
 10
257.5184563514
 20
280.8574095219
 30
0.0
 10
257.6754490946
 20
280.8530034435
 30
0.0
 10
257.9102115543
 20
280.8450612345
 30
0.0
 10
258.0923136864
 20
280.8365583514
 30
0.0
 10
258.2146798977
 20
280.8301515155
 30
0.0
  0
SPLINE
  5
2D2
100
AcDbEntity
  8
0
100
AcDbSpline
 62
7
  6
CONTINUOUS
 70
0
 71
3
 72
14
 73
10
 74
0
 42
0.0000001
 43
0.0000001
 44
0.0000000001
 40
0.0
 40
0.0
 40
0.0
 40
0.0
 40
0.4042258306
 40
0.5790057023
 40
0.7263547053
 40
0.8422022435
 40
0.9255823069
 40
0.9768669995
 40
1.0
 40
1.0
 40
1.0
 40
1.0
 10
313.2765342512
 20
285.4207985063
 30
0.0
 10
313.9399803824
 20
285.4154559575
 30
0.0
 10
314.8909631442
 20
285.4249437279
 30
0.0
 10
316.0813310274
 20
285.4779479937
 30
0.0
 10
316.7999792112
 20
285.5318698357
 30
0.0
 10
317.3613386445
 20
285.5915374704
 30
0.0
 10
317.7764423264
 20
285.6696938149
 30
0.0
 10
318.0085600936
 20
285.7257353622
 30
0.0
 10
318.1373185495
 20
285.8098750375
 30
0.0
 10
318.1353484785
 20
285.8477927613
 30
0.0
  0
SPLINE
  5
2D3
100
AcDbEntity
  8
0
100
AcDbSpline
 62
7
  6
CONTINUOUS
 70
0
 71
3
 72
14
 73
10
 74
0
 42
0.0000001
 43
0.0000001
 44
0.0000000001
 40
0.0
 40
0.0
 40
0.0
 40
0.0
 40
0.0204056381
 40
0.077502544
 40
0.1699709971
 40
0.2940798369
 40
0.4452823901
 40
0.6179254204
 40
1.0
 40
1.0
 40
1.0
 40
1.0
 10
257.378769627
 20
283.9522921754
 30
0.0
 10
257.3791266731
 20
283.9590856678
 30
0.0
 10
257.4180519918
 20
283.9563876674
 30
0.0
 10
257.4624496173
 20
283.9648131726
 30
0.0
 10
257.5603772228
 20
283.9623788304
 30
0.0
 10
257.6801919033
 20
283.9622394917
 30
0.0
 10
257.8304935626
 20
283.9580568561
 30
0.0
 10
258.0652764799
 20
283.9502586927
 30
0.0
 10
258.2502054038
 20
283.9418459912
 30
0.0
 10
258.3774079793
 20
283.9351877441
 30
0.0
  0
SPLINE
  5
2D4
100
AcDbEntity
  8
0
100
AcDbSpline
 62
7
  6
CONTINUOUS
 70
0
 71
3
 72
9
 73
5
 74
0
 42
0.0000001
 43
0.0000001
 44
0.0000000001
 40
0.0
 40
0.0
 40
0.0
 40
0.0
 40
0.4581526999
 40
1.0
 40
1.0
 40
1.0
 40
1.0
 10
237.6567645824
 20
284.2535095982
 30
0.0
 10
237.6567645773
 20
284.3155693104
 30
0.0
 10
237.7135163012
 20
284.4518580099
 30
0.0
 10
237.8325958384
 20
284.528550713
 30
0.0
 10
237.9002576154
 20
284.5569928769
 30
0.0
  0
SPLINE
  5
2D5
100
AcDbEntity
  8
0
100
AcDbSpline
 62
7
  6
CONTINUOUS
 70
0
 71
3
 72
8
 73
4
 74
0
 42
0.0000001
 43
0.0000001
 44
0.0000000001
 40
0.0
 40
0.0
 40
0.0
 40
0.0
 40
1.0
 40
1.0
 40
1.0
 40
1.0
 10
237.9002576154
 20
284.5569928769
 30
0.0
 10
237.9805667808
 20
284.5907514706
 30
0.0
 10
238.0696485408
 20
284.6070630093
 30
0.0
 10
238.1567645824
 20
284.6070630093
 30
0.0
  0
SPLINE
  5
2D6
100
AcDbEntity
  8
0
100
AcDbSpline
 62
7
  6
CONTINUOUS
 70
0
 71
3
 72
9
 73
5
 74
0
 42
0.0000001
 43
0.0000001
 44
0.0000000001
 40
0.0
 40
0.0
 40
0.0
 40
0.0
 40
0.1974289479
 40
1.0
 40
1.0
 40
1.0
 40
1.0
 10
62.8559569881
 20
279.9001892704
 30
0.0
 10
62.8740785427
 20
279.8989514704
 30
0.0
 10
62.9653304262
 20
279.8814503057
 30
0.0
 10
63.0425761133
 20
279.8221763025
 30
0.0
 10
63.0968271737
 20
279.772087915
 30
0.0
  0
SPLINE
  5
2D7
100
AcDbEntity
  8
0
100
AcDbSpline
 62
7
  6
CONTINUOUS
 70
0
 71
3
 72
9
 73
5
 74
0
 42
0.0000001
 43
0.0000001
 44
0.0000000001
 40
0.0
 40
0.0
 40
0.0
 40
0.0
 40
0.2080464465
 40
1.0
 40
1.0
 40
1.0
 40
1.0
 10
63.0968271737
 20
279.772087915
 30
0.0
 10
63.1444877284
 20
279.728084345
 30
0.0
 10
63.3525858533
 20
279.4958386774
 30
0.0
 10
63.4785245743
 20
279.181617839
 30
0.0
 10
63.4893326845
 20
278.9349271633
 30
0.0
  0
SPLINE
  5
2D8
100
AcDbEntity
  8
0
100
AcDbSpline
 62
7
  6
CONTINUOUS
 70
0
 71
3
 72
9
 73
5
 74
0
 42
0.0000001
 43
0.0000001
 44
0.0000000001
 40
0.0
 40
0.0
 40
0.0
 40
0.0
 40
0.1986049989
 40
1.0
 40
1.0
 40
1.0
 40
1.0
 10
68.4575997724
 20
279.9000730158
 30
0.0
 10
68.4401961225
 20
279.899256059
 30
0.0
 10
68.3529359187
 20
279.8834924878
 30
0.0
 10
68.2787909216
 20
279.8277701853
 30
0.0
 10
68.2264784139
 20
279.7808028163
 30
0.0
  0
SPLINE
  5
2D9
100
AcDbEntity
  8
0
100
AcDbSpline
 62
7
  6
CONTINUOUS
 70
0
 71
3
 72
9
 73
5
 74
0
 42
0.0000001
 43
0.0000001
 44
0.0000000001
 40
0.0
 40
0.0
 40
0.0
 40
0.0
 40
0.2066715244
 40
1.0
 40
1.0
 40
1.0
 40
1.0
 10
68.2264784139
 20
279.7808028163
 30
0.0
 10
68.1778888948
 20
279.7371780317
 30
0.0
 10
67.9646482008
 20
279.503862468
 30
0.0
 10
67.8355188528
 20
279.1853396553
 30
0.0
 10
67.8241957076
 20
278.9349360111
 30
0.0
  0
LINE
  5
2DA
100
AcDbEntity
  8
0
100
AcDbLine
 62
7
  6
CONTINUOUS
 10
72.2067454933
 20
278.9348707277
 11
256.2175759677
 21
278.9349327651
  0
LINE
  5
2DB
100
AcDbEntity
  8
0
100
AcDbLine
 62
7
  6
CONTINUOUS
 10
67.8242794247
 20
278.9349328644
 11
72.2067454933
 21
278.9348707277
  0
LINE
  5
2DC
100
AcDbEntity
  8
0
100
AcDbLine
 62
7
  6
CONTINUOUS
 10
60.6649013983
 20
278.9348716372
 11
63.4892580487
 21
278.9349243587
  0
SPLINE
  5
2DD
100
AcDbEntity
  8
0
100
AcDbSpline
 62
7
  6
CONTINUOUS
 70
0
 71
3
 72
9
 73
5
 74
0
 42
0.0000001
 43
0.0000001
 44
0.0000000001
 40
0.0
 40
0.0
 40
0.0
 40
0.0
 40
0.3713678461
 40
1.0
 40
1.0
 40
1.0
 40
1.0
 10
58.9849058615
 20
278.9205005963
 30
0.0
 10
58.9897821153
 20
279.0417166159
 30
0.0
 10
58.9989558621
 20
279.2468819931
 30
0.0
 10
59.0223405519
 20
280.1052544544
 30
0.0
 10
59.0175490632
 20
279.8999562363
 30
0.0
  0
SPLINE
  5
2DE
100
AcDbEntity
  8
0
100
AcDbSpline
 62
7
  6
CONTINUOUS
 70
0
 71
3
 72
9
 73
5
 74
0
 42
0.0000001
 43
0.0000001
 44
0.0000000001
 40
0.0
 40
0.0
 40
0.0
 40
0.0
 40
0.0693709993
 40
1.0
 40
1.0
 40
1.0
 40
1.0
 10
57.9942253078
 20
278.9080891419
 30
0.0
 10
58.0173565375
 20
278.9078969302
 30
0.0
 10
58.350813505
 20
278.9076756496
 30
0.0
 10
58.6842878655
 20
278.9124205611
 30
0.0
 10
58.9944977191
 20
278.9207568197
 30
0.0
  0
SPLINE
  5
2DF
100
AcDbEntity
  8
0
100
AcDbSpline
 62
7
  6
CONTINUOUS
 70
0
 71
3
 72
14
 73
10
 74
0
 42
0.0000001
 43
0.0000001
 44
0.0000000001
 40
0.0
 40
0.0
 40
0.0
 40
0.0
 40
0.0206681834
 40
0.078147244
 40
0.1700555436
 40
0.2935008415
 40
0.4448549608
 40
0.6177564742
 40
1.0
 40
1.0
 40
1.0
 40
1.0
 10
57.958837528
 20
276.8825198
 30
0.0
 10
57.9586906123
 20
276.8756276127
 30
0.0
 10
57.9987748774
 20
276.8772887941
 30
0.0
 10
58.0422450021
 20
276.867285956
 30
0.0
 10
58.140249139
 20
276.8662772207
 30
0.0
 10
58.2595762464
 20
276.8621619282
 30
0.0
 10
58.4099706117
 20
276.8611146954
 30
0.0
 10
58.6451688932
 20
276.8607721124
 30
0.0
 10
58.8305187408
 20
276.8628504623
 30
0.0
 10
58.9579945043
 20
276.8650718245
 30
0.0
  0
SPLINE
  5
2E0
100
AcDbEntity
  8
0
100
AcDbSpline
 62
7
  6
CONTINUOUS
 70
0
 71
3
 72
9
 73
5
 74
0
 42
0.0000001
 43
0.0000001
 44
0.0000000001
 40
0.0
 40
0.0
 40
0.0
 40
0.0
 40
0.4973842863
 40
1.0
 40
1.0
 40
1.0
 40
1.0
 10
57.2469648185
 20
275.8999549579
 30
0.0
 10
57.5791136003
 20
275.8999409737
 30
0.0
 10
58.2447896287
 20
276.1574974645
 30
0.0
 10
58.7206582288
 20
276.6277462376
 30
0.0
 10
58.958016238
 20
276.8650580944
 30
0.0
  0
SPLINE
  5
2E1
100
AcDbEntity
  8
0
100
AcDbSpline
 62
7
  6
CONTINUOUS
 70
0
 71
3
 72
16
 73
12
 74
0
 42
0.0000001
 43
0.0000001
 44
0.0000000001
 40
0.0
 40
0.0
 40
0.0
 40
0.0
 40
0.005016312
 40
0.0194273941
 40
0.0432201636
 40
0.076249823
 40
0.1688367114
 40
0.2932122649
 40
0.4446704681
 40
0.6175598471
 40
1.0
 40
1.0
 40
1.0
 40
1.0
 10
49.5603082543
 20
276.8650590508
 30
0.0
 10
49.5602443712
 20
276.8633861843
 30
0.0
 10
49.570300297
 20
276.8638876321
 30
0.0
 10
49.5812842966
 20
276.8615869678
 30
0.0
 10
49.6069551063
 20
276.8616667822
 30
0.0
 10
49.6556769534
 20
276.8606213696
 30
0.0
 10
49.7399334575
 20
276.8613241923
 30
0.0
 10
49.8624964981
 20
276.8628997485
 30
0.0
 10
50.0123500023
 20
276.8662113196
 30
0.0
 10
50.2480867455
 20
276.8723731814
 30
0.0
 10
50.433354865
 20
276.8780589922
 30
0.0
 10
50.5609085176
 20
276.8825059933
 30
0.0
  0
SPLINE
  5
2E2
100
AcDbEntity
  8
0
100
AcDbSpline
 62
7
  6
CONTINUOUS
 70
0
 71
3
 72
9
 73
5
 74
0
 42
0.0000001
 43
0.0000001
 44
0.0000000001
 40
0.0
 40
0.0
 40
0.0
 40
0.0
 40
0.2418886983
 40
1.0
 40
1.0
 40
1.0
 40
1.0
 10
257.6127961339
 20
285.3737762221
 30
0.0
 10
257.5868609229
 20
285.3415725193
 30
0.0
 10
257.4897264162
 20
285.2007699706
 30
0.0
 10
257.4352165632
 20
285.0293709779
 30
0.0
 10
257.4284341148
 20
284.89995632
 30
0.0
  0
SPLINE
  5
2E3
100
AcDbEntity
  8
0
100
AcDbSpline
 62
7
  6
CONTINUOUS
 70
0
 71
3
 72
8
 73
4
 74
0
 42
0.0000001
 43
0.0000001
 44
0.0000000001
 40
0.0
 40
0.0
 40
0.0
 40
0.0
 40
1.0
 40
1.0
 40
1.0
 40
1.0
 10
258.0827526711
 20
284.9712200478
 30
0.0
 10
258.1746884876
 20
284.9292846964
 30
0.0
 10
258.2763541764
 20
284.8999567518
 30
0.0
 10
258.3774025215
 20
284.8999573076
 30
0.0
  0
SPLINE
  5
2E4
100
AcDbEntity
  8
0
100
AcDbSpline
 62
7
  6
CONTINUOUS
 70
0
 71
3
 72
8
 73
4
 74
0
 42
0.0000001
 43
0.0000001
 44
0.0000000001
 40
0.0
 40
0.0
 40
0.0
 40
0.0
 40
1.0
 40
1.0
 40
1.0
 40
1.0
 10
257.6127716951
 20
285.3737406204
 30
0.0
 10
257.6502795413
 20
285.3161287378
 30
0.0
 10
257.6940839147
 20
285.2623026636
 30
0.0
 10
257.7420257391
 20
285.2130325001
 30
0.0
  0
SPLINE
  5
2E5
100
AcDbEntity
  8
0
100
AcDbSpline
 62
7
  6
CONTINUOUS
 70
0
 71
3
 72
8
 73
4
 74
0
 42
0.0000001
 43
0.0000001
 44
0.0000000001
 40
0.0
 40
0.0
 40
0.0
 40
0.0
 40
1.0
 40
1.0
 40
1.0
 40
1.0
 10
257.7420257391
 20
285.2130325001
 30
0.0
 10
257.8391456678
 20
285.1132216393
 30
0.0
 10
257.956009929
 20
285.028997448
 30
0.0
 10
258.0827170197
 20
284.971206431
 30
0.0
  0
SPLINE
  5
2E6
100
AcDbEntity
  8
0
100
AcDbSpline
 62
7
  6
CONTINUOUS
 70
0
 71
3
 72
9
 73
5
 74
0
 42
0.0000001
 43
0.0000001
 44
0.0000000001
 40
0.0
 40
0.0
 40
0.0
 40
0.0
 40
0.5026156175
 40
1.0
 40
1.0
 40
1.0
 40
1.0
 10
332.3555221306
 20
276.8650588892
 30
0.0
 10
332.592853693
 20
276.6277256479
 30
0.0
 10
333.0687444732
 20
276.1575076432
 30
0.0
 10
333.7344033834
 20
275.8999437572
 30
0.0
 10
334.0665487493
 20
275.8999562363
 30
0.0
  0
SPLINE
  5
2E7
100
AcDbEntity
  8
0
100
AcDbSpline
 62
7
  6
CONTINUOUS
 70
0
 71
3
 72
14
 73
10
 74
0
 42
0.0000001
 43
0.0000001
 44
0.0000000001
 40
0.0
 40
0.0
 40
0.0
 40
0.0
 40
0.3825397286
 40
0.5554606742
 40
0.7068361738
 40
0.8308587032
 40
0.9230611151
 40
0.9798724621
 40
1.0
 40
1.0
 40
1.0
 40
1.0
 10
332.3554653652
 20
276.8650590508
 30
0.0
 10
332.483051486
 20
276.8628434667
 30
0.0
 10
332.6685235707
 20
276.8608202235
 30
0.0
 10
332.903855454
 20
276.8611072193
 30
0.0
 10
333.0544703253
 20
276.8621486219
 30
0.0
 10
333.1740928109
 20
276.8662975461
 30
0.0
 10
333.2721784314
 20
276.8674259511
 30
0.0
 10
333.3155128255
 20
276.8771850601
 30
0.0
 10
333.3548293027
 20
276.8757931541
 30
0.0
 10
333.3547039824
 20
276.8825060103
 30
0.0
  0
SPLINE
  5
2E8
100
AcDbEntity
  8
0
100
AcDbSpline
 62
7
  6
CONTINUOUS
 70
0
 71
3
 72
14
 73
10
 74
0
 42
0.0000001
 43
0.0000001
 44
0.0000000001
 40
0.0
 40
0.0
 40
0.0
 40
0.0
 40
0.3819760282
 40
0.5546169234
 40
0.7058352281
 40
0.8299685823
 40
0.9224610798
 40
0.9795722352
 40
1.0
 40
1.0
 40
1.0
 40
1.0
 10
332.2320557596
 20
283.9351906209
 30
0.0
 10
332.3595379935
 20
283.9374131252
 30
0.0
 10
332.5448429703
 20
283.9393695118
 30
0.0
 10
332.780018969
 20
283.9389813763
 30
0.0
 10
332.9305712082
 20
283.9379069173
 30
0.0
 10
333.0504949209
 20
283.933868205
 30
0.0
 10
333.148571992
 20
283.9328202922
 30
0.0
 10
333.1927563818
 20
283.9229782361
 30
0.0
 10
333.231788549
 20
283.9242265757
 30
0.0
 10
333.2319092946
 20
283.9174089635
 30
0.0
  0
SPLINE
  5
2E9
100
AcDbEntity
  8
0
100
AcDbSpline
 62
7
  6
CONTINUOUS
 70
0
 71
3
 72
16
 73
12
 74
0
 42
0.0000001
 43
0.0000001
 44
0.0000000001
 40
0.0
 40
0.0
 40
0.0
 40
0.0
 40
0.382429694
 40
0.5552940783
 40
0.7067203789
 40
0.8309671176
 40
0.9234491783
 40
0.9564954625
 40
0.9803536151
 40
0.9948652639
 40
1.0
 40
1.0
 40
1.0
 40
1.0
 10
340.5069608049
 20
283.9174090805
 30
0.0
 10
340.6343555529
 20
283.9218564181
 30
0.0
 10
340.8193781436
 20
283.9277412669
 30
0.0
 10
341.0548132997
 20
283.9337916105
 30
0.0
 10
341.204413464
 20
283.9369997593
 30
0.0
 10
341.3267689391
 20
283.9386091142
 30
0.0
 10
341.410782598
 20
283.9393846227
 30
0.0
 10
341.4595300846
 20
283.938314045
 30
0.0
 10
341.4850815251
 20
283.9383947313
 30
0.0
 10
341.4963930048
 20
283.936011699
 30
0.0
 10
341.50627844
 20
283.9365661804
 30
0.0
 10
341.5063381712
 20
283.9348557008
 30
0.0
  0
SPLINE
  5
2EA
100
AcDbEntity
  8
0
100
AcDbSpline
 62
7
  6
CONTINUOUS
 70
0
 71
3
 72
10
 73
6
 74
0
 42
0.0000001
 43
0.0000001
 44
0.0000000001
 40
0.0
 40
0.0
 40
0.0
 40
0.0
 40
0.4999996688
 40
0.7500004821
 40
1.0
 40
1.0
 40
1.0
 40
1.0
 10
318.8565851334
 20
283.9348478339
 30
0.0
 10
320.9065795566
 20
283.9349537587
 30
0.0
 10
323.9815811085
 20
283.9321613538
 30
0.0
 10
328.0815566899
 20
283.9361714631
 30
0.0
 10
330.1315798036
 20
283.9409172207
 30
0.0
 10
331.1565575614
 20
283.9348162199
 30
0.0
  0
SPLINE
  5
2EB
100
AcDbEntity
  8
0
100
AcDbSpline
 62
7
  6
CONTINUOUS
 70
0
 71
3
 72
17
 73
13
 74
0
 42
0.0000001
 43
0.0000001
 44
0.0000000001
 40
0.0
 40
0.0
 40
0.0
 40
0.0
 40
0.124873846
 40
0.1874934238
 40
0.2500961646
 40
0.3126194116
 40
0.3751015139
 40
0.5000434328
 40
0.6250273934
 40
0.7500281015
 40
0.8750159262
 40
1.0
 40
1.0
 40
1.0
 40
1.0
 10
258.3773994186
 20
283.9351881755
 30
0.0
 10
260.883546666
 20
283.6944035891
 30
0.0
 10
264.6760263134
 20
283.6755316941
 30
0.0
 10
269.7127940157
 20
283.863761074
 30
0.0
 10
273.4968833406
 20
283.9813855292
 30
0.0
 10
277.2794835833
 20
284.0085043107
 30
0.0
 10
282.3188499553
 20
283.9819060611
 30
0.0
 10
288.6172145095
 20
283.9070850997
 30
0.0
 10
296.1765499455
 20
283.9182772685
 30
0.0
 10
303.7366253947
 20
283.9416258776
 30
0.0
 10
311.2967842452
 20
283.9388533899
 30
0.0
 10
316.3366750636
 20
283.9347176281
 30
0.0
 10
318.8565851334
 20
283.9348478339
 30
0.0
  0
SPLINE
  5
2EC
100
AcDbEntity
  8
0
100
AcDbSpline
 62
7
  6
CONTINUOUS
 70
0
 71
3
 72
16
 73
12
 74
0
 42
0.0000001
 43
0.0000001
 44
0.0000000001
 40
0.0
 40
0.0
 40
0.0
 40
0.0
 40
0.3825729674
 40
0.5556377597
 40
0.7071486708
 40
0.8307265928
 40
0.9226877277
 40
0.9558748008
 40
0.980037891
 40
0.9948215788
 40
1.0
 40
1.0
 40
1.0
 40
1.0
 10
340.7526256049
 20
276.8825197915
 30
0.0
 10
340.880222602
 20
276.8780758948
 30
0.0
 10
341.0655868897
 20
276.8722212375
 30
0.0
 10
341.3014446948
 20
276.866155637
 30
0.0
 10
341.4511086523
 20
276.8629302587
 30
0.0
 10
341.5732145853
 20
276.8613357955
 30
0.0
 10
341.6570429436
 20
276.8605973632
 30
0.0
 10
341.7057283481
 20
276.8616535015
 30
0.0
 10
341.7317390254
 20
276.8615450822
 30
0.0
 10
341.7429124915
 20
276.8639377587
 30
0.0
 10
341.7532935354
 20
276.8633464528
 30
0.0
 10
341.7532188843
 20
276.865073011
 30
0.0
  0
ELLIPSE
  5
2ED
100
AcDbEntity
  8
0
100
AcDbEllipse
 62
7
  6
CONTINUOUS
 10
325.6567645824
 20
338.3315261229
 30
0.0
 11
-0.0
 21
85.9087598487
 31
0.0
 40
0.0349207695
 41
-2.4014312899
 42
-2.3171883809
  0
ELLIPSE
  5
2EE
100
AcDbEntity
  8
0
100
AcDbEllipse
 62
7
  6
CONTINUOUS
 10
325.6567645824
 20
338.3315261229
 30
0.0
 11
0.0
 21
85.9087598487
 31
0.0
 40
0.0349207695
 41
-3.9659969263
 42
-3.8817540173
  0
ENDSEC
  0
SECTION
  2
OBJECTS
  0
DICTIONARY
  5
C
100
AcDbDictionary
280
0
281
1
  3
ACAD_GROUP
350
D
  3
ACAD_MLINESTYLE
350
17
  3
ACAD_LAYOUT
350
1A
  3
ACAD_PLOTSETTINGS
350
19
  3
ACAD_PLOTSTYLENAME
350
E
  0
DICTIONARY
  5
D
102
{ACAD_REACTORS
330
C
102
}
100
AcDbDictionary
280
0
281
1
  0
ACDBDICTIONARYWDFLT
  5
E
102
{ACAD_REACTORS
330
C
102
}
100
AcDbDictionary
281
1
  3
Normal
350
F
100
AcDbDictionaryWithDefault
340
F
  0
DICTIONARY
  5
17
102
{ACAD_REACTORS
330
C
102
}
100
AcDbDictionary
280
0
281
1
  3
Standard
350
18
  0
DICTIONARY
  5
19
102
{ACAD_REACTORS
330
C
102
}
100
AcDbDictionary
281
1
  0
DICTIONARY
  5
1A
102
{ACAD_REACTORS
330
C
102
}
100
AcDbDictionary
281
1
  3
Model
350
2EF
  3
Layout1
350
2F0
  0
ACDBPLACEHOLDER
  5
F
102
{ACAD_REACTORS
330
E
102
}
  0
MLINESTYLE
  5
18
102
{ACAD_REACTORS
330
17
102
}
100
AcDbMlineStyle
  2
STANDARD
 70
0
  3

 62
256
 51
90.0
 52
90.0
 71
2
 49
0.5
 62
256
  6
BYLAYER
 49
-0.5
 62
256
  6
BYLAYER
  0
LAYOUT
  5
2EF
102
{ACAD_REACTORS
330
1A
102
}
100
AcDbPlotSettings
  1

  2
none_device
  4

  6

 40
0.0
 41
0.0
 42
0.0
 43
0.0
 44
210.0
 45
297.0
 46
0.0
 47
0.0
 48
0.0
 49
0.0
140
0.0
141
0.0
142
1.0
143
1.0
 70
1024
 72
1
 73
0
 74
0
  7

 75
0
147
1.0
148
0.0
149
0.0
100
AcDbLayout
  1
Model
 70
0
 71
0
 10
0.0
 20
0.0
 11
210.0
 21
297.0
 12
0.0
 22
0.0
 32
0.0
 14
0.0
 24
0.0
 34
0.0
 15
0.0
 25
0.0
 35
0.0
146
0.0
 13
0.0
 23
0.0
 33
0.0
 16
1.0
 26
0.0
 36
0.0
 17
0.0
 27
1.0
 37
0.0
 76
0
330
210
345
0
346
0
  0
LAYOUT
  5
2F0
102
{ACAD_REACTORS
330
1A
102
}
100
AcDbPlotSettings
  1

  2
none_device
  4

  6

 40
0.0
 41
0.0
 42
0.0
 43
0.0
 44
210.0
 45
297.0
 46
0.0
 47
0.0
 48
0.0
 49
0.0
140
0.0
141
0.0
142
1.0
143
1.0
 70
0
 72
1
 73
0
 74
0
  7

 75
0
147
1.0
148
0.0
149
0.0
100
AcDbLayout
  1
Layout1
 70
0
 71
1
 10
0.0
 20
0.0
 11
210.0
 21
297.0
 12
0.0
 22
0.0
 32
0.0
 14
0.0
 24
0.0
 34
0.0
 15
0.0
 25
0.0
 35
0.0
146
0.0
 13
0.0
 23
0.0
 33
0.0
 16
1.0
 26
0.0
 36
0.0
 17
0.0
 27
1.0
 37
0.0
 76
0
330
211
345
0
346
0
  0
ENDSEC
  0
EOF
