999
DXF file: C:\Users\sesa63760\OneDrive - Schneider Electric\Documents\7-Dev\_Creo\CAD\MCADUE0000007_3D-CAD\drw0001_1.dxf
999
Pro/ENGINEER 2019471 by Parametric Technology Corporation
  0
SECTION
  2
HEADER
  9
$ACADVER
  1
AC1024
  9
$DWGCODEPAGE
  3
ANSI_1252
  9
$EXTMAX
 10
1155.3041802152
 20
1633.9301977329
 30
0.0
  9
$EXTMIN
 10
-0.0
 20
0.0
 30
0.0
  9
$LIMMIN
 10
-0.0
 20
0.0
  9
$LIMMAX
 10
1155.3041802152
 20
1633.9301977329
  9
$VIEWCTR
 10
577.6520901076
 20
816.9650988665
  9
$VIEWSIZE
 40
1633.9301977329
  9
$CLAYER
  8
0
  9
$LTSCALE
 40
106.5080425189
  9
$CELTYPE
  6
BYLAYER
  9
$DIMSCALE
 40
1.0
  9
$DIMASZ
 40
13.753621193
  9
$DIMEXO
 40
1.0
  9
$DIMDLI
 40
73.5873748312
  9
$DIMEXE
 40
1.0
  9
$DIMCEN
 40
17.4285887758
  9
$DIMLFAC
 40
1.0
  9
$DIMBLK
  1
_FILLED
  9
$DIMALT
 70
0
  9
$DIMALTF
 40
0.0393700787
  9
$DIMTXT
 40
19.2550696703
  9
$DIMTOL
 70
1
  9
$DIMLIM
 70
0
  9
$DIMTFAC
 40
1.0
  9
$DIMTP
 40
0.01
  9
$DIMTM
 40
0.01
  9
$DIMGAP
 40
0.625
  9
$DIMDSEP
 70
46
  9
$AUNITS
 70
0
  9
$PDMODE
 70
3
  9
$PDSIZE
 40
0.3125
  9
$HANDSEED
  5
399
  9
$TILEMODE
 70
1
  9
$MEASUREMENT
 70
1
  9
$INSUNITS
 70
4
  0
ENDSEC
  0
SECTION
  2
CLASSES
  0
CLASS
  1
ACDBDICTIONARYWDFLT
  2
AcDbDictionaryWithDefault
  3
AutoCAD 2000
 90
0
 91
1
280
0
281
0
  0
CLASS
  1
ACDBPLACEHOLDER
  2
AcDbPlaceHolder
  3
AutoCAD 2000
 90
0
 91
1
280
0
281
0
  0
CLASS
  1
LAYOUT
  2
AcDbLayout
  3
AutoCAD 2000
 90
0
 91
0
280
0
281
0
  0
ENDSEC
  0
SECTION
  2
TABLES
  0
TABLE
  2
VPORT
  5
8
100
AcDbSymbolTable
 70
2
  0
VPORT
  5
1F4
100
AcDbSymbolTableRecord
100
AcDbViewportTableRecord
  2
*ACTIVE
 70
0
 10
0.0
 20
0.0
 11
1.0
 21
1.0
 12
577.6520901076
 22
816.9650988665
 13
0.0
 23
0.0
 14
1.0
 24
1.0
 15
0.0
 25
0.0
 16
0.0
 26
0.0
 36
1.0
 17
0.0
 27
0.0
 37
0.0
 40
1633.9301977329
 41
0.7070707071
 42
50.0
 43
0.0
 44
0.0
 50
0.0
 51
0.0
 71
0
 72
100
 73
1
 74
1
 75
0
 76
0
 77
0
 78
0
  0
ENDTAB
  0
TABLE
  2
LTYPE
  5
5
100
AcDbSymbolTable
 70
6
  0
LTYPE
  5
14
100
AcDbSymbolTableRecord
100
AcDbLinetypeTableRecord
  2
BYBLOCK
 70
0
  3

 72
65
 73
0
 40
0.0
  0
LTYPE
  5
15
100
AcDbSymbolTableRecord
100
AcDbLinetypeTableRecord
  2
BYLAYER
 70
0
  3

 72
65
 73
0
 40
0.0
  0
LTYPE
  5
16
100
AcDbSymbolTableRecord
100
AcDbLinetypeTableRecord
  2
CONTINUOUS
 70
64
  3
Solid line
 72
65
 73
0
 40
0.0
  0
LTYPE
  5
1F5
100
AcDbSymbolTableRecord
100
AcDbLinetypeTableRecord
  2
CENTER
 70
64
  3
____ _ ____ _ ____ _ ____ _ ____ _ ____ _ ____
 72
65
 73
4
 40
0.6
 49
0.375
 74
0
 49
-0.075
 74
0
 49
0.075
 74
0
 49
-0.075
 74
0
  0
LTYPE
  5
1F6
100
AcDbSymbolTableRecord
100
AcDbLinetypeTableRecord
  2
HIDDEN
 70
64
  3
- - - - - - - - - - - - - - - - - - - -
 72
65
 73
2
 40
0.2
 49
0.1
 74
0
 49
-0.1
 74
0
  0
LTYPE
  5
1F7
100
AcDbSymbolTableRecord
100
AcDbLinetypeTableRecord
  2
PHANTOM
 70
64
  3
_____ _ _ _____ _ _ _____ _ _ _____
 72
65
 73
6
 40
0.8
 49
0.45
 74
0
 49
-0.05
 74
0
 49
0.1
 74
0
 49
-0.05
 74
0
 49
0.1
 74
0
 49
-0.05
 74
0
  0
LTYPE
  5
1F8
100
AcDbSymbolTableRecord
100
AcDbLinetypeTableRecord
  2
DOT
 70
64
  3
. . . . . . . . . . . . . . . . . . . .
 72
65
 73
2
 40
0.2
 49
0.1
 74
0
 49
-0.1
 74
0
  0
LTYPE
  5
1F9
100
AcDbSymbolTableRecord
100
AcDbLinetypeTableRecord
  2
DASHED
 70
64
  3
- - - - - - - - - - - - - - - - - - - -
 72
65
 73
2
 40
0.2
 49
0.1
 74
0
 49
-0.1
 74
0
  0
ENDTAB
  0
TABLE
  2
LAYER
  5
2
100
AcDbSymbolTable
 70
36
  0
LAYER
  5
10
100
AcDbSymbolTableRecord
100
AcDbLayerTableRecord
  2
0
 70
0
 62
7
  6
CONTINUOUS
370
-3
390
F
  0
LAYER
  5
1FA
100
AcDbSymbolTableRecord
100
AcDbLayerTableRecord
  2
DEFAULT_1
 70
0
 62
7
  6
CENTER
370
-3
390
F
  0
LAYER
  5
1FB
100
AcDbSymbolTableRecord
100
AcDbLayerTableRecord
  2
DEFAULT_2
 70
0
 62
8
  6
HIDDEN
370
-3
390
F
  0
LAYER
  5
1FC
100
AcDbSymbolTableRecord
100
AcDbLayerTableRecord
  2
DEFAULT_3
 70
0
 62
7
  6
PHANTOM
370
-3
390
F
  0
LAYER
  5
1FD
100
AcDbSymbolTableRecord
100
AcDbLayerTableRecord
  2
00_COMPONENTS
 70
0
 62
7
  6
CONTINUOUS
370
-3
390
F
  0
LAYER
  5
1FE
100
AcDbSymbolTableRecord
100
AcDbLayerTableRecord
  2
01_1_DEFAULT_DATUMS
 70
0
 62
7
  6
CONTINUOUS
370
-3
390
F
  0
LAYER
  5
1FF
100
AcDbSymbolTableRecord
100
AcDbLayerTableRecord
  2
01_PLANES
 70
0
 62
7
  6
CONTINUOUS
370
-3
390
F
  0
LAYER
  5
200
100
AcDbSymbolTableRecord
100
AcDbLayerTableRecord
  2
02_COORD_SYS
 70
0
 62
7
  6
CONTINUOUS
370
-3
390
F
  0
LAYER
  5
201
100
AcDbSymbolTableRecord
100
AcDbLayerTableRecord
  2
03_AXES
 70
0
 62
7
  6
CONTINUOUS
370
-3
390
F
  0
LAYER
  5
202
100
AcDbSymbolTableRecord
100
AcDbLayerTableRecord
  2
04_POINTS
 70
0
 62
7
  6
CONTINUOUS
370
-3
390
F
  0
LAYER
  5
203
100
AcDbSymbolTableRecord
100
AcDbLayerTableRecord
  2
05_CURVES
 70
0
 62
7
  6
CONTINUOUS
370
-3
390
F
  0
LAYER
  5
204
100
AcDbSymbolTableRecord
100
AcDbLayerTableRecord
  2
06_SURFS
 70
0
 62
7
  6
CONTINUOUS
370
-3
390
F
  0
LAYER
  5
205
100
AcDbSymbolTableRecord
100
AcDbLayerTableRecord
  2
07_COSMETICS
 70
0
 62
7
  6
CONTINUOUS
370
-3
390
F
  0
LAYER
  5
206
100
AcDbSymbolTableRecord
100
AcDbLayerTableRecord
  2
10_NOTES
 70
0
 62
7
  6
CONTINUOUS
370
-3
390
F
  0
LAYER
  5
207
100
AcDbSymbolTableRecord
100
AcDbLayerTableRecord
  2
11_NOTES_PUB
 70
0
 62
7
  6
CONTINUOUS
370
-3
390
F
  0
LAYER
  5
208
100
AcDbSymbolTableRecord
100
AcDbLayerTableRecord
  2
13_REF_GTOL
 70
0
 62
7
  6
CONTINUOUS
370
-3
390
F
  0
LAYER
  5
209
100
AcDbSymbolTableRecord
100
AcDbLayerTableRecord
  2
16_MISC
 70
0
 62
7
  6
CONTINUOUS
370
-3
390
F
  0
LAYER
  5
20A
100
AcDbSymbolTableRecord
100
AcDbLayerTableRecord
  2
17_NO_PRINT
 70
0
 62
7
  6
CONTINUOUS
370
-3
390
F
  0
LAYER
  5
20B
100
AcDbSymbolTableRecord
100
AcDbLayerTableRecord
  2
18_DATUM_CAMS_JOINTS
 70
0
 62
7
  6
CONTINUOUS
370
-3
390
F
  0
LAYER
  5
20C
100
AcDbSymbolTableRecord
100
AcDbLayerTableRecord
  2
19_DATUM_FUNCTIONAL
 70
0
 62
7
  6
CONTINUOUS
370
-3
390
F
  0
LAYER
  5
20D
100
AcDbSymbolTableRecord
100
AcDbLayerTableRecord
  2
20_DATUM_KINEMATIC_SCHEME
 70
0
 62
7
  6
CONTINUOUS
370
-3
390
F
  0
ENDTAB
  0
TABLE
  2
STYLE
  5
3
100
AcDbSymbolTable
 70
1
  0
STYLE
  5
11
100
AcDbSymbolTableRecord
100
AcDbTextStyleTableRecord
  2
STANDARD
 70
0
 40
0.0
 41
0.8
 50
0.0
 71
0
 42
0.2
  3
txt
  4

  0
STYLE
  5
20E
100
AcDbSymbolTableRecord
100
AcDbTextStyleTableRecord
  2
TEXTSTYLE_1
 70
0
 40
0.0
 41
0.8
 50
0.0
 71
0
 42
0.2
  3
gdt
  4

  0
ENDTAB
  0
TABLE
  2
VIEW
  5
6
100
AcDbSymbolTable
 70
0
  0
ENDTAB
  0
TABLE
  2
UCS
  5
7
100
AcDbSymbolTable
 70
0
  0
ENDTAB
  0
TABLE
  2
APPID
  5
9
100
AcDbSymbolTable
 70
1
  0
APPID
  5
20F
100
AcDbSymbolTableRecord
100
AcDbRegAppTableRecord
  2
ACAD
 70
0
  0
ENDTAB
  0
TABLE
  2
BLOCK_RECORD
  5
1
100
AcDbSymbolTable
 70
0
  0
BLOCK_RECORD
  5
210
100
AcDbSymbolTableRecord
100
AcDbBlockTableRecord
  2
*Model_Space
  0
BLOCK_RECORD
  5
211
100
AcDbSymbolTableRecord
100
AcDbBlockTableRecord
  2
*Paper_Space
  0
BLOCK_RECORD
  5
212
100
AcDbSymbolTableRecord
100
AcDbBlockTableRecord
  2
_FILLED
  0
ENDTAB
  0
TABLE
  2
DIMSTYLE
  5
A
100
AcDbSymbolTable
 70
1
100
AcDbDimStyleTable
 71
0
  0
DIMSTYLE
105
213
100
AcDbSymbolTableRecord
100
AcDbDimStyleTableRecord
  2
STANDARD
 70
0
  3

  4

 40
1.0
 41
13.753621193
 42
1.0
 43
0.38
 44
1.0
 45
0.0
 46
0.0
 47
0.01
 48
0.01
140
19.2550696703
141
0.09
142
0.0
143
25.4
144
1.0
145
0.0
146
1.0
147
0.625
 71
1
 72
0
 73
0
 74
0
 75
0
 76
0
 77
1
 78
8
 79
2
170
0
171
1
172
0
173
0
174
0
175
0
176
0
177
0
178
0
270
2
179
2
271
2
272
2
273
2
274
2
275
0
280
0
281
0
282
0
283
1
284
8
285
0
286
0
287
3
288
0
340
11
278
46
341
212
342
212
343
212
344
212
  0
ENDTAB
  0
ENDSEC
  0
SECTION
  2
BLOCKS
  0
BLOCK
  5
20
100
AcDbEntity
  8
0
100
AcDbBlockBegin
  2
*Model_Space
 70
0
 10
0.0
 20
0.0
 30
0.0
  3
*Model_Space
  1

  0
ENDBLK
  5
21
100
AcDbEntity
  8
0
100
AcDbBlockEnd
  0
BLOCK
  5
1C
100
AcDbEntity
  8
0
100
AcDbBlockBegin
  2
*Paper_Space
 70
0
 10
0.0
 20
0.0
 30
0.0
  3
*Paper_Space
  1

  0
ENDBLK
  5
1D
100
AcDbEntity
  8
0
100
AcDbBlockEnd
  0
BLOCK
  5
214
100
AcDbEntity
  8
0
100
AcDbBlockBegin
  2
_FILLED
 70
64
 10
0.0
 20
0.0
  3
_FILLED
  1

  0
SOLID
  5
215
100
AcDbEntity
  8
0
  6
BYBLOCK
 62
0
100
AcDbTrace
 10
0.0
 20
0.0
 11
-1.0
 21
0.25
 12
-1.0
 22
-0.25
 13
-1.0
 23
-0.25
  0
ENDBLK
  5
216
100
AcDbEntity
  8
0
  6
BYBLOCK
 62
0
100
AcDbBlockEnd
  0
ENDSEC
  0
SECTION
  2
ENTITIES
  0
LINE
  5
217
100
AcDbEntity
  8
0
100
AcDbLine
 62
7
  6
CONTINUOUS
 10
812.787797356
 20
163.500637055
 11
819.59500987
 21
164.4838491757
  0
LINE
  5
218
100
AcDbEntity
  8
0
100
AcDbLine
 62
7
  6
CONTINUOUS
 10
415.488296977
 20
1468.542882948
 11
412.8164810049
 21
1467.0003184851
  0
LINE
  5
219
100
AcDbEntity
  8
0
100
AcDbLine
 62
7
  6
CONTINUOUS
 10
423.0494334634
 20
1461.0924542823
 11
422.0594880386
 21
1460.5209124365
  0
LINE
  5
21A
100
AcDbEntity
  8
0
100
AcDbLine
 62
7
  6
CONTINUOUS
 10
770.2371175546
 20
185.8503892452
 11
775.8212666981
 21
185.8085509244
  0
LINE
  5
21B
100
AcDbEntity
  8
0
100
AcDbLine
 62
7
  6
CONTINUOUS
 10
415.8578684993
 20
1468.9060583591
 11
415.488296977
 21
1468.542882948
  0
LINE
  5
21C
100
AcDbEntity
  8
0
100
AcDbLine
 62
7
  6
CONTINUOUS
 10
414.9077001717
 20
1469.5487947733
 11
412.6966088382
 21
1467.5084838663
  0
LINE
  5
21D
100
AcDbEntity
  8
0
100
AcDbLine
 62
7
  6
CONTINUOUS
 10
770.036617797
 20
185.3569891846
 11
776.319026717
 21
184.4829978729
  0
LINE
  5
21E
100
AcDbEntity
  8
0
100
AcDbLine
 62
7
  6
CONTINUOUS
 10
775.8212666981
 20
185.8085509244
 11
776.4506353309
 21
185.7209115049
  0
LINE
  5
21F
100
AcDbEntity
  8
0
100
AcDbLine
 62
7
  6
CONTINUOUS
 10
414.9077001717
 20
1505.852157651
 11
419.1667730037
 21
1511.2580302162
  0
LINE
  5
220
100
AcDbEntity
  8
0
100
AcDbLine
 62
7
  6
CONTINUOUS
 10
352.2381142281
 20
357.0590547705
 11
751.5594987459
 21
126.5159615076
  0
LINE
  5
221
100
AcDbEntity
  8
0
100
AcDbLine
 62
7
  6
CONTINUOUS
 10
749.4213536868
 20
128.7379156079
 11
353.1167646857
 21
357.5393005698
  0
LINE
  5
222
100
AcDbEntity
  8
0
100
AcDbLine
 62
7
  6
CONTINUOUS
 10
804.4083982711
 20
169.6348666319
 11
804.9568679947
 21
169.3217924589
  0
LINE
  5
223
100
AcDbEntity
  8
0
100
AcDbLine
 62
7
  6
CONTINUOUS
 10
760.9317674997
 20
190.6135580352
 11
770.036617797
 21
185.3569891846
  0
LINE
  5
224
100
AcDbEntity
  8
0
100
AcDbLine
 62
7
  6
CONTINUOUS
 10
760.9317674997
 20
191.2227140661
 11
770.2371175546
 21
185.8503892452
  0
LINE
  5
225
100
AcDbEntity
  8
0
100
AcDbLine
 62
7
  6
CONTINUOUS
 10
776.319026717
 20
184.4829978729
 11
804.3676213649
 21
168.2895005484
  0
LINE
  5
226
100
AcDbEntity
  8
0
100
AcDbLine
 62
7
  6
CONTINUOUS
 10
804.4491751772
 20
168.3148338987
 11
812.787797356
 21
163.5006370508
  0
LINE
  5
227
100
AcDbEntity
  8
0
100
AcDbLine
 62
7
  6
CONTINUOUS
 10
775.8212666981
 20
185.8085509244
 11
760.9317674997
 21
194.4048128213
  0
LINE
  5
228
100
AcDbEntity
  8
0
100
AcDbLine
 62
7
  6
CONTINUOUS
 10
776.3598036232
 20
185.8283639564
 11
804.9544458471
 21
169.3203873295
  0
LINE
  5
229
100
AcDbEntity
  8
0
100
AcDbLine
 62
7
  6
CONTINUOUS
 10
761.0679611716
 20
196.8138045179
 11
762.4821806219
 21
195.9973230088
  0
LINE
  5
22A
100
AcDbEntity
  8
0
100
AcDbLine
 62
7
  6
CONTINUOUS
 10
762.4821806219
 20
198.3781648352
 11
761.0679611716
 21
199.1946463442
  0
LINE
  5
22B
100
AcDbEntity
  8
0
100
AcDbLine
 62
7
  6
CONTINUOUS
 10
760.9317674997
 20
202.9474428094
 11
811.616802648
 21
173.6850861255
  0
LINE
  5
22C
100
AcDbEntity
  8
0
100
AcDbLine
 62
7
  6
CONTINUOUS
 10
761.215142532
 20
194.6190247504
 11
776.3598036232
 21
185.8283639564
  0
LINE
  5
22D
100
AcDbEntity
  8
0
100
AcDbLine
 62
7
  6
CONTINUOUS
 10
797.1507633688
 20
203.9329523805
 11
806.1612765116
 21
198.7308479402
  0
LINE
  5
22E
100
AcDbEntity
  8
0
100
AcDbLine
 62
7
  6
CONTINUOUS
 10
809.2538430921
 20
1238.5612373995
 11
812.787797356
 21
1239.8378103156
  0
LINE
  5
22F
100
AcDbEntity
  8
0
100
AcDbLine
 62
7
  6
CONTINUOUS
 10
811.3030440581
 20
1240.3217102625
 11
811.6005955237
 21
1240.4290572222
  0
LINE
  5
230
100
AcDbEntity
  8
0
100
AcDbLine
 62
7
  6
CONTINUOUS
 10
819.59500987
 20
1280.0759099087
 11
812.787797356
 21
1276.1411731933
  0
LINE
  5
231
100
AcDbEntity
  8
0
100
AcDbLine
 62
7
  6
CONTINUOUS
 10
797.1507633688
 20
1243.9667627634
 11
798.1407087936
 21
1244.5383046092
  0
LINE
  5
232
100
AcDbEntity
  8
0
100
AcDbLine
 62
7
  6
CONTINUOUS
 10
758.3408019222
 20
1209.744128032
 11
760.432021089
 21
1210.951486774
  0
LINE
  5
233
100
AcDbEntity
  8
0
100
AcDbLine
 62
7
  6
CONTINUOUS
 10
808.3736612521
 20
1238.6304404064
 11
811.3030440581
 21
1240.3217102625
  0
LINE
  5
234
100
AcDbEntity
  8
0
100
AcDbLine
 62
7
  6
CONTINUOUS
 10
758.3408019222
 20
1244.7063733634
 11
754.0817290901
 21
1242.252025393
  0
LINE
  5
235
100
AcDbEntity
  8
0
100
AcDbLine
 62
7
  6
CONTINUOUS
 10
352.2386433339
 20
357.0577038807
 11
352.2386433339
 21
1471.2824593663
  0
LINE
  5
236
100
AcDbEntity
  8
0
100
AcDbLine
 62
7
  6
CONTINUOUS
 10
353.1167646857
 20
357.5393005698
 11
353.1167646857
 21
1468.3556638811
  0
LINE
  5
237
100
AcDbEntity
  8
0
100
AcDbLine
 62
7
  6
CONTINUOUS
 10
361.6479065702
 20
1412.4830653528
 11
361.6479065702
 21
1404.5055126722
  0
LINE
  5
238
100
AcDbEntity
  8
0
100
AcDbLine
 62
7
  6
CONTINUOUS
 10
361.6479065702
 20
1126.7072193574
 11
361.6479065702
 21
1118.7296666768
  0
LINE
  5
239
100
AcDbEntity
  8
0
100
AcDbLine
 62
7
  6
CONTINUOUS
 10
361.6479065702
 20
698.0434503644
 11
361.6479065702
 21
690.0658976838
  0
LINE
  5
23A
100
AcDbEntity
  8
0
100
AcDbLine
 62
7
  6
CONTINUOUS
 10
361.6479065702
 20
412.267604369
 11
361.6479065702
 21
404.2900516884
  0
LINE
  5
23B
100
AcDbEntity
  8
0
100
AcDbLine
 62
7
  6
CONTINUOUS
 10
361.9454580358
 20
1412.1710149582
 11
361.9454580358
 21
1404.4752563293
  0
LINE
  5
23C
100
AcDbEntity
  8
0
100
AcDbLine
 62
7
  6
CONTINUOUS
 10
361.9454580358
 20
1126.3951689628
 11
361.9454580358
 21
1118.699410334
  0
LINE
  5
23D
100
AcDbEntity
  8
0
100
AcDbLine
 62
7
  6
CONTINUOUS
 10
361.9454580358
 20
697.7313999698
 11
361.9454580358
 21
690.0356413409
  0
LINE
  5
23E
100
AcDbEntity
  8
0
100
AcDbLine
 62
7
  6
CONTINUOUS
 10
361.9454580358
 20
411.9555539744
 11
361.9454580358
 21
404.2597953456
  0
LINE
  5
23F
100
AcDbEntity
  8
0
100
AcDbLine
 62
7
  6
CONTINUOUS
 10
412.3167345942
 20
1441.1041903583
 11
412.3167345942
 21
1443.2989701258
  0
LINE
  5
240
100
AcDbEntity
  8
0
100
AcDbLine
 62
7
  6
CONTINUOUS
 10
412.3167345942
 20
1447.304436841
 11
412.3167345942
 21
1466.7436273224
  0
LINE
  5
241
100
AcDbEntity
  8
0
100
AcDbLine
 62
7
  6
CONTINUOUS
 10
413.0489750012
 20
1440.8272969475
 11
413.0489750012
 21
1443.2989701258
  0
LINE
  5
242
100
AcDbEntity
  8
0
100
AcDbLine
 62
7
  6
CONTINUOUS
 10
413.0489750012
 20
1446.8816872088
 11
413.0489750012
 21
1465.7230169377
  0
LINE
  5
243
100
AcDbEntity
  8
0
100
AcDbLine
 62
7
  6
CONTINUOUS
 10
414.9077001717
 20
1469.5487947733
 11
414.9077001717
 21
1505.852157651
  0
LINE
  5
244
100
AcDbEntity
  8
0
100
AcDbLine
 62
7
  6
CONTINUOUS
 10
415.488296977
 20
1445.4733758697
 11
415.488296977
 21
1447.7309800075
  0
LINE
  5
245
100
AcDbEntity
  8
0
100
AcDbLine
 62
7
  6
CONTINUOUS
 10
415.488296977
 20
1465.4577797112
 11
415.488296977
 21
1468.542882948
  0
LINE
  5
246
100
AcDbEntity
  8
0
100
AcDbLine
 62
7
  6
CONTINUOUS
 10
415.8578684993
 20
1468.9060583591
 11
415.8578684993
 21
1465.2444123204
  0
LINE
  5
247
100
AcDbEntity
  8
0
100
AcDbLine
 62
7
  6
CONTINUOUS
 10
415.8578684993
 20
1447.7309800075
 11
415.8578684993
 21
1445.2600084788
  0
LINE
  5
248
100
AcDbEntity
  8
0
100
AcDbLine
 62
7
  6
CONTINUOUS
 10
415.8578684993
 20
1443.0332795713
 11
415.8578684993
 21
1442.805783272
  0
LINE
  5
249
100
AcDbEntity
  8
0
100
AcDbLine
 62
7
  6
CONTINUOUS
 10
416.0283817341
 20
1447.8824230504
 11
416.0283817341
 21
1445.1615648439
  0
LINE
  5
24A
100
AcDbEntity
  8
0
100
AcDbLine
 62
7
  6
CONTINUOUS
 10
416.0283817341
 20
1442.9646571576
 11
416.0283817341
 21
1442.5916545832
  0
LINE
  5
24B
100
AcDbEntity
  8
0
100
AcDbLine
 62
7
  6
CONTINUOUS
 10
416.4231521697
 20
1442.805783272
 11
416.4231521697
 21
1443.6778735697
  0
LINE
  5
24C
100
AcDbEntity
  8
0
100
AcDbLine
 62
7
  6
CONTINUOUS
 10
417.83737162
 20
1442.8613920606
 11
417.83737162
 21
1441.989301763
  0
LINE
  5
24D
100
AcDbEntity
  8
0
100
AcDbLine
 62
7
  6
CONTINUOUS
 10
422.0594880386
 20
1460.5209124365
 11
422.0594880386
 21
1441.6795827685
  0
LINE
  5
24E
100
AcDbEntity
  8
0
100
AcDbLine
 62
7
  6
CONTINUOUS
 10
423.0494334634
 20
1461.0924542823
 11
423.0494334634
 21
1441.1080504408
  0
LINE
  5
24F
100
AcDbEntity
  8
0
100
AcDbLine
 62
7
  6
CONTINUOUS
 10
423.1401970282
 20
1499.6708432397
 11
423.1401970282
 21
1461.0924542823
  0
LINE
  5
250
100
AcDbEntity
  8
0
100
AcDbLine
 62
7
  6
CONTINUOUS
 10
423.2463223505
 20
1499.694385657
 11
423.2463223505
 21
1501.0379608073
  0
LINE
  5
251
100
AcDbEntity
  8
0
100
AcDbLine
 62
7
  6
CONTINUOUS
 10
416.0691586403
 20
1503.8380293153
 11
416.0291892549
 21
1469.5474875549
  0
LINE
  5
252
100
AcDbEntity
  8
0
100
AcDbLine
 62
7
  6
CONTINUOUS
 10
416.0291892549
 20
1469.5474875549
 11
416.0283817341
 21
1465.1459686855
  0
LINE
  5
253
100
AcDbEntity
  8
0
100
AcDbLine
 62
7
  6
CONTINUOUS
 10
451.2923405393
 20
1479.9424621838
 11
451.2949441527
 21
1480.3216075344
  0
LINE
  5
254
100
AcDbEntity
  8
0
100
AcDbLine
 62
7
  6
CONTINUOUS
 10
758.3408019222
 20
1208.4030104857
 11
760.5518932557
 21
1210.4433213927
  0
LINE
  5
255
100
AcDbEntity
  8
0
100
AcDbLine
 62
7
  6
CONTINUOUS
 10
451.2949441527
 20
1480.3216075344
 11
451.2133631861
 21
1484.7756271643
  0
LINE
  5
256
100
AcDbEntity
  8
0
100
AcDbLine
 62
7
  6
CONTINUOUS
 10
451.2133631861
 20
1484.7756271643
 11
451.2133631861
 21
1483.5193870667
  0
LINE
  5
257
100
AcDbEntity
  8
0
100
AcDbLine
 62
7
  6
CONTINUOUS
 10
472.9914591468
 20
1475.4653155817
 11
472.9914591468
 21
1477.8461574081
  0
LINE
  5
258
100
AcDbEntity
  8
0
100
AcDbLine
 62
7
  6
CONTINUOUS
 10
474.4056785971
 20
1477.029675899
 11
474.4056785971
 21
1474.6488340727
  0
LINE
  5
259
100
AcDbEntity
  8
0
100
AcDbLine
 62
7
  6
CONTINUOUS
 10
721.9535579412
 20
1268.5395777321
 11
722.0351389078
 21
1265.7394008904
  0
LINE
  5
25A
100
AcDbEntity
  8
0
100
AcDbLine
 62
7
  6
CONTINUOUS
 10
704.4996541945
 20
1276.4884998804
 11
704.4996541945
 21
1277.3605901781
  0
LINE
  5
25B
100
AcDbEntity
  8
0
100
AcDbLine
 62
7
  6
CONTINUOUS
 10
705.9138736448
 20
1276.5441086691
 11
705.9138736448
 21
1275.6720183714
  0
LINE
  5
25C
100
AcDbEntity
  8
0
100
AcDbLine
 62
7
  6
CONTINUOUS
 10
749.4213536868
 20
1239.5542789192
 11
749.4213536868
 21
128.7379156079
  0
LINE
  5
25D
100
AcDbEntity
  8
0
100
AcDbLine
 62
7
  6
CONTINUOUS
 10
754.0817290901
 20
126.65996466
 11
754.0817290901
 21
1242.252025393
  0
LINE
  5
25E
100
AcDbEntity
  8
0
100
AcDbLine
 62
7
  6
CONTINUOUS
 10
758.3408019222
 20
132.0658372252
 11
758.3408019222
 21
168.3692001029
  0
LINE
  5
25F
100
AcDbEntity
  8
0
100
AcDbLine
 62
7
  6
CONTINUOUS
 10
758.3408019222
 20
1208.4030104857
 11
758.3408019222
 21
1244.7063733634
  0
LINE
  5
260
100
AcDbEntity
  8
0
100
AcDbLine
 62
7
  6
CONTINUOUS
 10
760.5518932557
 20
1210.4433213927
 11
760.5518932557
 21
170.4095110099
  0
LINE
  5
261
100
AcDbEntity
  8
0
100
AcDbLine
 62
7
  6
CONTINUOUS
 10
760.9317674997
 20
171.1743675538
 11
760.9317674997
 21
1211.2081779367
  0
LINE
  5
262
100
AcDbEntity
  8
0
100
AcDbLine
 62
7
  6
CONTINUOUS
 10
761.0679611716
 20
196.8138045179
 11
761.0679611716
 21
199.1946463442
  0
LINE
  5
263
100
AcDbEntity
  8
0
100
AcDbLine
 62
7
  6
CONTINUOUS
 10
761.0679611716
 20
1309.1480321902
 11
761.0679611716
 21
1311.5288740165
  0
LINE
  5
264
100
AcDbEntity
  8
0
100
AcDbLine
 62
7
  6
CONTINUOUS
 10
762.4821806219
 20
1310.7123925075
 11
762.4821806219
 21
1308.3315506811
  0
LINE
  5
265
100
AcDbEntity
  8
0
100
AcDbLine
 62
7
  6
CONTINUOUS
 10
762.4821806219
 20
198.3781648352
 11
762.4821806219
 21
195.9973230088
  0
LINE
  5
266
100
AcDbEntity
  8
0
100
AcDbLine
 62
7
  6
CONTINUOUS
 10
776.319026717
 20
1297.0800310514
 11
776.319026717
 21
1295.7582073851
  0
LINE
  5
267
100
AcDbEntity
  8
0
100
AcDbLine
 62
7
  6
CONTINUOUS
 10
776.319026717
 20
185.8048215392
 11
776.319026717
 21
184.4829978729
  0
LINE
  5
268
100
AcDbEntity
  8
0
100
AcDbLine
 62
7
  6
CONTINUOUS
 10
811.6263388875
 20
165.5147653907
 11
811.5868235161
 21
199.3701712631
  0
LINE
  5
269
100
AcDbEntity
  8
0
100
AcDbLine
 62
7
  6
CONTINUOUS
 10
797.1507633688
 20
1243.9667627634
 11
797.1507633688
 21
203.9329523805
  0
LINE
  5
26A
100
AcDbEntity
  8
0
100
AcDbLine
 62
7
  6
CONTINUOUS
 10
804.4491751772
 20
1280.9553700454
 11
804.4491751772
 21
1279.6117948951
  0
LINE
  5
26B
100
AcDbEntity
  8
0
100
AcDbLine
 62
7
  6
CONTINUOUS
 10
804.4491751772
 20
169.6584090491
 11
804.4491751772
 21
168.3148338987
  0
LINE
  5
26C
100
AcDbEntity
  8
0
100
AcDbLine
 62
7
  6
CONTINUOUS
 10
806.1612765116
 20
1238.764658323
 11
806.1612765116
 21
198.7308479402
  0
LINE
  5
26D
100
AcDbEntity
  8
0
100
AcDbLine
 62
7
  6
CONTINUOUS
 10
809.2538430921
 20
198.5274270167
 11
809.2538430921
 21
1238.5612373995
  0
LINE
  5
26E
100
AcDbEntity
  8
0
100
AcDbLine
 62
7
  6
CONTINUOUS
 10
812.787797356
 20
199.8039999327
 11
812.787797356
 21
163.500637055
  0
LINE
  5
26F
100
AcDbEntity
  8
0
100
AcDbLine
 62
7
  6
CONTINUOUS
 10
812.787797356
 20
1239.8378103156
 11
812.787797356
 21
1276.1411731975
  0
LINE
  5
270
100
AcDbEntity
  8
0
100
AcDbLine
 62
7
  6
CONTINUOUS
 10
819.59500987
 20
1280.0759099087
 11
819.59500987
 21
164.4838491757
  0
LINE
  5
271
100
AcDbEntity
  8
0
100
AcDbLine
 62
7
  6
CONTINUOUS
 10
821.00985876
 20
166.6355728903
 11
821.00985876
 21
1280.8603283759
  0
LINE
  5
272
100
AcDbEntity
  8
0
100
AcDbLine
 62
7
  6
CONTINUOUS
 10
811.5855619813
 20
1240.4848210879
 11
811.6263388875
 21
1275.4681512367
  0
LINE
  5
273
100
AcDbEntity
  8
0
100
AcDbLine
 62
7
  6
CONTINUOUS
 10
770.036617797
 20
1296.3001795749
 11
770.2371175546
 21
1295.8037750912
  0
LINE
  5
274
100
AcDbEntity
  8
0
100
AcDbLine
 62
7
  6
CONTINUOUS
 10
770.2371175546
 20
185.8503892452
 11
770.036617797
 21
185.3569891846
  0
LINE
  5
275
100
AcDbEntity
  8
0
100
AcDbLine
 62
7
  6
CONTINUOUS
 10
760.432021089
 20
1210.951486774
 11
758.3408019222
 21
1212.1588254092
  0
LINE
  5
276
100
AcDbEntity
  8
0
100
AcDbLine
 62
7
  6
CONTINUOUS
 10
758.3408019222
 20
1213.3018995345
 11
760.1995270927
 21
1212.2287883214
  0
LINE
  5
277
100
AcDbEntity
  8
0
100
AcDbLine
 62
7
  6
CONTINUOUS
 10
776.4506353309
 20
1295.8401453075
 11
775.8212666981
 21
1295.7619367704
  0
LINE
  5
278
100
AcDbEntity
  8
0
100
AcDbLine
 62
7
  6
CONTINUOUS
 10
776.319026717
 20
1297.0800310514
 11
770.036617797
 21
1296.3001795749
  0
LINE
  5
279
100
AcDbEntity
  8
0
100
AcDbLine
 62
7
  6
CONTINUOUS
 10
775.8212666981
 20
1295.7619367704
 11
770.2371175546
 21
1295.8037750912
  0
LINE
  5
27A
100
AcDbEntity
  8
0
100
AcDbLine
 62
7
  6
CONTINUOUS
 10
353.1167646857
 20
1468.3556638811
 11
749.4213536868
 21
1239.5542789192
  0
LINE
  5
27B
100
AcDbEntity
  8
0
100
AcDbLine
 62
7
  6
CONTINUOUS
 10
754.0866931156
 20
1242.2548859794
 11
353.6614261516
 21
1473.4352916518
  0
LINE
  5
27C
100
AcDbEntity
  8
0
100
AcDbLine
 62
7
  6
CONTINUOUS
 10
410.7663214719
 20
1441.9206718674
 11
412.1805409222
 21
1441.1041903583
  0
LINE
  5
27D
100
AcDbEntity
  8
0
100
AcDbLine
 62
7
  6
CONTINUOUS
 10
698.8428234968
 20
1275.6033884758
 11
700.2570429471
 21
1274.7869069668
  0
LINE
  5
27E
100
AcDbEntity
  8
0
100
AcDbLine
 62
7
  6
CONTINUOUS
 10
360.4607047378
 20
1474.4173578254
 11
368.7993269166
 21
1469.6031609775
  0
LINE
  5
27F
100
AcDbEntity
  8
0
100
AcDbLine
 62
7
  6
CONTINUOUS
 10
750.0021797434
 20
1249.5205702156
 11
758.3408019222
 21
1244.7063733677
  0
LINE
  5
280
100
AcDbEntity
  8
0
100
AcDbLine
 62
7
  6
CONTINUOUS
 10
368.880880729
 20
1469.6284943278
 11
396.9294753769
 21
1453.4349970033
  0
LINE
  5
281
100
AcDbEntity
  8
0
100
AcDbLine
 62
7
  6
CONTINUOUS
 10
722.0351389078
 20
1265.7394008904
 11
750.0837335557
 21
1249.5459035659
  0
LINE
  5
282
100
AcDbEntity
  8
0
100
AcDbLine
 62
7
  6
CONTINUOUS
 10
416.4231521697
 20
1442.805783272
 11
417.83737162
 21
1441.989301763
  0
LINE
  5
283
100
AcDbEntity
  8
0
100
AcDbLine
 62
7
  6
CONTINUOUS
 10
704.4996541945
 20
1276.4884998804
 11
705.9138736448
 21
1275.6720183714
  0
LINE
  5
284
100
AcDbEntity
  8
0
100
AcDbLine
 62
7
  6
CONTINUOUS
 10
705.9138736448
 20
1276.5441086691
 11
704.4996541945
 21
1277.3605901781
  0
LINE
  5
285
100
AcDbEntity
  8
0
100
AcDbLine
 62
7
  6
CONTINUOUS
 10
417.83737162
 20
1442.8613920606
 11
416.4231521697
 21
1443.6778735697
  0
LINE
  5
286
100
AcDbEntity
  8
0
100
AcDbLine
 62
7
  6
CONTINUOUS
 10
403.2118842969
 20
1452.5610056916
 11
721.9535579412
 21
1268.5395777321
  0
LINE
  5
287
100
AcDbEntity
  8
0
100
AcDbLine
 62
7
  6
CONTINUOUS
 10
806.1612765116
 20
1238.764658323
 11
797.1507633688
 21
1243.9667627634
  0
LINE
  5
288
100
AcDbEntity
  8
0
100
AcDbLine
 62
7
  6
CONTINUOUS
 10
422.0594880386
 20
1460.5209124365
 11
413.0489750012
 21
1465.7230169377
  0
LINE
  5
289
100
AcDbEntity
  8
0
100
AcDbLine
 62
7
  6
CONTINUOUS
 10
412.8164810049
 20
1467.0003184851
 11
423.0494334634
 21
1461.0924542823
  0
LINE
  5
28A
100
AcDbEntity
  8
0
100
AcDbLine
 62
7
  6
CONTINUOUS
 10
798.1407087936
 20
1244.5383046092
 11
808.3736612521
 21
1238.6304404064
  0
LINE
  5
28B
100
AcDbEntity
  8
0
100
AcDbLine
 62
7
  6
CONTINUOUS
 10
414.9077001717
 20
1469.5487947733
 11
416.0691586403
 21
1468.8782415838
  0
LINE
  5
28C
100
AcDbEntity
  8
0
100
AcDbLine
 62
7
  6
CONTINUOUS
 10
811.6263388875
 20
1240.5083635051
 11
812.787797356
 21
1239.8378103156
  0
LINE
  5
28D
100
AcDbEntity
  8
0
100
AcDbLine
 62
7
  6
CONTINUOUS
 10
811.6263388875
 20
1275.4681512367
 11
804.4083982711
 21
1279.5882524778
  0
LINE
  5
28E
100
AcDbEntity
  8
0
100
AcDbLine
 62
7
  6
CONTINUOUS
 10
770.2371175546
 20
1295.8037750912
 11
451.2923405393
 21
1479.9424621838
  0
LINE
  5
28F
100
AcDbEntity
  8
0
100
AcDbLine
 62
7
  6
CONTINUOUS
 10
770.036617797
 20
1296.3001795749
 11
451.2949441527
 21
1480.3216075344
  0
LINE
  5
290
100
AcDbEntity
  8
0
100
AcDbLine
 62
7
  6
CONTINUOUS
 10
467.3346284491
 20
1473.0714526484
 11
468.7488478993
 21
1472.2549711394
  0
LINE
  5
291
100
AcDbEntity
  8
0
100
AcDbLine
 62
7
  6
CONTINUOUS
 10
755.4111304739
 20
1306.7541692569
 11
756.8253499242
 21
1305.9376877478
  0
LINE
  5
292
100
AcDbEntity
  8
0
100
AcDbLine
 62
7
  6
CONTINUOUS
 10
804.4083982711
 20
1279.5882524778
 11
776.3598036232
 21
1295.7817498023
  0
LINE
  5
293
100
AcDbEntity
  8
0
100
AcDbLine
 62
7
  6
CONTINUOUS
 10
451.2541400923
 20
1483.4773459152
 11
423.2055454443
 21
1499.6708432397
  0
LINE
  5
294
100
AcDbEntity
  8
0
100
AcDbLine
 62
7
  6
CONTINUOUS
 10
804.3676213649
 20
1280.8865337269
 11
776.319026717
 21
1297.0800310514
  0
LINE
  5
295
100
AcDbEntity
  8
0
100
AcDbLine
 62
7
  6
CONTINUOUS
 10
451.2133631861
 20
1484.7756271643
 11
423.1647685382
 21
1500.9691244888
  0
LINE
  5
296
100
AcDbEntity
  8
0
100
AcDbLine
 62
7
  6
CONTINUOUS
 10
812.787797356
 20
1276.1411731975
 11
804.4491751772
 21
1280.9553700454
  0
LINE
  5
297
100
AcDbEntity
  8
0
100
AcDbLine
 62
7
  6
CONTINUOUS
 10
423.2463223505
 20
1501.0379608073
 11
414.9077001717
 21
1505.8521576552
  0
LINE
  5
298
100
AcDbEntity
  8
0
100
AcDbLine
 62
7
  6
CONTINUOUS
 10
472.9914591468
 20
1475.4653155817
 11
474.4056785971
 21
1474.6488340727
  0
LINE
  5
299
100
AcDbEntity
  8
0
100
AcDbLine
 62
7
  6
CONTINUOUS
 10
761.0679611716
 20
1309.1480321902
 11
762.4821806219
 21
1308.3315506811
  0
LINE
  5
29A
100
AcDbEntity
  8
0
100
AcDbLine
 62
7
  6
CONTINUOUS
 10
762.4821806219
 20
1310.7123925075
 11
761.0679611716
 21
1311.5288740165
  0
LINE
  5
29B
100
AcDbEntity
  8
0
100
AcDbLine
 62
7
  6
CONTINUOUS
 10
474.4056785971
 20
1477.029675899
 11
472.9914591468
 21
1477.8461574081
  0
LINE
  5
29C
100
AcDbEntity
  8
0
100
AcDbLine
 62
7
  6
CONTINUOUS
 10
419.1618089783
 20
1511.2517295752
 11
819.5870759423
 21
1280.0713239028
  0
LINE
  5
29D
100
AcDbEntity
  8
0
100
AcDbLine
 62
7
  6
CONTINUOUS
 10
821.010401788
 20
1280.8589320679
 11
421.6890172701
 21
1511.4020253308
  0
LINE
  5
29E
100
AcDbEntity
  8
0
100
AcDbLine
 62
7
  6
CONTINUOUS
 10
423.2055454443
 20
1499.6708432397
 11
416.0691586403
 21
1503.8380293153
  0
LINE
  5
29F
100
AcDbEntity
  8
0
100
AcDbLine
 62
7
  6
CONTINUOUS
 10
754.0817290901
 20
126.65996466
 11
758.3408019222
 21
132.0658372252
  0
LINE
  5
2A0
100
AcDbEntity
  8
0
100
AcDbLine
 62
7
  6
CONTINUOUS
 10
760.5518932557
 20
170.4095110099
 11
758.3408019222
 21
168.3692001029
  0
LINE
  5
2A1
100
AcDbEntity
  8
0
100
AcDbLine
 62
7
  6
CONTINUOUS
 10
396.9294753769
 20
1453.4349970033
 11
403.2118842969
 21
1452.5610056916
  0
LINE
  5
2A2
100
AcDbEntity
  8
0
100
AcDbLine
 62
7
  6
CONTINUOUS
 10
812.787797356
 20
199.8039999327
 11
809.2538430921
 21
198.5274270166
  0
LINE
  5
2A3
100
AcDbEntity
  8
0
100
AcDbLine
 62
7
  6
CONTINUOUS
 10
353.6534922238
 20
1473.4341457006
 11
360.4607047378
 21
1474.4173578212
  0
ARC
  5
2A4
100
AcDbEntity
  8
0
100
AcDbCircle
 62
7
  6
CONTINUOUS
 10
855.3637252405
 20
1216.728203313
 40
72.7474178513
100
AcDbArc
 50
119.2594083859
 51
119.4440345073
  0
ARC
  5
2A5
100
AcDbEntity
  8
0
100
AcDbCircle
 62
7
  6
CONTINUOUS
 10
424.3464268409
 20
1446.6493440862
 40
9.387925817
100
AcDbArc
 50
202.9980875477
 51
210.0318761213
  0
ARC
  5
2A6
100
AcDbEntity
  8
0
100
AcDbCircle
 62
7
  6
CONTINUOUS
 10
423.2815163095
 20
1446.0213306542
 40
9.2947360615
100
AcDbArc
 50
210.1691952677
 51
219.82415652
  0
ARC
  5
2A7
100
AcDbEntity
  8
0
100
AcDbCircle
 62
7
  6
CONTINUOUS
 10
760.7511273499
 20
1305.327412871
 40
3.4671875365
100
AcDbArc
 50
55.1563961793
 51
60.0484648897
  0
ARC
  5
2A8
100
AcDbEntity
  8
0
100
AcDbCircle
 62
7
  6
CONTINUOUS
 10
472.674625325
 20
1471.6446962625
 40
3.4671875365
100
AcDbArc
 50
55.1563961793
 51
60.0484648897
  0
ARC
  5
2A9
100
AcDbEntity
  8
0
100
AcDbCircle
 62
7
  6
CONTINUOUS
 10
700.5738656798
 20
1273.4843782963
 40
3.4671679183
100
AcDbArc
 50
119.9519596115
 51
124.8434604025
  0
ARC
  5
2AA
100
AcDbEntity
  8
0
100
AcDbCircle
 62
7
  6
CONTINUOUS
 10
412.4973636548
 20
1439.8016616881
 40
3.4671679181
100
AcDbArc
 50
119.9519596113
 51
124.8434604027
  0
ARC
  5
2AB
100
AcDbEntity
  8
0
100
AcDbCircle
 62
7
  6
CONTINUOUS
 10
760.751138676
 20
198.1163328031
 40
3.4671674662
100
AcDbArc
 50
299.9519593964
 51
304.8434709693
  0
ARC
  5
2AC
100
AcDbEntity
  8
0
100
AcDbCircle
 62
7
  6
CONTINUOUS
 10
700.4342072357
 20
1274.32577606
 40
2.7541053476
100
AcDbArc
 50
86.6132219468
 51
89.5064572083
  0
ARC
  5
2AD
100
AcDbEntity
  8
0
100
AcDbCircle
 62
7
  6
CONTINUOUS
 10
412.3577052108
 20
1440.6430594512
 40
2.7541053479
100
AcDbArc
 50
86.6132219471
 51
89.5064572082
  0
ARC
  5
2AE
100
AcDbEntity
  8
0
100
AcDbCircle
 62
7
  6
CONTINUOUS
 10
427.2077515065
 20
1452.975334346
 40
2.4561300704
100
AcDbArc
 50
97.6472831796
 51
103.0546408675
  0
ARC
  5
2AF
100
AcDbEntity
  8
0
100
AcDbCircle
 62
7
  6
CONTINUOUS
 10
357.558023541
 20
412.5478242059
 40
2.4561300704
100
AcDbArc
 50
97.6472831797
 51
103.0546408674
  0
ARC
  5
2B0
100
AcDbEntity
  8
0
100
AcDbCircle
 62
7
  6
CONTINUOUS
 10
357.558023541
 20
1126.9874391942
 40
2.4561300705
100
AcDbArc
 50
97.6472831798
 51
103.0546408675
  0
ARC
  5
2B1
100
AcDbEntity
  8
0
100
AcDbCircle
 62
7
  6
CONTINUOUS
 10
357.558023541
 20
698.3236702013
 40
2.4561300704
100
AcDbArc
 50
97.6472831796
 51
103.0546408675
  0
ARC
  5
2B2
100
AcDbEntity
  8
0
100
AcDbCircle
 62
7
  6
CONTINUOUS
 10
357.558023541
 20
1412.7632851896
 40
2.4561300705
100
AcDbArc
 50
97.6472831797
 51
103.0546408674
  0
ARC
  5
2B3
100
AcDbEntity
  8
0
100
AcDbCircle
 62
7
  6
CONTINUOUS
 10
740.8114945707
 20
191.2813352559
 40
2.4561300705
100
AcDbArc
 50
97.6472831797
 51
103.0546408674
  0
ARC
  5
2B4
100
AcDbEntity
  8
0
100
AcDbCircle
 62
7
  6
CONTINUOUS
 10
740.8114945706
 20
905.7209502443
 40
2.4561300704
100
AcDbArc
 50
97.6472831796
 51
103.0546408675
  0
ARC
  5
2B5
100
AcDbEntity
  8
0
100
AcDbCircle
 62
7
  6
CONTINUOUS
 10
740.8114945706
 20
477.0571812512
 40
2.4561300704
100
AcDbArc
 50
97.6472831796
 51
103.0546408674
  0
ARC
  5
2B6
100
AcDbEntity
  8
0
100
AcDbCircle
 62
7
  6
CONTINUOUS
 10
740.8114945707
 20
1191.4967962394
 40
2.4561300706
100
AcDbArc
 50
97.6472831799
 51
103.0546408673
  0
ARC
  5
2B7
100
AcDbEntity
  8
0
100
AcDbCircle
 62
7
  6
CONTINUOUS
 10
431.2698840205
 20
1445.9483875815
 40
2.443404607
100
AcDbArc
 50
316.9342114486
 51
322.291326004
  0
ARC
  5
2B8
100
AcDbEntity
  8
0
100
AcDbCircle
 62
7
  6
CONTINUOUS
 10
744.8736270845
 20
1184.4698494753
 40
2.4434046072
100
AcDbArc
 50
316.9342114489
 51
322.2913260038
  0
ARC
  5
2B9
100
AcDbEntity
  8
0
100
AcDbCircle
 62
7
  6
CONTINUOUS
 10
744.8736270846
 20
470.0302344868
 40
2.4434046071
100
AcDbArc
 50
316.9342114487
 51
322.2913260039
  0
ARC
  5
2BA
100
AcDbEntity
  8
0
100
AcDbCircle
 62
7
  6
CONTINUOUS
 10
744.8736270846
 20
898.6940034798
 40
2.4434046071
100
AcDbArc
 50
316.9342114487
 51
322.2913260039
  0
ARC
  5
2BB
100
AcDbEntity
  8
0
100
AcDbCircle
 62
7
  6
CONTINUOUS
 10
744.8736270847
 20
184.2543884914
 40
2.443404607
100
AcDbArc
 50
316.9342114487
 51
322.2913260041
  0
ARC
  5
2BC
100
AcDbEntity
  8
0
100
AcDbCircle
 62
7
  6
CONTINUOUS
 10
361.620156055
 20
1405.7363384251
 40
2.443404607
100
AcDbArc
 50
316.9342114486
 51
322.2913260041
  0
ARC
  5
2BD
100
AcDbEntity
  8
0
100
AcDbCircle
 62
7
  6
CONTINUOUS
 10
361.620156055
 20
691.2967234368
 40
2.443404607
100
AcDbArc
 50
316.9342114486
 51
322.291326004
  0
ARC
  5
2BE
100
AcDbEntity
  8
0
100
AcDbCircle
 62
7
  6
CONTINUOUS
 10
361.620156055
 20
1119.9604924298
 40
2.443404607
100
AcDbArc
 50
316.9342114487
 51
322.291326004
  0
ARC
  5
2BF
100
AcDbEntity
  8
0
100
AcDbCircle
 62
7
  6
CONTINUOUS
 10
361.620156055
 20
405.5208774414
 40
2.443404607
100
AcDbArc
 50
316.9342114486
 51
322.291326004
  0
ARC
  5
2C0
100
AcDbEntity
  8
0
100
AcDbCircle
 62
7
  6
CONTINUOUS
 10
799.4767381808
 20
224.3758882664
 40
2.1298470026
100
AcDbArc
 50
95.3883495335
 51
101.303906633
  0
ARC
  5
2C1
100
AcDbEntity
  8
0
100
AcDbCircle
 62
7
  6
CONTINUOUS
 10
799.4767381808
 20
938.8155032548
 40
2.1298470026
100
AcDbArc
 50
95.3883495335
 51
101.303906633
  0
ARC
  5
2C2
100
AcDbEntity
  8
0
100
AcDbCircle
 62
7
  6
CONTINUOUS
 10
799.4767381808
 20
510.1517342618
 40
2.1298470027
100
AcDbArc
 50
95.3883495336
 51
101.3039066331
  0
ARC
  5
2C3
100
AcDbEntity
  8
0
100
AcDbCircle
 62
7
  6
CONTINUOUS
 10
799.4767381808
 20
1224.5913492501
 40
2.1298470027
100
AcDbArc
 50
95.3883495336
 51
101.303906633
  0
ARC
  5
2C4
100
AcDbEntity
  8
0
100
AcDbCircle
 62
7
  6
CONTINUOUS
 10
416.2232671547
 20
1445.8578382811
 40
2.1298469333
100
AcDbArc
 50
95.3883498647
 51
101.3039068431
  0
ARC
  5
2C5
100
AcDbEntity
  8
0
100
AcDbCircle
 62
7
  6
CONTINUOUS
 10
802.8657287569
 20
1218.7291101477
 40
2.1189266522
100
AcDbArc
 50
318.6952515198
 51
324.5564466723
  0
ARC
  5
2C6
100
AcDbEntity
  8
0
100
AcDbCircle
 62
7
  6
CONTINUOUS
 10
802.8657287569
 20
504.2894951593
 40
2.1189266522
100
AcDbArc
 50
318.6952515197
 51
324.5564466722
  0
ARC
  5
2C7
100
AcDbEntity
  8
0
100
AcDbCircle
 62
7
  6
CONTINUOUS
 10
802.8657287569
 20
932.9532641524
 40
2.1189266522
100
AcDbArc
 50
318.6952515197
 51
324.5564466722
  0
ARC
  5
2C8
100
AcDbEntity
  8
0
100
AcDbCircle
 62
7
  6
CONTINUOUS
 10
802.8657287569
 20
218.513649164
 40
2.1189266522
100
AcDbArc
 50
318.6952515197
 51
324.5564466723
  0
ARC
  5
2C9
100
AcDbEntity
  8
0
100
AcDbCircle
 62
7
  6
CONTINUOUS
 10
417.1082985252
 20
1440.0946696214
 40
1.9646541707
100
AcDbArc
 50
33.4566352008
 51
38.7152832599
  0
ARC
  5
2CA
100
AcDbEntity
  8
0
100
AcDbCircle
 62
7
  6
CONTINUOUS
 10
705.1848005499
 20
1273.7773862297
 40
1.964654171
100
AcDbArc
 50
33.4566352011
 51
38.7152832595
  0
SPLINE
  5
2CB
100
AcDbEntity
  8
0
100
AcDbSpline
 62
7
  6
CONTINUOUS
 70
0
 71
3
 72
8
 73
4
 74
0
 42
0.0000001
 43
0.0000001
 44
0.0000000001
 40
0.0
 40
0.0
 40
0.0
 40
0.0
 40
1.0
 40
1.0
 40
1.0
 40
1.0
 10
819.59500987
 20
164.4826351143
 30
0.0
 10
819.777843897
 20
164.5111660444
 30
0.0
 10
819.9881594549
 20
164.5606722896
 30
0.0
 10
820.1035081899
 20
164.7053684012
 30
0.0
  0
SPLINE
  5
2CC
100
AcDbEntity
  8
0
100
AcDbSpline
 62
7
  6
CONTINUOUS
 70
0
 71
3
 72
9
 73
5
 74
0
 42
0.0000001
 43
0.0000001
 44
0.0000000001
 40
0.0
 40
0.0
 40
0.0
 40
0.0
 40
0.4947679012
 40
1.0
 40
1.0
 40
1.0
 40
1.0
 10
466.3112769554
 20
1474.4535701203
 30
0.0
 10
466.3260742183
 20
1474.4931972396
 30
0.0
 10
466.3554089884
 20
1474.5734852456
 30
0.0
 10
466.3909794476
 20
1474.6515002224
 30
0.0
 10
466.4118668281
 20
1474.6893085582
 30
0.0
  0
SPLINE
  5
2CD
100
AcDbEntity
  8
0
100
AcDbSpline
 62
7
  6
CONTINUOUS
 70
0
 71
3
 72
9
 73
5
 74
0
 42
0.0000001
 43
0.0000001
 44
0.0000000001
 40
0.0
 40
0.0
 40
0.0
 40
0.0
 40
0.4902256255
 40
1.0
 40
1.0
 40
1.0
 40
1.0
 10
466.4118668281
 20
1474.6893085582
 30
0.0
 10
466.4222398417
 20
1474.708084794
 30
0.0
 10
466.4448519182
 20
1474.7456072491
 30
0.0
 10
466.4706815657
 20
1474.7810177393
 30
0.0
 10
466.4846601943
 20
1474.798400911
 30
0.0
  0
SPLINE
  5
2CE
100
AcDbEntity
  8
0
100
AcDbSpline
 62
7
  6
CONTINUOUS
 70
0
 71
3
 72
9
 73
5
 74
0
 42
0.0000001
 43
0.0000001
 44
0.0000000001
 40
0.0
 40
0.0
 40
0.0
 40
0.0
 40
0.5000005437
 40
1.0
 40
1.0
 40
1.0
 40
1.0
 10
472.9914591468
 20
1475.4653155817
 30
0.0
 10
472.1519374141
 20
1475.950002715
 30
0.0
 10
470.1630292535
 20
1476.3333154461
 30
0.0
 10
468.174121309
 20
1475.9499941174
 30
0.0
 10
467.3346048973
 20
1475.4653019843
 30
0.0
  0
SPLINE
  5
2CF
100
AcDbEntity
  8
0
100
AcDbSpline
 62
7
  6
CONTINUOUS
 70
0
 71
3
 72
8
 73
4
 74
0
 42
0.0000001
 43
0.0000001
 44
0.0000000001
 40
0.0
 40
0.0
 40
0.0
 40
0.0
 40
1.0
 40
1.0
 40
1.0
 40
1.0
 10
755.4111069222
 20
1309.1480185927
 30
0.0
 10
755.0864422518
 20
1308.9605744768
 30
0.0
 10
754.7787523615
 20
1308.718653575
 30
0.0
 10
754.5568570206
 20
1308.4164865641
 30
0.0
  0
SPLINE
  5
2D0
100
AcDbEntity
  8
0
100
AcDbSpline
 62
7
  6
CONTINUOUS
 70
0
 71
3
 72
9
 73
5
 74
0
 42
0.0000001
 43
0.0000001
 44
0.0000000001
 40
0.0
 40
0.0
 40
0.0
 40
0.0
 40
0.5000005437
 40
1.0
 40
1.0
 40
1.0
 40
1.0
 10
761.0679611716
 20
1309.1480321902
 30
0.0
 10
760.228439439
 20
1309.6327193234
 30
0.0
 10
758.2395312784
 20
1310.0160320545
 30
0.0
 10
756.2506233339
 20
1309.6327107258
 30
0.0
 10
755.4111069222
 20
1309.1480185927
 30
0.0
  0
SPLINE
  5
2D1
100
AcDbEntity
  8
0
100
AcDbSpline
 62
7
  6
CONTINUOUS
 70
0
 71
3
 72
8
 73
4
 74
0
 42
0.0000001
 43
0.0000001
 44
0.0000000001
 40
0.0
 40
0.0
 40
0.0
 40
0.0
 40
1.0
 40
1.0
 40
1.0
 40
1.0
 10
467.3346048973
 20
1475.4653019843
 30
0.0
 10
467.0099402269
 20
1475.2778578684
 30
0.0
 10
466.7022503366
 20
1475.0359369666
 30
0.0
 10
466.4803549958
 20
1474.7337699556
 30
0.0
  0
SPLINE
  5
2D2
100
AcDbEntity
  8
0
100
AcDbSpline
 62
7
  6
CONTINUOUS
 70
0
 71
3
 72
9
 73
5
 74
0
 42
0.0000001
 43
0.0000001
 44
0.0000000001
 40
0.0
 40
0.0
 40
0.0
 40
0.0
 40
0.4947679012
 40
1.0
 40
1.0
 40
1.0
 40
1.0
 10
754.3877789803
 20
1308.1362867287
 30
0.0
 10
754.4025762432
 20
1308.1759138481
 30
0.0
 10
754.4319110133
 20
1308.2562018541
 30
0.0
 10
754.4674814725
 20
1308.3342168309
 30
0.0
 10
754.488368853
 20
1308.3720251666
 30
0.0
  0
SPLINE
  5
2D3
100
AcDbEntity
  8
0
100
AcDbSpline
 62
7
  6
CONTINUOUS
 70
0
 71
3
 72
9
 73
5
 74
0
 42
0.0000001
 43
0.0000001
 44
0.0000000001
 40
0.0
 40
0.0
 40
0.0
 40
0.0
 40
0.4902256255
 40
1.0
 40
1.0
 40
1.0
 40
1.0
 10
754.488368853
 20
1308.3720251666
 30
0.0
 10
754.4987418666
 20
1308.3908014025
 30
0.0
 10
754.5213539431
 20
1308.4283238576
 30
0.0
 10
754.5471835905
 20
1308.4637343478
 30
0.0
 10
754.5611622192
 20
1308.4811175194
 30
0.0
  0
SPLINE
  5
2D4
100
AcDbEntity
  8
0
100
AcDbSpline
 62
7
  6
CONTINUOUS
 70
0
 71
3
 72
9
 73
5
 74
0
 42
0.0000001
 43
0.0000001
 44
0.0000000001
 40
0.0
 40
0.0
 40
0.0
 40
0.0
 40
0.5121010467
 40
1.0
 40
1.0
 40
1.0
 40
1.0
 10
760.9327768358
 20
194.5207768906
 30
0.0
 10
760.975502119
 20
194.521356579
 30
0.0
 10
761.0589254969
 20
194.5239074305
 30
0.0
 10
761.1421080187
 20
194.5318863461
 30
0.0
 10
761.1823630734
 20
194.5379542715
 30
0.0
  0
SPLINE
  5
2D5
100
AcDbEntity
  8
0
100
AcDbSpline
 62
7
  6
CONTINUOUS
 70
0
 71
3
 72
8
 73
4
 74
0
 42
0.0000001
 43
0.0000001
 44
0.0000000001
 40
0.0
 40
0.0
 40
0.0
 40
0.0
 40
1.0
 40
1.0
 40
1.0
 40
1.0
 10
762.4822041737
 20
195.1122252016
 30
0.0
 10
762.0897017951
 20
194.8856152003
 30
0.0
 10
761.6553677763
 20
194.7267834815
 30
0.0
 10
761.215142532
 20
194.6190247504
 30
0.0
  0
SPLINE
  5
2D6
100
AcDbEntity
  8
0
100
AcDbSpline
 62
7
  6
CONTINUOUS
 70
0
 71
3
 72
9
 73
5
 74
0
 42
0.0000001
 43
0.0000001
 44
0.0000000001
 40
0.0
 40
0.0
 40
0.0
 40
0.0
 40
0.2245236873
 40
1.0
 40
1.0
 40
1.0
 40
1.0
 10
415.6082516407
 20
1447.7405634511
 30
0.0
 10
415.5193926741
 20
1447.6159138853
 30
0.0
 10
415.1821574828
 20
1447.0184218314
 30
0.0
 10
415.0792321254
 20
1446.3134916235
 30
0.0
 10
415.0792321254
 20
1445.7847733711
 30
0.0
  0
SPLINE
  5
2D7
100
AcDbEntity
  8
0
100
AcDbSpline
 62
7
  6
CONTINUOUS
 70
0
 71
3
 72
8
 73
4
 74
0
 42
0.0000001
 43
0.0000001
 44
0.0000000001
 40
0.0
 40
0.0
 40
0.0
 40
0.0
 40
1.0
 40
1.0
 40
1.0
 40
1.0
 10
415.2284448922
 20
1447.7309809555
 30
0.0
 10
415.4063892714
 20
1447.8335809893
 30
0.0
 10
415.6043952348
 20
1447.905979094
 30
0.0
 10
415.8057894481
 20
1447.9463689426
 30
0.0
  0
SPLINE
  5
2D8
100
AcDbEntity
  8
0
100
AcDbSpline
 62
7
  6
CONTINUOUS
 70
0
 71
3
 72
9
 73
5
 74
0
 42
0.0000001
 43
0.0000001
 44
0.0000000001
 40
0.0
 40
0.0
 40
0.0
 40
0.0
 40
0.2245627704
 40
1.0
 40
1.0
 40
1.0
 40
1.0
 10
416.023262003
 20
1447.9782735899
 30
0.0
 10
416.1741627296
 20
1447.9926065607
 30
0.0
 10
416.8533041984
 20
1447.9865861162
 30
0.0
 10
417.509001571
 20
1447.727457262
 30
0.0
 10
417.96318553
 20
1447.4672926226
 30
0.0
  0
SPLINE
  5
2D9
100
AcDbEntity
  8
0
100
AcDbSpline
 62
7
  6
CONTINUOUS
 70
0
 71
3
 72
9
 73
5
 74
0
 42
0.0000001
 43
0.0000001
 44
0.0000000001
 40
0.0
 40
0.0
 40
0.0
 40
0.0
 40
0.2330003093
 40
1.0
 40
1.0
 40
1.0
 40
1.0
 10
417.96318553
 20
1447.4672926226
 30
0.0
 10
418.421054463
 20
1447.2050171646
 30
0.0
 10
420.2068587427
 20
1445.7895407763
 30
0.0
 10
421.3950094051
 20
1443.6460558919
 30
0.0
 10
421.738168437
 20
1441.94329538
 30
0.0
  0
SPLINE
  5
2DA
100
AcDbEntity
  8
0
100
AcDbSpline
 62
7
  6
CONTINUOUS
 70
0
 71
3
 72
9
 73
5
 74
0
 42
0.0000001
 43
0.0000001
 44
0.0000000001
 40
0.0
 40
0.0
 40
0.0
 40
0.0
 40
0.2236097662
 40
1.0
 40
1.0
 40
1.0
 40
1.0
 10
426.4418824099
 20
1455.1581505775
 30
0.0
 10
426.3271111041
 20
1455.0098723647
 30
0.0
 10
425.8884041457
 20
1454.2880198445
 30
0.0
 10
425.7564941793
 20
1453.4167837233
 30
0.0
 10
425.7564941793
 20
1452.7657450029
 30
0.0
  0
SPLINE
  5
2DB
100
AcDbEntity
  8
0
100
AcDbSpline
 62
7
  6
CONTINUOUS
 70
0
 71
3
 72
8
 73
4
 74
0
 42
0.0000001
 43
0.0000001
 44
0.0000000001
 40
0.0
 40
0.0
 40
0.0
 40
0.0
 40
1.0
 40
1.0
 40
1.0
 40
1.0
 10
426.0421162392
 20
1455.1289007988
 30
0.0
 10
426.2315402698
 20
1455.2381198258
 30
0.0
 10
426.4399802367
 20
1455.3184915241
 30
0.0
 10
426.6529604222
 20
1455.3679859662
 30
0.0
  0
SPLINE
  5
2DC
100
AcDbEntity
  8
0
100
AcDbSpline
 62
7
  6
CONTINUOUS
 70
0
 71
3
 72
9
 73
5
 74
0
 42
0.0000001
 43
0.0000001
 44
0.0000000001
 40
0.0
 40
0.0
 40
0.0
 40
0.0
 40
0.223710445
 40
1.0
 40
1.0
 40
1.0
 40
1.0
 10
426.8809036112
 20
1455.4096197393
 30
0.0
 10
427.0650546275
 20
1455.4344405201
 30
0.0
 10
427.9014197473
 20
1455.4539577662
 30
0.0
 10
428.7145794706
 20
1455.1377623943
 30
0.0
 10
429.2740824664
 20
1454.8172691436
 30
0.0
  0
SPLINE
  5
2DD
100
AcDbEntity
  8
0
100
AcDbSpline
 62
7
  6
CONTINUOUS
 70
0
 71
3
 72
9
 73
5
 74
0
 42
0.0000001
 43
0.0000001
 44
0.0000000001
 40
0.0
 40
0.0
 40
0.0
 40
0.0
 40
0.4997026044
 40
1.0
 40
1.0
 40
1.0
 40
1.0
 10
429.2740824664
 20
1454.8172691436
 30
0.0
 10
430.643017171
 20
1454.0331190374
 30
0.0
 10
432.8072524772
 20
1451.5422855671
 30
0.0
 10
433.8882648504
 20
1448.4257432197
 30
0.0
 10
433.8882648504
 20
1446.8462489634
 30
0.0
  0
SPLINE
  5
2DE
100
AcDbEntity
  8
0
100
AcDbSpline
 62
7
  6
CONTINUOUS
 70
0
 71
3
 72
9
 73
5
 74
0
 42
0.0000001
 43
0.0000001
 44
0.0000000001
 40
0.0
 40
0.0
 40
0.0
 40
0.0
 40
0.2807306068
 40
1.0
 40
1.0
 40
1.0
 40
1.0
 10
433.8882648504
 20
1446.8462489634
 30
0.0
 10
433.8882648504
 20
1446.6112416581
 30
0.0
 10
433.8408595826
 20
1445.7788864174
 30
0.0
 10
433.5714582926
 20
1444.9300599817
 30
0.0
 10
433.2029370162
 20
1444.4538869326
 30
0.0
  0
SPLINE
  5
2DF
100
AcDbEntity
  8
0
100
AcDbSpline
 62
7
  6
CONTINUOUS
 70
0
 71
3
 72
8
 73
4
 74
0
 42
0.0000001
 43
0.0000001
 44
0.0000000001
 40
0.0
 40
0.0
 40
0.0
 40
0.0
 40
1.0
 40
1.0
 40
1.0
 40
1.0
 10
433.054962444
 20
1444.2799388722
 30
0.0
 10
432.9055266885
 20
1444.1202103617
 30
0.0
 10
432.7314783734
 20
1443.9799847724
 30
0.0
 10
432.5419870348
 20
1443.8707269367
 30
0.0
  0
SPLINE
  5
2E0
100
AcDbEntity
  8
0
100
AcDbSpline
 62
7
  6
CONTINUOUS
 70
0
 71
3
 72
9
 73
5
 74
0
 42
0.0000001
 43
0.0000001
 44
0.0000000001
 40
0.0
 40
0.0
 40
0.0
 40
0.0
 40
0.7661701884
 40
1.0
 40
1.0
 40
1.0
 40
1.0
 10
809.2538430921
 20
198.5274270166
 30
0.0
 10
808.4974273658
 20
198.2545374314
 30
0.0
 10
807.3581526076
 20
198.225940792
 30
0.0
 10
806.3738146196
 20
198.6081417822
 30
0.0
 10
806.1612765116
 20
198.7308479402
 30
0.0
  0
SPLINE
  5
2E1
100
AcDbEntity
  8
0
100
AcDbSpline
 62
7
  6
CONTINUOUS
 70
0
 71
3
 72
9
 73
5
 74
0
 42
0.0000001
 43
0.0000001
 44
0.0000000001
 40
0.0
 40
0.0
 40
0.0
 40
0.0
 40
0.4997671378
 40
1.0
 40
1.0
 40
1.0
 40
1.0
 10
798.332703155
 20
1224.5182844211
 30
0.0
 10
798.332703155
 20
1223.1888125329
 30
0.0
 10
799.2397597221
 20
1220.5620559269
 30
0.0
 10
801.0564235302
 20
1218.4603704757
 30
0.0
 10
802.2066019605
 20
1217.791131496
 30
0.0
  0
SPLINE
  5
2E2
100
AcDbEntity
  8
0
100
AcDbSpline
 62
7
  6
CONTINUOUS
 70
0
 71
3
 72
9
 73
5
 74
0
 42
0.0000001
 43
0.0000001
 44
0.0000000001
 40
0.0
 40
0.0
 40
0.0
 40
0.0
 40
0.280349595
 40
1.0
 40
1.0
 40
1.0
 40
1.0
 10
802.2066019605
 20
1217.791131496
 30
0.0
 10
802.3731974288
 20
1217.6941968133
 30
0.0
 10
802.9831790329
 20
1217.3822904573
 30
0.0
 10
803.6904421333
 20
1217.2151170618
 30
0.0
 10
804.1828695722
 20
1217.2632054171
 30
0.0
  0
SPLINE
  5
2E3
100
AcDbEntity
  8
0
100
AcDbSpline
 62
7
  6
CONTINUOUS
 70
0
 71
3
 72
9
 73
5
 74
0
 42
0.0000001
 43
0.0000001
 44
0.0000000001
 40
0.0
 40
0.0
 40
0.0
 40
0.0
 40
0.2245236876
 40
1.0
 40
1.0
 40
1.0
 40
1.0
 10
798.861722653
 20
226.258613493
 30
0.0
 10
798.7728636892
 20
226.1339639275
 30
0.0
 10
798.4356285095
 20
225.5364718786
 30
0.0
 10
798.332703155
 20
224.831541682
 30
0.0
 10
798.332703155
 20
224.3028234373
 30
0.0
  0
SPLINE
  5
2E4
100
AcDbEntity
  8
0
100
AcDbSpline
 62
7
  6
CONTINUOUS
 70
0
 71
3
 72
9
 73
5
 74
0
 42
0.0000001
 43
0.0000001
 44
0.0000000001
 40
0.0
 40
0.0
 40
0.0
 40
0.0
 40
0.4997671378
 40
1.0
 40
1.0
 40
1.0
 40
1.0
 10
798.332703155
 20
510.0786694327
 30
0.0
 10
798.332703155
 20
508.7491975445
 30
0.0
 10
799.2397597221
 20
506.1224409385
 30
0.0
 10
801.0564235302
 20
504.0207554873
 30
0.0
 10
802.2066019605
 20
503.3515165077
 30
0.0
  0
SPLINE
  5
2E5
100
AcDbEntity
  8
0
100
AcDbSpline
 62
7
  6
CONTINUOUS
 70
0
 71
3
 72
9
 73
5
 74
0
 42
0.0000001
 43
0.0000001
 44
0.0000000001
 40
0.0
 40
0.0
 40
0.0
 40
0.0
 40
0.280349595
 40
1.0
 40
1.0
 40
1.0
 40
1.0
 10
802.2066019605
 20
503.3515165077
 30
0.0
 10
802.3731974288
 20
503.254581825
 30
0.0
 10
802.9831790329
 20
502.9426754689
 30
0.0
 10
803.6904421333
 20
502.7755020734
 30
0.0
 10
804.1828695722
 20
502.8235904287
 30
0.0
  0
SPLINE
  5
2E6
100
AcDbEntity
  8
0
100
AcDbSpline
 62
7
  6
CONTINUOUS
 70
0
 71
3
 72
8
 73
4
 74
0
 42
0.0000001
 43
0.0000001
 44
0.0000000001
 40
0.0
 40
0.0
 40
0.0
 40
0.0
 40
1.0
 40
1.0
 40
1.0
 40
1.0
 10
798.4819158897
 20
226.2490310032
 30
0.0
 10
798.6598602757
 20
226.351631041
 30
0.0
 10
798.8578662471
 20
226.4240291479
 30
0.0
 10
799.0592604682
 20
226.4644189974
 30
0.0
  0
SPLINE
  5
2E7
100
AcDbEntity
  8
0
100
AcDbSpline
 62
7
  6
CONTINUOUS
 70
0
 71
3
 72
9
 73
5
 74
0
 42
0.0000001
 43
0.0000001
 44
0.0000000001
 40
0.0
 40
0.0
 40
0.0
 40
0.0
 40
0.2245627712
 40
1.0
 40
1.0
 40
1.0
 40
1.0
 10
799.2767330348
 20
226.4963236453
 30
0.0
 10
799.4276337616
 20
226.5106566153
 30
0.0
 10
800.106775228
 20
226.5046361693
 30
0.0
 10
800.7624725997
 20
226.2455073225
 30
0.0
 10
801.2166565595
 20
225.9853426887
 30
0.0
  0
SPLINE
  5
2E8
100
AcDbEntity
  8
0
100
AcDbSpline
 62
7
  6
CONTINUOUS
 70
0
 71
3
 72
9
 73
5
 74
0
 42
0.0000001
 43
0.0000001
 44
0.0000000001
 40
0.0
 40
0.0
 40
0.0
 40
0.0
 40
0.4997026048
 40
1.0
 40
1.0
 40
1.0
 40
1.0
 10
801.2166565595
 20
225.9853426887
 30
0.0
 10
802.3749859296
 20
225.3218310656
 30
0.0
 10
804.2062619697
 20
223.2142027528
 30
0.0
 10
805.1209647534
 20
220.5771284581
 30
0.0
 10
805.1209647534
 20
219.2406333187
 30
0.0
  0
SPLINE
  5
2E9
100
AcDbEntity
  8
0
100
AcDbSpline
 62
7
  6
CONTINUOUS
 70
0
 71
3
 72
9
 73
5
 74
0
 42
0.0000001
 43
0.0000001
 44
0.0000000001
 40
0.0
 40
0.0
 40
0.0
 40
0.0
 40
0.4997671378
 40
1.0
 40
1.0
 40
1.0
 40
1.0
 10
798.332703155
 20
938.7424384257
 30
0.0
 10
798.332703155
 20
937.4129665375
 30
0.0
 10
799.2397597221
 20
934.7862099315
 30
0.0
 10
801.0564235302
 20
932.6845244803
 30
0.0
 10
802.2066019605
 20
932.0152855007
 30
0.0
  0
SPLINE
  5
2EA
100
AcDbEntity
  8
0
100
AcDbSpline
 62
7
  6
CONTINUOUS
 70
0
 71
3
 72
9
 73
5
 74
0
 42
0.0000001
 43
0.0000001
 44
0.0000000001
 40
0.0
 40
0.0
 40
0.0
 40
0.0
 40
0.280349595
 40
1.0
 40
1.0
 40
1.0
 40
1.0
 10
802.2066019605
 20
932.0152855007
 30
0.0
 10
802.3731974288
 20
931.918350818
 30
0.0
 10
802.9831790329
 20
931.6064444619
 30
0.0
 10
803.6904421333
 20
931.4392710665
 30
0.0
 10
804.1828695722
 20
931.4873594217
 30
0.0
  0
SPLINE
  5
2EB
100
AcDbEntity
  8
0
100
AcDbSpline
 62
7
  6
CONTINUOUS
 70
0
 71
3
 72
9
 73
5
 74
0
 42
0.0000001
 43
0.0000001
 44
0.0000000001
 40
0.0
 40
0.0
 40
0.0
 40
0.0
 40
0.4997671378
 40
1.0
 40
1.0
 40
1.0
 40
1.0
 10
798.332703155
 20
224.3028234373
 30
0.0
 10
798.332703155
 20
222.9733515491
 30
0.0
 10
799.2397597221
 20
220.3465949432
 30
0.0
 10
801.0564235302
 20
218.2449094919
 30
0.0
 10
802.2066019605
 20
217.5756705123
 30
0.0
  0
SPLINE
  5
2EC
100
AcDbEntity
  8
0
100
AcDbSpline
 62
7
  6
CONTINUOUS
 70
0
 71
3
 72
9
 73
5
 74
0
 42
0.0000001
 43
0.0000001
 44
0.0000000001
 40
0.0
 40
0.0
 40
0.0
 40
0.0
 40
0.280349595
 40
1.0
 40
1.0
 40
1.0
 40
1.0
 10
802.2066019605
 20
217.5756705123
 30
0.0
 10
802.3731974288
 20
217.4787358296
 30
0.0
 10
802.9831790329
 20
217.1668294735
 30
0.0
 10
803.6904421333
 20
216.9996560781
 30
0.0
 10
804.1828695722
 20
217.0477444333
 30
0.0
  0
SPLINE
  5
2ED
100
AcDbEntity
  8
0
100
AcDbSpline
 62
7
  6
CONTINUOUS
 70
0
 71
3
 72
9
 73
5
 74
0
 42
0.0000001
 43
0.0000001
 44
0.0000000001
 40
0.0
 40
0.0
 40
0.0
 40
0.0
 40
0.2790951709
 40
1.0
 40
1.0
 40
1.0
 40
1.0
 10
805.1209647534
 20
1219.4560943024
 30
0.0
 10
805.1209647534
 20
1219.2660807256
 30
0.0
 10
805.0837621711
 20
1218.5886373213
 30
0.0
 10
804.8768674335
 20
1217.9000137473
 30
0.0
 10
804.5919912212
 20
1217.500343261
 30
0.0
  0
SPLINE
  5
2EE
100
AcDbEntity
  8
0
100
AcDbSpline
 62
7
  6
CONTINUOUS
 70
0
 71
3
 72
8
 73
4
 74
0
 42
0.0000001
 43
0.0000001
 44
0.0000000001
 40
0.0
 40
0.0
 40
0.0
 40
0.0
 40
1.0
 40
1.0
 40
1.0
 40
1.0
 10
804.4574864442
 20
1217.3304830987
 30
0.0
 10
804.3217522983
 20
1217.1761998573
 30
0.0
 10
804.1598271022
 20
1217.0409888195
 30
0.0
 10
803.9818065951
 20
1216.9383448914
 30
0.0
  0
SPLINE
  5
2EF
100
AcDbEntity
  8
0
100
AcDbSpline
 62
7
  6
CONTINUOUS
 70
0
 71
3
 72
9
 73
5
 74
0
 42
0.0000001
 43
0.0000001
 44
0.0000000001
 40
0.0
 40
0.0
 40
0.0
 40
0.0
 40
0.2790951709
 40
1.0
 40
1.0
 40
1.0
 40
1.0
 10
805.1209647534
 20
505.016479314
 30
0.0
 10
805.1209647534
 20
504.8264657373
 30
0.0
 10
805.0837621711
 20
504.149022333
 30
0.0
 10
804.8768674335
 20
503.4603987589
 30
0.0
 10
804.5919912212
 20
503.0607282726
 30
0.0
  0
SPLINE
  5
2F0
100
AcDbEntity
  8
0
100
AcDbSpline
 62
7
  6
CONTINUOUS
 70
0
 71
3
 72
8
 73
4
 74
0
 42
0.0000001
 43
0.0000001
 44
0.0000000001
 40
0.0
 40
0.0
 40
0.0
 40
0.0
 40
1.0
 40
1.0
 40
1.0
 40
1.0
 10
804.4574864442
 20
502.8908681103
 30
0.0
 10
804.3217522983
 20
502.7365848689
 30
0.0
 10
804.1598271022
 20
502.6013738311
 30
0.0
 10
803.9818065951
 20
502.498729903
 30
0.0
  0
SPLINE
  5
2F1
100
AcDbEntity
  8
0
100
AcDbSpline
 62
7
  6
CONTINUOUS
 70
0
 71
3
 72
9
 73
5
 74
0
 42
0.0000001
 43
0.0000001
 44
0.0000000001
 40
0.0
 40
0.0
 40
0.0
 40
0.0
 40
0.2790951709
 40
1.0
 40
1.0
 40
1.0
 40
1.0
 10
805.1209647534
 20
933.680248307
 30
0.0
 10
805.1209647534
 20
933.4902347303
 30
0.0
 10
805.0837621711
 20
932.812791326
 30
0.0
 10
804.8768674335
 20
932.124167752
 30
0.0
 10
804.5919912212
 20
931.7244972657
 30
0.0
  0
SPLINE
  5
2F2
100
AcDbEntity
  8
0
100
AcDbSpline
 62
7
  6
CONTINUOUS
 70
0
 71
3
 72
8
 73
4
 74
0
 42
0.0000001
 43
0.0000001
 44
0.0000000001
 40
0.0
 40
0.0
 40
0.0
 40
0.0
 40
1.0
 40
1.0
 40
1.0
 40
1.0
 10
804.4574864442
 20
931.5546371033
 30
0.0
 10
804.3217522983
 20
931.4003538619
 30
0.0
 10
804.1598271022
 20
931.2651428241
 30
0.0
 10
803.9818065951
 20
931.162498896
 30
0.0
  0
SPLINE
  5
2F3
100
AcDbEntity
  8
0
100
AcDbSpline
 62
7
  6
CONTINUOUS
 70
0
 71
3
 72
9
 73
5
 74
0
 42
0.0000001
 43
0.0000001
 44
0.0000000001
 40
0.0
 40
0.0
 40
0.0
 40
0.0
 40
0.2790951709
 40
1.0
 40
1.0
 40
1.0
 40
1.0
 10
805.1209647534
 20
219.2406333187
 30
0.0
 10
805.1209647534
 20
219.0506197419
 30
0.0
 10
805.0837621711
 20
218.3731763376
 30
0.0
 10
804.8768674335
 20
217.6845527636
 30
0.0
 10
804.5919912212
 20
217.2848822773
 30
0.0
  0
SPLINE
  5
2F4
100
AcDbEntity
  8
0
100
AcDbSpline
 62
7
  6
CONTINUOUS
 70
0
 71
3
 72
8
 73
4
 74
0
 42
0.0000001
 43
0.0000001
 44
0.0000000001
 40
0.0
 40
0.0
 40
0.0
 40
0.0
 40
1.0
 40
1.0
 40
1.0
 40
1.0
 10
804.4574864442
 20
217.115022115
 30
0.0
 10
804.3217522983
 20
216.9607388735
 30
0.0
 10
804.1598271022
 20
216.8255278357
 30
0.0
 10
803.9818065951
 20
216.7228839076
 30
0.0
  0
SPLINE
  5
2F5
100
AcDbEntity
  8
0
100
AcDbSpline
 62
7
  6
CONTINUOUS
 70
0
 71
3
 72
9
 73
5
 74
0
 42
0.0000001
 43
0.0000001
 44
0.0000000001
 40
0.0
 40
0.0
 40
0.0
 40
0.0
 40
0.2245236876
 40
1.0
 40
1.0
 40
1.0
 40
1.0
 10
798.861722653
 20
940.6982284813
 30
0.0
 10
798.7728636892
 20
940.5735789159
 30
0.0
 10
798.4356285095
 20
939.976086867
 30
0.0
 10
798.332703155
 20
939.2711566704
 30
0.0
 10
798.332703155
 20
938.7424384257
 30
0.0
  0
SPLINE
  5
2F6
100
AcDbEntity
  8
0
100
AcDbSpline
 62
7
  6
CONTINUOUS
 70
0
 71
3
 72
8
 73
4
 74
0
 42
0.0000001
 43
0.0000001
 44
0.0000000001
 40
0.0
 40
0.0
 40
0.0
 40
0.0
 40
1.0
 40
1.0
 40
1.0
 40
1.0
 10
798.4819158897
 20
940.6886459916
 30
0.0
 10
798.6598602757
 20
940.7912460294
 30
0.0
 10
798.8578662471
 20
940.8636441363
 30
0.0
 10
799.0592604682
 20
940.9040339858
 30
0.0
  0
SPLINE
  5
2F7
100
AcDbEntity
  8
0
100
AcDbSpline
 62
7
  6
CONTINUOUS
 70
0
 71
3
 72
9
 73
5
 74
0
 42
0.0000001
 43
0.0000001
 44
0.0000000001
 40
0.0
 40
0.0
 40
0.0
 40
0.0
 40
0.2245627712
 40
1.0
 40
1.0
 40
1.0
 40
1.0
 10
799.2767330348
 20
940.9359386337
 30
0.0
 10
799.4276337616
 20
940.9502716037
 30
0.0
 10
800.106775228
 20
940.9442511577
 30
0.0
 10
800.7624725997
 20
940.6851223109
 30
0.0
 10
801.2166565595
 20
940.4249576771
 30
0.0
  0
SPLINE
  5
2F8
100
AcDbEntity
  8
0
100
AcDbSpline
 62
7
  6
CONTINUOUS
 70
0
 71
3
 72
9
 73
5
 74
0
 42
0.0000001
 43
0.0000001
 44
0.0000000001
 40
0.0
 40
0.0
 40
0.0
 40
0.0
 40
0.4997026048
 40
1.0
 40
1.0
 40
1.0
 40
1.0
 10
801.2166565595
 20
940.4249576771
 30
0.0
 10
802.3749859296
 20
939.761446054
 30
0.0
 10
804.2062619697
 20
937.6538177412
 30
0.0
 10
805.1209647534
 20
935.0167434465
 30
0.0
 10
805.1209647534
 20
933.680248307
 30
0.0
  0
SPLINE
  5
2F9
100
AcDbEntity
  8
0
100
AcDbSpline
 62
7
  6
CONTINUOUS
 70
0
 71
3
 72
10
 73
6
 74
0
 42
0.0000001
 43
0.0000001
 44
0.0000000001
 40
0.0
 40
0.0
 40
0.0
 40
0.0
 40
0.2633683871
 40
0.5513276631
 40
1.0
 40
1.0
 40
1.0
 40
1.0
 10
425.7564941793
 20
1452.7657450029
 30
0.0
 10
425.7564941793
 20
1451.7258200744
 30
0.0
 10
426.2969943062
 20
1449.5315858812
 30
0.0
 10
428.2090611068
 20
1446.1997449649
 30
0.0
 10
431.0150253844
 20
1443.9623395725
 30
0.0
 10
432.7701736119
 20
1444.2032746048
 30
0.0
  0
SPLINE
  5
2FA
100
AcDbEntity
  8
0
100
AcDbSpline
 62
7
  6
CONTINUOUS
 70
0
 71
3
 72
9
 73
5
 74
0
 42
0.0000001
 43
0.0000001
 44
0.0000000001
 40
0.0
 40
0.0
 40
0.0
 40
0.0
 40
0.2245236876
 40
1.0
 40
1.0
 40
1.0
 40
1.0
 10
798.861722653
 20
512.0344594883
 30
0.0
 10
798.7728636892
 20
511.9098099229
 30
0.0
 10
798.4356285095
 20
511.312317874
 30
0.0
 10
798.332703155
 20
510.6073876773
 30
0.0
 10
798.332703155
 20
510.0786694327
 30
0.0
  0
SPLINE
  5
2FB
100
AcDbEntity
  8
0
100
AcDbSpline
 62
7
  6
CONTINUOUS
 70
0
 71
3
 72
8
 73
4
 74
0
 42
0.0000001
 43
0.0000001
 44
0.0000000001
 40
0.0
 40
0.0
 40
0.0
 40
0.0
 40
1.0
 40
1.0
 40
1.0
 40
1.0
 10
798.4819158897
 20
512.0248769985
 30
0.0
 10
798.6598602757
 20
512.1274770363
 30
0.0
 10
798.8578662471
 20
512.1998751433
 30
0.0
 10
799.0592604682
 20
512.2402649927
 30
0.0
  0
SPLINE
  5
2FC
100
AcDbEntity
  8
0
100
AcDbSpline
 62
7
  6
CONTINUOUS
 70
0
 71
3
 72
9
 73
5
 74
0
 42
0.0000001
 43
0.0000001
 44
0.0000000001
 40
0.0
 40
0.0
 40
0.0
 40
0.0
 40
0.2245627712
 40
1.0
 40
1.0
 40
1.0
 40
1.0
 10
799.2767330348
 20
512.2721696407
 30
0.0
 10
799.4276337616
 20
512.2865026107
 30
0.0
 10
800.106775228
 20
512.2804821646
 30
0.0
 10
800.7624725997
 20
512.0213533179
 30
0.0
 10
801.2166565595
 20
511.7611886841
 30
0.0
  0
SPLINE
  5
2FD
100
AcDbEntity
  8
0
100
AcDbSpline
 62
7
  6
CONTINUOUS
 70
0
 71
3
 72
9
 73
5
 74
0
 42
0.0000001
 43
0.0000001
 44
0.0000000001
 40
0.0
 40
0.0
 40
0.0
 40
0.0
 40
0.4997026048
 40
1.0
 40
1.0
 40
1.0
 40
1.0
 10
801.2166565595
 20
511.7611886841
 30
0.0
 10
802.3749859296
 20
511.097677061
 30
0.0
 10
804.2062619697
 20
508.9900487482
 30
0.0
 10
805.1209647534
 20
506.3529744534
 30
0.0
 10
805.1209647534
 20
505.016479314
 30
0.0
  0
SPLINE
  5
2FE
100
AcDbEntity
  8
0
100
AcDbSpline
 62
7
  6
CONTINUOUS
 70
0
 71
3
 72
9
 73
5
 74
0
 42
0.0000001
 43
0.0000001
 44
0.0000000001
 40
0.0
 40
0.0
 40
0.0
 40
0.0
 40
0.2245236876
 40
1.0
 40
1.0
 40
1.0
 40
1.0
 10
798.861722653
 20
1226.4740744767
 30
0.0
 10
798.7728636892
 20
1226.3494249113
 30
0.0
 10
798.4356285095
 20
1225.7519328623
 30
0.0
 10
798.332703155
 20
1225.0470026657
 30
0.0
 10
798.332703155
 20
1224.5182844211
 30
0.0
  0
SPLINE
  5
2FF
100
AcDbEntity
  8
0
100
AcDbSpline
 62
7
  6
CONTINUOUS
 70
0
 71
3
 72
8
 73
4
 74
0
 42
0.0000001
 43
0.0000001
 44
0.0000000001
 40
0.0
 40
0.0
 40
0.0
 40
0.0
 40
1.0
 40
1.0
 40
1.0
 40
1.0
 10
798.4819158897
 20
1226.4644919869
 30
0.0
 10
798.6598602757
 20
1226.5670920247
 30
0.0
 10
798.8578662471
 20
1226.6394901316
 30
0.0
 10
799.0592604682
 20
1226.6798799811
 30
0.0
  0
SPLINE
  5
300
100
AcDbEntity
  8
0
100
AcDbSpline
 62
7
  6
CONTINUOUS
 70
0
 71
3
 72
9
 73
5
 74
0
 42
0.0000001
 43
0.0000001
 44
0.0000000001
 40
0.0
 40
0.0
 40
0.0
 40
0.0
 40
0.2245627712
 40
1.0
 40
1.0
 40
1.0
 40
1.0
 10
799.2767330348
 20
1226.7117846291
 30
0.0
 10
799.4276337616
 20
1226.726117599
 30
0.0
 10
800.106775228
 20
1226.720097153
 30
0.0
 10
800.7624725997
 20
1226.4609683063
 30
0.0
 10
801.2166565595
 20
1226.2008036725
 30
0.0
  0
SPLINE
  5
301
100
AcDbEntity
  8
0
100
AcDbSpline
 62
7
  6
CONTINUOUS
 70
0
 71
3
 72
9
 73
5
 74
0
 42
0.0000001
 43
0.0000001
 44
0.0000000001
 40
0.0
 40
0.0
 40
0.0
 40
0.0
 40
0.4997026048
 40
1.0
 40
1.0
 40
1.0
 40
1.0
 10
801.2166565595
 20
1226.2008036725
 30
0.0
 10
802.3749859296
 20
1225.5372920493
 30
0.0
 10
804.2062619697
 20
1223.4296637365
 30
0.0
 10
805.1209647534
 20
1220.7925894418
 30
0.0
 10
805.1209647534
 20
1219.4560943024
 30
0.0
  0
SPLINE
  5
302
100
AcDbEntity
  8
0
100
AcDbSpline
 62
7
  6
CONTINUOUS
 70
0
 71
3
 72
8
 73
4
 74
0
 42
0.0000001
 43
0.0000001
 44
0.0000000001
 40
0.0
 40
0.0
 40
0.0
 40
0.0
 40
1.0
 40
1.0
 40
1.0
 40
1.0
 10
419.1667730037
 20
1511.2592442775
 30
0.0
 10
419.2799766345
 20
1511.4014775629
 30
0.0
 10
419.4256713921
 20
1511.5559733835
 30
0.0
 10
419.6053861128
 20
1511.583322765
 30
0.0
  0
SPLINE
  5
303
100
AcDbEntity
  8
0
100
AcDbSpline
 62
7
  6
CONTINUOUS
 70
0
 71
3
 72
9
 73
5
 74
0
 42
0.0000001
 43
0.0000001
 44
0.0000000001
 40
0.0
 40
0.0
 40
0.0
 40
0.0
 40
0.7245450559
 40
1.0
 40
1.0
 40
1.0
 40
1.0
 10
763.6536785014
 20
196.7451882197
 30
0.0
 10
763.6536784837
 20
196.4423396833
 30
0.0
 10
763.4948619543
 20
196.0183751425
 30
0.0
 10
763.2245345624
 20
195.7006036528
 30
0.0
 10
763.1443481496
 20
195.6179815723
 30
0.0
  0
SPLINE
  5
304
100
AcDbEntity
  8
0
100
AcDbSpline
 62
7
  6
CONTINUOUS
 70
0
 71
3
 72
8
 73
4
 74
0
 42
0.0000001
 43
0.0000001
 44
0.0000000001
 40
0.0
 40
0.0
 40
0.0
 40
0.0
 40
1.0
 40
1.0
 40
1.0
 40
1.0
 10
763.1443481496
 20
195.6179815723
 30
0.0
 10
763.0192157745
 20
195.4890482927
 30
0.0
 10
762.8794272501
 20
195.3735550284
 30
0.0
 10
762.7320577193
 20
195.2707731073
 30
0.0
  0
SPLINE
  5
305
100
AcDbEntity
  8
0
100
AcDbSpline
 62
7
  6
CONTINUOUS
 70
0
 71
3
 72
8
 73
4
 74
0
 42
0.0000001
 43
0.0000001
 44
0.0000000001
 40
0.0
 40
0.0
 40
0.0
 40
0.0
 40
1.0
 40
1.0
 40
1.0
 40
1.0
 10
412.6966088382
 20
1467.5084838663
 30
0.0
 10
412.4875138919
 20
1467.3152908161
 30
0.0
 10
412.3167210617
 20
1467.0283123608
 30
0.0
 10
412.3166136996
 20
1466.7436296608
 30
0.0
  0
SPLINE
  5
306
100
AcDbEntity
  8
0
100
AcDbSpline
 62
7
  6
CONTINUOUS
 70
0
 71
3
 72
8
 73
4
 74
0
 42
0.0000001
 43
0.0000001
 44
0.0000000001
 40
0.0
 40
0.0
 40
0.0
 40
0.0
 40
1.0
 40
1.0
 40
1.0
 40
1.0
 10
763.2562688206
 20
1307.7018650602
 30
0.0
 10
763.1053999513
 20
1307.8819548364
 30
0.0
 10
762.9247602822
 20
1308.0385892723
 30
0.0
 10
762.7320644581
 20
1308.1729844456
 30
0.0
  0
SPLINE
  5
307
100
AcDbEntity
  8
0
100
AcDbSpline
 62
7
  6
CONTINUOUS
 70
0
 71
3
 72
8
 73
4
 74
0
 42
0.0000001
 43
0.0000001
 44
0.0000000001
 40
0.0
 40
0.0
 40
0.0
 40
0.0
 40
1.0
 40
1.0
 40
1.0
 40
1.0
 10
475.1797667957
 20
1474.0191484517
 30
0.0
 10
475.0288979264
 20
1474.1992382279
 30
0.0
 10
474.8482582573
 20
1474.3558726639
 30
0.0
 10
474.6555624332
 20
1474.4902678372
 30
0.0
  0
SPLINE
  5
308
100
AcDbEntity
  8
0
100
AcDbSpline
 62
7
  6
CONTINUOUS
 70
0
 71
3
 72
9
 73
5
 74
0
 42
0.0000001
 43
0.0000001
 44
0.0000000001
 40
0.0
 40
0.0
 40
0.0
 40
0.0
 40
0.2713297964
 40
1.0
 40
1.0
 40
1.0
 40
1.0
 10
421.6894481847
 20
1511.4021540142
 30
0.0
 10
421.5207250525
 20
1511.4992256211
 30
0.0
 10
420.8845237505
 20
1511.8185472789
 30
0.0
 10
420.0600099648
 20
1511.8589887447
 30
0.0
 10
419.5936266464
 20
1511.6228548094
 30
0.0
  0
SPLINE
  5
309
100
AcDbEntity
  8
0
100
AcDbSpline
 62
7
  6
CONTINUOUS
 70
0
 71
3
 72
8
 73
4
 74
0
 42
0.0000001
 43
0.0000001
 44
0.0000000001
 40
0.0
 40
0.0
 40
0.0
 40
0.0
 40
1.0
 40
1.0
 40
1.0
 40
1.0
 10
416.2188573073
 20
1441.9508587322
 30
0.0
 10
416.6093267818
 20
1441.2750094013
 30
0.0
 10
417.0850492654
 20
1440.6392457082
 30
0.0
 10
417.6377218837
 20
1440.0880726812
 30
0.0
  0
SPLINE
  5
30A
100
AcDbEntity
  8
0
100
AcDbSpline
 62
7
  6
CONTINUOUS
 70
0
 71
3
 72
9
 73
5
 74
0
 42
0.0000001
 43
0.0000001
 44
0.0000000001
 40
0.0
 40
0.0
 40
0.0
 40
0.0
 40
0.2700665936
 40
1.0
 40
1.0
 40
1.0
 40
1.0
 10
821.0098693969
 20
166.6358063151
 30
0.0
 10
821.0098423676
 20
166.4384197895
 30
0.0
 10
820.9680140784
 20
165.7143071275
 30
0.0
 10
820.5810563882
 20
164.9665571517
 30
0.0
 10
820.133421337
 20
164.6763173267
 30
0.0
  0
SPLINE
  5
30B
100
AcDbEntity
  8
0
100
AcDbSpline
 62
7
  6
CONTINUOUS
 70
0
 71
3
 72
11
 73
7
 74
0
 42
0.0000001
 43
0.0000001
 44
0.0000000001
 40
0.0
 40
0.0
 40
0.0
 40
0.0
 40
0.1835917426
 40
0.4352068886
 40
0.7283955701
 40
1.0
 40
1.0
 40
1.0
 40
1.0
 10
432.5419870348
 20
1443.8707269367
 30
0.0
 10
431.8619324827
 20
1443.4786177822
 30
0.0
 10
429.7428067898
 20
1443.6031399598
 30
0.0
 10
427.275912159
 20
1445.6322639535
 30
0.0
 10
425.3308434893
 20
1448.577063458
 30
0.0
 10
424.6958384235
 20
1450.9920560245
 30
0.0
 10
424.6958384235
 20
1452.1533787721
 30
0.0
  0
SPLINE
  5
30C
100
AcDbEntity
  8
0
100
AcDbSpline
 62
7
  6
CONTINUOUS
 70
0
 71
3
 72
8
 73
4
 74
0
 42
0.0000001
 43
0.0000001
 44
0.0000000001
 40
0.0
 40
0.0
 40
0.0
 40
0.0
 40
1.0
 40
1.0
 40
1.0
 40
1.0
 10
424.6958384235
 20
1452.1533787721
 30
0.0
 10
424.6958384235
 20
1452.5389070538
 30
0.0
 10
424.7327948978
 20
1452.9277345387
 30
0.0
 10
424.8199257145
 20
1453.3032878329
 30
0.0
  0
SPLINE
  5
30D
100
AcDbEntity
  8
0
100
AcDbSpline
 62
7
  6
CONTINUOUS
 70
0
 71
3
 72
9
 73
5
 74
0
 42
0.0000001
 43
0.0000001
 44
0.0000000001
 40
0.0
 40
0.0
 40
0.0
 40
0.0
 40
0.2787808137
 40
1.0
 40
1.0
 40
1.0
 40
1.0
 10
424.8199257145
 20
1453.3032878329
 30
0.0
 10
424.8667789636
 20
1453.5052358085
 30
0.0
 10
425.08133386
 20
1454.2149856241
 30
0.0
 10
425.5774906922
 20
1454.8610047458
 30
0.0
 10
426.0421162392
 20
1455.1289007988
 30
0.0
  0
SPLINE
  5
30E
100
AcDbEntity
  8
0
100
AcDbSpline
 62
7
  6
CONTINUOUS
 70
0
 71
3
 72
11
 73
7
 74
0
 42
0.0000001
 43
0.0000001
 44
0.0000000001
 40
0.0
 40
0.0
 40
0.0
 40
0.0
 40
0.1835917434
 40
0.4352068896
 40
0.7283955706
 40
1.0
 40
1.0
 40
1.0
 40
1.0
 10
803.9818065951
 20
216.7228839076
 30
0.0
 10
803.4063758168
 20
216.3910992365
 30
0.0
 10
801.6132694561
 20
216.4964641485
 30
0.0
 10
799.5258970602
 20
218.2134152118
 30
0.0
 10
797.8800697137
 20
220.7051686348
 30
0.0
 10
797.3427577314
 20
222.748623883
 30
0.0
 10
797.3427577314
 20
223.7312815921
 30
0.0
  0
SPLINE
  5
30F
100
AcDbEntity
  8
0
100
AcDbSpline
 62
7
  6
CONTINUOUS
 70
0
 71
3
 72
9
 73
5
 74
0
 42
0.0000001
 43
0.0000001
 44
0.0000000001
 40
0.0
 40
0.0
 40
0.0
 40
0.0
 40
0.2338288157
 40
1.0
 40
1.0
 40
1.0
 40
1.0
 10
806.1612765116
 20
1238.764658323
 30
0.0
 10
806.3738137239
 20
1238.6419526822
 30
0.0
 10
807.3581508258
 20
1238.2597494767
 30
0.0
 10
808.4974263488
 20
1238.2883474474
 30
0.0
 10
809.2538430921
 20
1238.5612373995
 30
0.0
  0
SPLINE
  5
310
100
AcDbEntity
  8
0
100
AcDbSpline
 62
7
  6
CONTINUOUS
 70
0
 71
3
 72
8
 73
4
 74
0
 42
0.0000001
 43
0.0000001
 44
0.0000000001
 40
0.0
 40
0.0
 40
0.0
 40
0.0
 40
1.0
 40
1.0
 40
1.0
 40
1.0
 10
797.3427577314
 20
1223.9467425759
 30
0.0
 10
797.3427577314
 20
1224.3059630168
 30
0.0
 10
797.3805900079
 20
1224.6691860261
 30
0.0
 10
797.4716864195
 20
1225.0166637506
 30
0.0
  0
SPLINE
  5
311
100
AcDbEntity
  8
0
100
AcDbSpline
 62
7
  6
CONTINUOUS
 70
0
 71
3
 72
9
 73
5
 74
0
 42
0.0000001
 43
0.0000001
 44
0.0000000001
 40
0.0
 40
0.0
 40
0.0
 40
0.0
 40
0.2768213698
 40
1.0
 40
1.0
 40
1.0
 40
1.0
 10
797.4716864195
 20
1225.0166637506
 30
0.0
 10
797.5135954642
 20
1225.1765214138
 30
0.0
 10
797.7020562447
 20
1225.7415339891
 30
0.0
 10
798.1079017438
 20
1226.2488410953
 30
0.0
 10
798.4819158897
 20
1226.4644919869
 30
0.0
  0
SPLINE
  5
312
100
AcDbEntity
  8
0
100
AcDbSpline
 62
7
  6
CONTINUOUS
 70
0
 71
3
 72
8
 73
4
 74
0
 42
0.0000001
 43
0.0000001
 44
0.0000000001
 40
0.0
 40
0.0
 40
0.0
 40
0.0
 40
1.0
 40
1.0
 40
1.0
 40
1.0
 10
797.3427577314
 20
509.5071275875
 30
0.0
 10
797.3427577314
 20
509.8663480284
 30
0.0
 10
797.3805900079
 20
510.2295710378
 30
0.0
 10
797.4716864195
 20
510.5770487622
 30
0.0
  0
SPLINE
  5
313
100
AcDbEntity
  8
0
100
AcDbSpline
 62
7
  6
CONTINUOUS
 70
0
 71
3
 72
9
 73
5
 74
0
 42
0.0000001
 43
0.0000001
 44
0.0000000001
 40
0.0
 40
0.0
 40
0.0
 40
0.0
 40
0.2768213698
 40
1.0
 40
1.0
 40
1.0
 40
1.0
 10
797.4716864195
 20
510.5770487622
 30
0.0
 10
797.5135954642
 20
510.7369064254
 30
0.0
 10
797.7020562447
 20
511.3019190007
 30
0.0
 10
798.1079017438
 20
511.8092261069
 30
0.0
 10
798.4819158897
 20
512.0248769985
 30
0.0
  0
SPLINE
  5
314
100
AcDbEntity
  8
0
100
AcDbSpline
 62
7
  6
CONTINUOUS
 70
0
 71
3
 72
8
 73
4
 74
0
 42
0.0000001
 43
0.0000001
 44
0.0000000001
 40
0.0
 40
0.0
 40
0.0
 40
0.0
 40
1.0
 40
1.0
 40
1.0
 40
1.0
 10
797.3427577314
 20
938.1708965805
 30
0.0
 10
797.3427577314
 20
938.5301170215
 30
0.0
 10
797.3805900079
 20
938.8933400308
 30
0.0
 10
797.4716864195
 20
939.2408177552
 30
0.0
  0
SPLINE
  5
315
100
AcDbEntity
  8
0
100
AcDbSpline
 62
7
  6
CONTINUOUS
 70
0
 71
3
 72
9
 73
5
 74
0
 42
0.0000001
 43
0.0000001
 44
0.0000000001
 40
0.0
 40
0.0
 40
0.0
 40
0.0
 40
0.2768213698
 40
1.0
 40
1.0
 40
1.0
 40
1.0
 10
797.4716864195
 20
939.2408177552
 30
0.0
 10
797.5135954642
 20
939.4006754185
 30
0.0
 10
797.7020562447
 20
939.9656879937
 30
0.0
 10
798.1079017438
 20
940.4729950999
 30
0.0
 10
798.4819158897
 20
940.6886459916
 30
0.0
  0
SPLINE
  5
316
100
AcDbEntity
  8
0
100
AcDbSpline
 62
7
  6
CONTINUOUS
 70
0
 71
3
 72
8
 73
4
 74
0
 42
0.0000001
 43
0.0000001
 44
0.0000000001
 40
0.0
 40
0.0
 40
0.0
 40
0.0
 40
1.0
 40
1.0
 40
1.0
 40
1.0
 10
804.9544458471
 20
169.3203873295
 30
0.0
 10
807.1744017189
 20
168.0448448119
 30
0.0
 10
809.4090285346
 20
166.7949011593
 30
0.0
 10
811.6263388875
 20
165.5147653907
 30
0.0
  0
SPLINE
  5
317
100
AcDbEntity
  8
0
100
AcDbSpline
 62
7
  6
CONTINUOUS
 70
0
 71
3
 72
8
 73
4
 74
0
 42
0.0000001
 43
0.0000001
 44
0.0000000001
 40
0.0
 40
0.0
 40
0.0
 40
0.0
 40
1.0
 40
1.0
 40
1.0
 40
1.0
 10
797.3427577314
 20
223.7312815921
 30
0.0
 10
797.3427577314
 20
224.0905020331
 30
0.0
 10
797.3805900079
 20
224.4537250424
 30
0.0
 10
797.4716864195
 20
224.8012027668
 30
0.0
  0
SPLINE
  5
318
100
AcDbEntity
  8
0
100
AcDbSpline
 62
7
  6
CONTINUOUS
 70
0
 71
3
 72
9
 73
5
 74
0
 42
0.0000001
 43
0.0000001
 44
0.0000000001
 40
0.0
 40
0.0
 40
0.0
 40
0.0
 40
0.2768213698
 40
1.0
 40
1.0
 40
1.0
 40
1.0
 10
797.4716864195
 20
224.8012027668
 30
0.0
 10
797.5135954642
 20
224.9610604301
 30
0.0
 10
797.7020562447
 20
225.5260730054
 30
0.0
 10
798.1079017438
 20
226.0333801116
 30
0.0
 10
798.4819158897
 20
226.2490310032
 30
0.0
  0
SPLINE
  5
319
100
AcDbEntity
  8
0
100
AcDbSpline
 62
7
  6
CONTINUOUS
 70
0
 71
3
 72
8
 73
4
 74
0
 42
0.0000001
 43
0.0000001
 44
0.0000000001
 40
0.0
 40
0.0
 40
0.0
 40
0.0
 40
1.0
 40
1.0
 40
1.0
 40
1.0
 10
762.4821806219
 20
198.3781648352
 30
0.0
 10
762.6323470206
 20
198.2914681858
 30
0.0
 10
762.776982804
 20
198.1938673354
 30
0.0
 10
762.9116092011
 20
198.0845879253
 30
0.0
  0
SPLINE
  5
31A
100
AcDbEntity
  8
0
100
AcDbSpline
 62
7
  6
CONTINUOUS
 70
0
 71
3
 72
9
 73
5
 74
0
 42
0.0000001
 43
0.0000001
 44
0.0000000001
 40
0.0
 40
0.0
 40
0.0
 40
0.0
 40
0.2837212947
 40
1.0
 40
1.0
 40
1.0
 40
1.0
 10
762.9116092011
 20
198.0845879253
 30
0.0
 10
763.0260601739
 20
197.9916853812
 30
0.0
 10
763.4052930918
 20
197.6401509675
 30
0.0
 10
763.653678523
 20
197.1173390988
 30
0.0
 10
763.6536785014
 20
196.7451882197
 30
0.0
  0
SPLINE
  5
31B
100
AcDbEntity
  8
0
100
AcDbSpline
 62
7
  6
CONTINUOUS
 70
0
 71
3
 72
11
 73
7
 74
0
 42
0.0000001
 43
0.0000001
 44
0.0000000001
 40
0.0
 40
0.0
 40
0.0
 40
0.0
 40
0.1835917434
 40
0.4352068896
 40
0.7283955706
 40
1.0
 40
1.0
 40
1.0
 40
1.0
 10
803.9818065951
 20
931.162498896
 30
0.0
 10
803.4063758168
 20
930.8307142249
 30
0.0
 10
801.6132694561
 20
930.9360791369
 30
0.0
 10
799.5258970602
 20
932.6530302002
 30
0.0
 10
797.8800697137
 20
935.1447836232
 30
0.0
 10
797.3427577314
 20
937.1882388714
 30
0.0
 10
797.3427577314
 20
938.1708965805
 30
0.0
  0
SPLINE
  5
31C
100
AcDbEntity
  8
0
100
AcDbSpline
 62
7
  6
CONTINUOUS
 70
0
 71
3
 72
11
 73
7
 74
0
 42
0.0000001
 43
0.0000001
 44
0.0000000001
 40
0.0
 40
0.0
 40
0.0
 40
0.0
 40
0.1835917434
 40
0.4352068896
 40
0.7283955706
 40
1.0
 40
1.0
 40
1.0
 40
1.0
 10
803.9818065951
 20
502.498729903
 30
0.0
 10
803.4063758168
 20
502.1669452318
 30
0.0
 10
801.6132694561
 20
502.2723101438
 30
0.0
 10
799.5258970602
 20
503.9892612072
 30
0.0
 10
797.8800697137
 20
506.4810146302
 30
0.0
 10
797.3427577314
 20
508.5244698784
 30
0.0
 10
797.3427577314
 20
509.5071275875
 30
0.0
  0
SPLINE
  5
31D
100
AcDbEntity
  8
0
100
AcDbSpline
 62
7
  6
CONTINUOUS
 70
0
 71
3
 72
11
 73
7
 74
0
 42
0.0000001
 43
0.0000001
 44
0.0000000001
 40
0.0
 40
0.0
 40
0.0
 40
0.0
 40
0.1835917434
 40
0.4352068896
 40
0.7283955706
 40
1.0
 40
1.0
 40
1.0
 40
1.0
 10
803.9818065951
 20
1216.9383448914
 30
0.0
 10
803.4063758168
 20
1216.6065602202
 30
0.0
 10
801.6132694561
 20
1216.7119251322
 30
0.0
 10
799.5258970602
 20
1218.4288761956
 30
0.0
 10
797.8800697137
 20
1220.9206296185
 30
0.0
 10
797.3427577314
 20
1222.9640848668
 30
0.0
 10
797.3427577314
 20
1223.9467425759
 30
0.0
  0
SPLINE
  5
31E
100
AcDbEntity
  8
0
100
AcDbSpline
 62
7
  6
CONTINUOUS
 70
0
 71
3
 72
8
 73
4
 74
0
 42
0.0000001
 43
0.0000001
 44
0.0000000001
 40
0.0
 40
0.0
 40
0.0
 40
0.0
 40
1.0
 40
1.0
 40
1.0
 40
1.0
 10
415.2457975808
 20
1441.3502126972
 30
0.0
 10
414.8716574597
 20
1441.992553946
 30
0.0
 10
414.5681293996
 20
1442.6837109961
 30
0.0
 10
414.3636188429
 20
1443.3983847274
 30
0.0
  0
SPLINE
  5
31F
100
AcDbEntity
  8
0
100
AcDbSpline
 62
7
  6
CONTINUOUS
 70
0
 71
3
 72
9
 73
5
 74
0
 42
0.0000001
 43
0.0000001
 44
0.0000000001
 40
0.0
 40
0.0
 40
0.0
 40
0.0
 40
0.2768097453
 40
1.0
 40
1.0
 40
1.0
 40
1.0
 10
414.2183637444
 20
1446.2837182452
 30
0.0
 10
414.2602849684
 20
1446.4435114531
 30
0.0
 10
414.4487827297
 20
1447.0083150293
 30
0.0
 10
414.8545431459
 20
1447.5153948717
 30
0.0
 10
415.2284448922
 20
1447.7309809555
 30
0.0
  0
SPLINE
  5
320
100
AcDbEntity
  8
0
100
AcDbSpline
 62
7
  6
CONTINUOUS
 70
0
 71
3
 72
9
 73
5
 74
0
 42
0.0000001
 43
0.0000001
 44
0.0000000001
 40
0.0
 40
0.0
 40
0.0
 40
0.0
 40
0.2208390513
 40
1.0
 40
1.0
 40
1.0
 40
1.0
 10
412.3166136996
 20
1466.7436296608
 30
0.0
 10
412.3165778079
 20
1466.6484586583
 30
0.0
 10
412.3935106842
 20
1466.2145155836
 30
0.0
 10
412.758178573
 20
1465.8909045356
 30
0.0
 10
413.0489750012
 20
1465.7230169377
 30
0.0
  0
LINE
  5
321
100
AcDbEntity
  8
0
100
AcDbLine
 62
7
  6
CONTINUOUS
 10
820.133421337
 20
1280.3763280191
 11
819.8073695548
 21
1280.1941971552
  0
SPLINE
  5
322
100
AcDbEntity
  8
0
100
AcDbSpline
 62
7
  6
CONTINUOUS
 70
0
 71
3
 72
9
 73
5
 74
0
 42
0.0000001
 43
0.0000001
 44
0.0000000001
 40
0.0
 40
0.0
 40
0.0
 40
0.0
 40
0.7673519341
 40
1.0
 40
1.0
 40
1.0
 40
1.0
 10
820.133421337
 20
1280.3763280191
 30
0.0
 10
820.3618489448
 20
1280.4919170876
 30
0.0
 10
820.6549321021
 20
1280.5774035783
 30
0.0
 10
820.9348740359
 20
1280.8799194252
 30
0.0
 10
821.0098009146
 20
1280.8596611965
 30
0.0
  0
SPLINE
  5
323
100
AcDbEntity
  8
0
100
AcDbSpline
 62
7
  6
CONTINUOUS
 70
0
 71
3
 72
8
 73
4
 74
0
 42
0.0000001
 43
0.0000001
 44
0.0000000001
 40
0.0
 40
0.0
 40
0.0
 40
0.0
 40
1.0
 40
1.0
 40
1.0
 40
1.0
 10
356.3923882736
 20
414.7013906587
 30
0.0
 10
356.5818123043
 20
414.8106096857
 30
0.0
 10
356.7902522711
 20
414.890981384
 30
0.0
 10
357.0032324567
 20
414.9404758261
 30
0.0
  0
SPLINE
  5
324
100
AcDbEntity
  8
0
100
AcDbSpline
 62
7
  6
CONTINUOUS
 70
0
 71
3
 72
9
 73
5
 74
0
 42
0.0000001
 43
0.0000001
 44
0.0000000001
 40
0.0
 40
0.0
 40
0.0
 40
0.0
 40
0.223710445
 40
1.0
 40
1.0
 40
1.0
 40
1.0
 10
357.2311756457
 20
414.9821095992
 30
0.0
 10
357.4153266619
 20
415.00693038
 30
0.0
 10
358.2516917817
 20
415.0264476261
 30
0.0
 10
359.0648515051
 20
414.7102522542
 30
0.0
 10
359.6243545008
 20
414.3897590035
 30
0.0
  0
SPLINE
  5
325
100
AcDbEntity
  8
0
100
AcDbSpline
 62
7
  6
CONTINUOUS
 70
0
 71
3
 72
9
 73
5
 74
0
 42
0.0000001
 43
0.0000001
 44
0.0000000001
 40
0.0
 40
0.0
 40
0.0
 40
0.0
 40
0.4997026044
 40
1.0
 40
1.0
 40
1.0
 40
1.0
 10
359.6243545008
 20
414.3897590035
 30
0.0
 10
360.9932892055
 20
413.6056088973
 30
0.0
 10
363.1575245117
 20
411.114775427
 30
0.0
 10
364.2385368849
 20
407.9982330796
 30
0.0
 10
364.2385368849
 20
406.4187388233
 30
0.0
  0
SPLINE
  5
326
100
AcDbEntity
  8
0
100
AcDbSpline
 62
7
  6
CONTINUOUS
 70
0
 71
3
 72
8
 73
4
 74
0
 42
0.0000001
 43
0.0000001
 44
0.0000000001
 40
0.0
 40
0.0
 40
0.0
 40
0.0
 40
1.0
 40
1.0
 40
1.0
 40
1.0
 10
353.1150807569
 20
1473.2416775495
 30
0.0
 10
353.2712841735
 20
1473.3347807136
 30
0.0
 10
353.4718448878
 20
1473.4234931436
 30
0.0
 10
353.6454561978
 20
1473.3693930551
 30
0.0
  0
SPLINE
  5
327
100
AcDbEntity
  8
0
100
AcDbSpline
 62
7
  6
CONTINUOUS
 70
0
 71
3
 72
8
 73
4
 74
0
 42
0.0000001
 43
0.0000001
 44
0.0000000001
 40
0.0
 40
0.0
 40
0.0
 40
0.0
 40
1.0
 40
1.0
 40
1.0
 40
1.0
 10
353.1150807569
 20
1473.2416775495
 30
0.0
 10
352.7272618091
 20
1472.9901098401
 30
0.0
 10
352.4470718216
 20
1472.5441594812
 30
0.0
 10
352.3335963448
 20
1472.096037662
 30
0.0
  0
SPLINE
  5
328
100
AcDbEntity
  8
0
100
AcDbSpline
 62
7
  6
CONTINUOUS
 70
0
 71
3
 72
8
 73
4
 74
0
 42
0.0000001
 43
0.0000001
 44
0.0000000001
 40
0.0
 40
0.0
 40
0.0
 40
0.0
 40
1.0
 40
1.0
 40
1.0
 40
1.0
 10
352.3335963448
 20
1472.096037662
 30
0.0
 10
352.2665531073
 20
1471.8312796863
 30
0.0
 10
352.2386736917
 20
1471.555330281
 30
0.0
 10
352.2386330324
 20
1471.2822156901
 30
0.0
  0
SPLINE
  5
329
100
AcDbEntity
  8
0
100
AcDbSpline
 62
7
  6
CONTINUOUS
 70
0
 71
3
 72
9
 73
5
 74
0
 42
0.0000001
 43
0.0000001
 44
0.0000000001
 40
0.0
 40
0.0
 40
0.0
 40
0.0
 40
0.2236097662
 40
1.0
 40
1.0
 40
1.0
 40
1.0
 10
356.7921544444
 20
414.7306404374
 30
0.0
 10
356.6773831385
 20
414.5823622246
 30
0.0
 10
356.2386761801
 20
413.8605097044
 30
0.0
 10
356.1067662138
 20
412.9892735832
 30
0.0
 10
356.1067662138
 20
412.3382348629
 30
0.0
  0
SPLINE
  5
32A
100
AcDbEntity
  8
0
100
AcDbSpline
 62
7
  6
CONTINUOUS
 70
0
 71
3
 72
8
 73
4
 74
0
 42
0.0000001
 43
0.0000001
 44
0.0000000001
 40
0.0
 40
0.0
 40
0.0
 40
0.0
 40
1.0
 40
1.0
 40
1.0
 40
1.0
 10
356.3923882736
 20
1129.1410056471
 30
0.0
 10
356.5818123043
 20
1129.2502246741
 30
0.0
 10
356.7902522711
 20
1129.3305963724
 30
0.0
 10
357.0032324567
 20
1129.3800908145
 30
0.0
  0
SPLINE
  5
32B
100
AcDbEntity
  8
0
100
AcDbSpline
 62
7
  6
CONTINUOUS
 70
0
 71
3
 72
9
 73
5
 74
0
 42
0.0000001
 43
0.0000001
 44
0.0000000001
 40
0.0
 40
0.0
 40
0.0
 40
0.0
 40
0.223710445
 40
1.0
 40
1.0
 40
1.0
 40
1.0
 10
357.2311756457
 20
1129.4217245876
 30
0.0
 10
357.4153266619
 20
1129.4465453684
 30
0.0
 10
358.2516917817
 20
1129.4660626145
 30
0.0
 10
359.0648515051
 20
1129.1498672426
 30
0.0
 10
359.6243545008
 20
1128.8293739919
 30
0.0
  0
SPLINE
  5
32C
100
AcDbEntity
  8
0
100
AcDbSpline
 62
7
  6
CONTINUOUS
 70
0
 71
3
 72
9
 73
5
 74
0
 42
0.0000001
 43
0.0000001
 44
0.0000000001
 40
0.0
 40
0.0
 40
0.0
 40
0.0
 40
0.4997026044
 40
1.0
 40
1.0
 40
1.0
 40
1.0
 10
359.6243545008
 20
1128.8293739919
 30
0.0
 10
360.9932892055
 20
1128.0452238857
 30
0.0
 10
363.1575245117
 20
1125.5543904154
 30
0.0
 10
364.2385368849
 20
1122.437848068
 30
0.0
 10
364.2385368849
 20
1120.8583538117
 30
0.0
  0
SPLINE
  5
32D
100
AcDbEntity
  8
0
100
AcDbSpline
 62
7
  6
CONTINUOUS
 70
0
 71
3
 72
9
 73
5
 74
0
 42
0.0000001
 43
0.0000001
 44
0.0000000001
 40
0.0
 40
0.0
 40
0.0
 40
0.0
 40
0.2236097662
 40
1.0
 40
1.0
 40
1.0
 40
1.0
 10
356.7921544444
 20
1129.1702554258
 30
0.0
 10
356.6773831385
 20
1129.021977213
 30
0.0
 10
356.2386761801
 20
1128.3001246928
 30
0.0
 10
356.1067662138
 20
1127.4288885716
 30
0.0
 10
356.1067662138
 20
1126.7778498512
 30
0.0
  0
SPLINE
  5
32E
100
AcDbEntity
  8
0
100
AcDbSpline
 62
7
  6
CONTINUOUS
 70
0
 71
3
 72
8
 73
4
 74
0
 42
0.0000001
 43
0.0000001
 44
0.0000000001
 40
0.0
 40
0.0
 40
0.0
 40
0.0
 40
1.0
 40
1.0
 40
1.0
 40
1.0
 10
356.3923882736
 20
700.4772366541
 30
0.0
 10
356.5818123043
 20
700.5864556811
 30
0.0
 10
356.7902522711
 20
700.6668273793
 30
0.0
 10
357.0032324567
 20
700.7163218215
 30
0.0
  0
SPLINE
  5
32F
100
AcDbEntity
  8
0
100
AcDbSpline
 62
7
  6
CONTINUOUS
 70
0
 71
3
 72
9
 73
5
 74
0
 42
0.0000001
 43
0.0000001
 44
0.0000000001
 40
0.0
 40
0.0
 40
0.0
 40
0.0
 40
0.223710445
 40
1.0
 40
1.0
 40
1.0
 40
1.0
 10
357.2311756457
 20
700.7579555946
 30
0.0
 10
357.4153266619
 20
700.7827763754
 30
0.0
 10
358.2516917817
 20
700.8022936215
 30
0.0
 10
359.0648515051
 20
700.4860982496
 30
0.0
 10
359.6243545008
 20
700.1656049988
 30
0.0
  0
SPLINE
  5
330
100
AcDbEntity
  8
0
100
AcDbSpline
 62
7
  6
CONTINUOUS
 70
0
 71
3
 72
9
 73
5
 74
0
 42
0.0000001
 43
0.0000001
 44
0.0000000001
 40
0.0
 40
0.0
 40
0.0
 40
0.0
 40
0.4997026044
 40
1.0
 40
1.0
 40
1.0
 40
1.0
 10
359.6243545008
 20
700.1656049988
 30
0.0
 10
360.9932892055
 20
699.3814548927
 30
0.0
 10
363.1575245117
 20
696.8906214223
 30
0.0
 10
364.2385368849
 20
693.774079075
 30
0.0
 10
364.2385368849
 20
692.1945848186
 30
0.0
  0
SPLINE
  5
331
100
AcDbEntity
  8
0
100
AcDbSpline
 62
7
  6
CONTINUOUS
 70
0
 71
3
 72
9
 73
5
 74
0
 42
0.0000001
 43
0.0000001
 44
0.0000000001
 40
0.0
 40
0.0
 40
0.0
 40
0.0
 40
0.2236097662
 40
1.0
 40
1.0
 40
1.0
 40
1.0
 10
356.7921544444
 20
700.5064864328
 30
0.0
 10
356.6773831385
 20
700.3582082199
 30
0.0
 10
356.2386761801
 20
699.6363556997
 30
0.0
 10
356.1067662138
 20
698.7651195785
 30
0.0
 10
356.1067662138
 20
698.1140808582
 30
0.0
  0
SPLINE
  5
332
100
AcDbEntity
  8
0
100
AcDbSpline
 62
7
  6
CONTINUOUS
 70
0
 71
3
 72
8
 73
4
 74
0
 42
0.0000001
 43
0.0000001
 44
0.0000000001
 40
0.0
 40
0.0
 40
0.0
 40
0.0
 40
1.0
 40
1.0
 40
1.0
 40
1.0
 10
698.5929469029
 20
1276.3299387285
 30
0.0
 10
698.4960601573
 20
1276.2623657248
 30
0.0
 10
698.4026356504
 20
1276.1893980866
 30
0.0
 10
698.3144583752
 20
1276.1107983383
 30
0.0
  0
SPLINE
  5
333
100
AcDbEntity
  8
0
100
AcDbSpline
 62
7
  6
CONTINUOUS
 70
0
 71
3
 72
8
 73
4
 74
0
 42
0.0000001
 43
0.0000001
 44
0.0000000001
 40
0.0
 40
0.0
 40
0.0
 40
0.0
 40
1.0
 40
1.0
 40
1.0
 40
1.0
 10
700.1098615868
 20
1276.9816867342
 30
0.0
 10
699.8083018891
 20
1276.9078706803
 30
0.0
 10
699.5109907457
 20
1276.8101266573
 30
0.0
 10
699.2274070703
 20
1276.6837646373
 30
0.0
  0
SPLINE
  5
334
100
AcDbEntity
  8
0
100
AcDbSpline
 62
7
  6
CONTINUOUS
 70
0
 71
3
 72
8
 73
4
 74
0
 42
0.0000001
 43
0.0000001
 44
0.0000000001
 40
0.0
 40
0.0
 40
0.0
 40
0.0
 40
1.0
 40
1.0
 40
1.0
 40
1.0
 10
699.2274070703
 20
1276.6837646373
 30
0.0
 10
699.0960744027
 20
1276.6252441278
 30
0.0
 10
698.9673179597
 20
1276.5603763632
 30
0.0
 10
698.8427999451
 20
1276.488486283
 30
0.0
  0
SPLINE
  5
335
100
AcDbEntity
  8
0
100
AcDbSpline
 62
7
  6
CONTINUOUS
 70
0
 71
3
 72
8
 73
4
 74
0
 42
0.0000001
 43
0.0000001
 44
0.0000000001
 40
0.0
 40
0.0
 40
0.0
 40
0.0
 40
1.0
 40
1.0
 40
1.0
 40
1.0
 10
356.3923882736
 20
1414.9168516425
 30
0.0
 10
356.5818123043
 20
1415.0260706695
 30
0.0
 10
356.7902522711
 20
1415.1064423677
 30
0.0
 10
357.0032324567
 20
1415.1559368098
 30
0.0
  0
SPLINE
  5
336
100
AcDbEntity
  8
0
100
AcDbSpline
 62
7
  6
CONTINUOUS
 70
0
 71
3
 72
9
 73
5
 74
0
 42
0.0000001
 43
0.0000001
 44
0.0000000001
 40
0.0
 40
0.0
 40
0.0
 40
0.0
 40
0.223710445
 40
1.0
 40
1.0
 40
1.0
 40
1.0
 10
357.2311756457
 20
1415.197570583
 30
0.0
 10
357.4153266619
 20
1415.2223913637
 30
0.0
 10
358.2516917817
 20
1415.2419086098
 30
0.0
 10
359.0648515051
 20
1414.925713238
 30
0.0
 10
359.6243545008
 20
1414.6052199872
 30
0.0
  0
SPLINE
  5
337
100
AcDbEntity
  8
0
100
AcDbSpline
 62
7
  6
CONTINUOUS
 70
0
 71
3
 72
9
 73
5
 74
0
 42
0.0000001
 43
0.0000001
 44
0.0000000001
 40
0.0
 40
0.0
 40
0.0
 40
0.0
 40
0.4997026044
 40
1.0
 40
1.0
 40
1.0
 40
1.0
 10
359.6243545008
 20
1414.6052199872
 30
0.0
 10
360.9932892055
 20
1413.8210698811
 30
0.0
 10
363.1575245117
 20
1411.3302364107
 30
0.0
 10
364.2385368849
 20
1408.2136940634
 30
0.0
 10
364.2385368849
 20
1406.634199807
 30
0.0
  0
SPLINE
  5
338
100
AcDbEntity
  8
0
100
AcDbSpline
 62
7
  6
CONTINUOUS
 70
0
 71
3
 72
9
 73
5
 74
0
 42
0.0000001
 43
0.0000001
 44
0.0000000001
 40
0.0
 40
0.0
 40
0.0
 40
0.0
 40
0.2236097662
 40
1.0
 40
1.0
 40
1.0
 40
1.0
 10
356.7921544444
 20
1414.9461014211
 30
0.0
 10
356.6773831385
 20
1414.7978232083
 30
0.0
 10
356.2386761801
 20
1414.0759706881
 30
0.0
 10
356.1067662138
 20
1413.2047345669
 30
0.0
 10
356.1067662138
 20
1412.5536958466
 30
0.0
  0
SPLINE
  5
339
100
AcDbEntity
  8
0
100
AcDbSpline
 62
7
  6
CONTINUOUS
 70
0
 71
3
 72
8
 73
4
 74
0
 42
0.0000001
 43
0.0000001
 44
0.0000000001
 40
0.0
 40
0.0
 40
0.0
 40
0.0
 40
1.0
 40
1.0
 40
1.0
 40
1.0
 10
410.5164448781
 20
1442.6472221201
 30
0.0
 10
410.4195581325
 20
1442.5796491164
 30
0.0
 10
410.3261336255
 20
1442.5066814782
 30
0.0
 10
410.2379563503
 20
1442.4280817299
 30
0.0
  0
SPLINE
  5
33A
100
AcDbEntity
  8
0
100
AcDbSpline
 62
7
  6
CONTINUOUS
 70
0
 71
3
 72
8
 73
4
 74
0
 42
0.0000001
 43
0.0000001
 44
0.0000000001
 40
0.0
 40
0.0
 40
0.0
 40
0.0
 40
1.0
 40
1.0
 40
1.0
 40
1.0
 10
412.0333595619
 20
1443.2989701258
 30
0.0
 10
411.7317998642
 20
1443.2251540719
 30
0.0
 10
411.4344887208
 20
1443.1274100488
 30
0.0
 10
411.1509050454
 20
1443.0010480289
 30
0.0
  0
SPLINE
  5
33B
100
AcDbEntity
  8
0
100
AcDbSpline
 62
7
  6
CONTINUOUS
 70
0
 71
3
 72
8
 73
4
 74
0
 42
0.0000001
 43
0.0000001
 44
0.0000000001
 40
0.0
 40
0.0
 40
0.0
 40
0.0
 40
1.0
 40
1.0
 40
1.0
 40
1.0
 10
411.1509050454
 20
1443.0010480289
 30
0.0
 10
411.0195723778
 20
1442.9425275194
 30
0.0
 10
410.8908159349
 20
1442.8776597548
 30
0.0
 10
410.7662979202
 20
1442.8057696746
 30
0.0
  0
SPLINE
  5
33C
100
AcDbEntity
  8
0
100
AcDbSpline
 62
7
  6
CONTINUOUS
 70
0
 71
3
 72
8
 73
4
 74
0
 42
0.0000001
 43
0.0000001
 44
0.0000000001
 40
0.0
 40
0.0
 40
0.0
 40
0.0
 40
1.0
 40
1.0
 40
1.0
 40
1.0
 10
739.6458593033
 20
193.4349017087
 30
0.0
 10
739.8352833339
 20
193.5441207357
 30
0.0
 10
740.0437233008
 20
193.624492434
 30
0.0
 10
740.2567034863
 20
193.6739868761
 30
0.0
  0
SPLINE
  5
33D
100
AcDbEntity
  8
0
100
AcDbSpline
 62
7
  6
CONTINUOUS
 70
0
 71
3
 72
9
 73
5
 74
0
 42
0.0000001
 43
0.0000001
 44
0.0000000001
 40
0.0
 40
0.0
 40
0.0
 40
0.0
 40
0.223710445
 40
1.0
 40
1.0
 40
1.0
 40
1.0
 10
740.4846466753
 20
193.7156206492
 30
0.0
 10
740.6687976916
 20
193.74044143
 30
0.0
 10
741.5051628114
 20
193.7599586761
 30
0.0
 10
742.3183225347
 20
193.4437633042
 30
0.0
 10
742.8778255305
 20
193.1232700535
 30
0.0
  0
SPLINE
  5
33E
100
AcDbEntity
  8
0
100
AcDbSpline
 62
7
  6
CONTINUOUS
 70
0
 71
3
 72
9
 73
5
 74
0
 42
0.0000001
 43
0.0000001
 44
0.0000000001
 40
0.0
 40
0.0
 40
0.0
 40
0.0
 40
0.4997026044
 40
1.0
 40
1.0
 40
1.0
 40
1.0
 10
742.8778255305
 20
193.1232700535
 30
0.0
 10
744.2467602351
 20
192.3391199473
 30
0.0
 10
746.4109955413
 20
189.848286477
 30
0.0
 10
747.4920079145
 20
186.7317441296
 30
0.0
 10
747.4920079145
 20
185.1522498733
 30
0.0
  0
SPLINE
  5
33F
100
AcDbEntity
  8
0
100
AcDbSpline
 62
7
  6
CONTINUOUS
 70
0
 71
3
 72
9
 73
5
 74
0
 42
0.0000001
 43
0.0000001
 44
0.0000000001
 40
0.0
 40
0.0
 40
0.0
 40
0.0
 40
0.2236097662
 40
1.0
 40
1.0
 40
1.0
 40
1.0
 10
740.045625474
 20
193.4641514874
 30
0.0
 10
739.9308541682
 20
193.3158732746
 30
0.0
 10
739.4921472098
 20
192.5940207544
 30
0.0
 10
739.3602372435
 20
191.7227846332
 30
0.0
 10
739.3602372435
 20
191.0717459128
 30
0.0
  0
SPLINE
  5
340
100
AcDbEntity
  8
0
100
AcDbSpline
 62
7
  6
CONTINUOUS
 70
0
 71
3
 72
8
 73
4
 74
0
 42
0.0000001
 43
0.0000001
 44
0.0000000001
 40
0.0
 40
0.0
 40
0.0
 40
0.0
 40
1.0
 40
1.0
 40
1.0
 40
1.0
 10
739.6458593033
 20
907.8745166971
 30
0.0
 10
739.8352833339
 20
907.9837357241
 30
0.0
 10
740.0437233008
 20
908.0641074224
 30
0.0
 10
740.2567034863
 20
908.1136018645
 30
0.0
  0
SPLINE
  5
341
100
AcDbEntity
  8
0
100
AcDbSpline
 62
7
  6
CONTINUOUS
 70
0
 71
3
 72
9
 73
5
 74
0
 42
0.0000001
 43
0.0000001
 44
0.0000000001
 40
0.0
 40
0.0
 40
0.0
 40
0.0
 40
0.223710445
 40
1.0
 40
1.0
 40
1.0
 40
1.0
 10
740.4846466753
 20
908.1552356376
 30
0.0
 10
740.6687976916
 20
908.1800564184
 30
0.0
 10
741.5051628114
 20
908.1995736645
 30
0.0
 10
742.3183225347
 20
907.8833782926
 30
0.0
 10
742.8778255305
 20
907.5628850419
 30
0.0
  0
SPLINE
  5
342
100
AcDbEntity
  8
0
100
AcDbSpline
 62
7
  6
CONTINUOUS
 70
0
 71
3
 72
9
 73
5
 74
0
 42
0.0000001
 43
0.0000001
 44
0.0000000001
 40
0.0
 40
0.0
 40
0.0
 40
0.0
 40
0.4997026044
 40
1.0
 40
1.0
 40
1.0
 40
1.0
 10
742.8778255305
 20
907.5628850419
 30
0.0
 10
744.2467602351
 20
906.7787349357
 30
0.0
 10
746.4109955413
 20
904.2879014654
 30
0.0
 10
747.4920079145
 20
901.171359118
 30
0.0
 10
747.4920079145
 20
899.5918648617
 30
0.0
  0
SPLINE
  5
343
100
AcDbEntity
  8
0
100
AcDbSpline
 62
7
  6
CONTINUOUS
 70
0
 71
3
 72
9
 73
5
 74
0
 42
0.0000001
 43
0.0000001
 44
0.0000000001
 40
0.0
 40
0.0
 40
0.0
 40
0.0
 40
0.2236097662
 40
1.0
 40
1.0
 40
1.0
 40
1.0
 10
740.045625474
 20
907.9037664758
 30
0.0
 10
739.9308541682
 20
907.755488263
 30
0.0
 10
739.4921472098
 20
907.0336357428
 30
0.0
 10
739.3602372435
 20
906.1623996216
 30
0.0
 10
739.3602372435
 20
905.5113609012
 30
0.0
  0
SPLINE
  5
344
100
AcDbEntity
  8
0
100
AcDbSpline
 62
7
  6
CONTINUOUS
 70
0
 71
3
 72
8
 73
4
 74
0
 42
0.0000001
 43
0.0000001
 44
0.0000000001
 40
0.0
 40
0.0
 40
0.0
 40
0.0
 40
1.0
 40
1.0
 40
1.0
 40
1.0
 10
739.6458593033
 20
479.2107477041
 30
0.0
 10
739.8352833339
 20
479.3199667311
 30
0.0
 10
740.0437233008
 20
479.4003384293
 30
0.0
 10
740.2567034863
 20
479.4498328714
 30
0.0
  0
SPLINE
  5
345
100
AcDbEntity
  8
0
100
AcDbSpline
 62
7
  6
CONTINUOUS
 70
0
 71
3
 72
9
 73
5
 74
0
 42
0.0000001
 43
0.0000001
 44
0.0000000001
 40
0.0
 40
0.0
 40
0.0
 40
0.0
 40
0.223710445
 40
1.0
 40
1.0
 40
1.0
 40
1.0
 10
740.4846466753
 20
479.4914666446
 30
0.0
 10
740.6687976916
 20
479.5162874254
 30
0.0
 10
741.5051628114
 20
479.5358046715
 30
0.0
 10
742.3183225347
 20
479.2196092996
 30
0.0
 10
742.8778255305
 20
478.8991160488
 30
0.0
  0
SPLINE
  5
346
100
AcDbEntity
  8
0
100
AcDbSpline
 62
7
  6
CONTINUOUS
 70
0
 71
3
 72
9
 73
5
 74
0
 42
0.0000001
 43
0.0000001
 44
0.0000000001
 40
0.0
 40
0.0
 40
0.0
 40
0.0
 40
0.4997026044
 40
1.0
 40
1.0
 40
1.0
 40
1.0
 10
742.8778255305
 20
478.8991160488
 30
0.0
 10
744.2467602351
 20
478.1149659427
 30
0.0
 10
746.4109955413
 20
475.6241324723
 30
0.0
 10
747.4920079145
 20
472.507590125
 30
0.0
 10
747.4920079145
 20
470.9280958686
 30
0.0
  0
SPLINE
  5
347
100
AcDbEntity
  8
0
100
AcDbSpline
 62
7
  6
CONTINUOUS
 70
0
 71
3
 72
9
 73
5
 74
0
 42
0.0000001
 43
0.0000001
 44
0.0000000001
 40
0.0
 40
0.0
 40
0.0
 40
0.0
 40
0.2236097662
 40
1.0
 40
1.0
 40
1.0
 40
1.0
 10
740.045625474
 20
479.2399974828
 30
0.0
 10
739.9308541682
 20
479.0917192699
 30
0.0
 10
739.4921472098
 20
478.3698667497
 30
0.0
 10
739.3602372435
 20
477.4986306285
 30
0.0
 10
739.3602372435
 20
476.8475919082
 30
0.0
  0
SPLINE
  5
348
100
AcDbEntity
  8
0
100
AcDbSpline
 62
7
  6
CONTINUOUS
 70
0
 71
3
 72
9
 73
5
 74
0
 42
0.0000001
 43
0.0000001
 44
0.0000000001
 40
0.0
 40
0.0
 40
0.0
 40
0.0
 40
0.4980896218
 40
1.0
 40
1.0
 40
1.0
 40
1.0
 10
700.1336351155
 20
1277.0700577608
 30
0.0
 10
700.1582431503
 20
1277.0714036682
 30
0.0
 10
700.2076533707
 20
1277.0740100963
 30
0.0
 10
700.2570866158
 20
1277.0761627363
 30
0.0
 10
700.2819040261
 20
1277.077066467
 30
0.0
  0
SPLINE
  5
349
100
AcDbEntity
  8
0
100
AcDbSpline
 62
7
  6
CONTINUOUS
 70
0
 71
3
 72
9
 73
5
 74
0
 42
0.0000001
 43
0.0000001
 44
0.0000000001
 40
0.0
 40
0.0
 40
0.0
 40
0.0
 40
0.496145515
 40
1.0
 40
1.0
 40
1.0
 40
1.0
 10
700.2819040261
 20
1277.077066467
 30
0.0
 10
700.3110017311
 20
1277.0781260655
 30
0.0
 10
700.3696688875
 20
1277.0797715961
 30
0.0
 10
700.4283625881
 20
1277.0800598891
 30
0.0
 10
700.457930659
 20
1277.0797792308
 30
0.0
  0
SPLINE
  5
34A
100
AcDbEntity
  8
0
100
AcDbSpline
 62
7
  6
CONTINUOUS
 70
0
 71
3
 72
9
 73
5
 74
0
 42
0.0000001
 43
0.0000001
 44
0.0000000001
 40
0.0
 40
0.0
 40
0.0
 40
0.0
 40
0.2293766236
 40
1.0
 40
1.0
 40
1.0
 40
1.0
 10
416.4231521697
 20
1442.805783272
 30
0.0
 10
416.1588809911
 20
1442.9583568564
 30
0.0
 10
414.9287678108
 20
1443.4831763594
 30
0.0
 10
413.5301913134
 20
1443.5601902138
 30
0.0
 10
412.5180691525
 20
1443.3969441231
 30
0.0
  0
SPLINE
  5
34B
100
AcDbEntity
  8
0
100
AcDbSpline
 62
7
  6
CONTINUOUS
 70
0
 71
3
 72
9
 73
5
 74
0
 42
0.0000001
 43
0.0000001
 44
0.0000000001
 40
0.0
 40
0.0
 40
0.0
 40
0.0
 40
0.2293766236
 40
1.0
 40
1.0
 40
1.0
 40
1.0
 10
704.4996541945
 20
1276.4884998804
 30
0.0
 10
704.235383016
 20
1276.6410734649
 30
0.0
 10
703.0052698357
 20
1277.1658929678
 30
0.0
 10
701.6066933383
 20
1277.2429068222
 30
0.0
 10
700.5945711774
 20
1277.0796607316
 30
0.0
  0
SPLINE
  5
34C
100
AcDbEntity
  8
0
100
AcDbSpline
 62
7
  6
CONTINUOUS
 70
0
 71
3
 72
9
 73
5
 74
0
 42
0.0000001
 43
0.0000001
 44
0.0000000001
 40
0.0
 40
0.0
 40
0.0
 40
0.0
 40
0.2208390513
 40
1.0
 40
1.0
 40
1.0
 40
1.0
 10
760.9318883943
 20
1211.2081755983
 30
0.0
 10
760.931924286
 20
1211.3033466008
 30
0.0
 10
760.8549914096
 20
1211.7372896754
 30
0.0
 10
760.4903235209
 20
1212.0609007234
 30
0.0
 10
760.1995270927
 20
1212.2287883214
 30
0.0
  0
SPLINE
  5
34D
100
AcDbEntity
  8
0
100
AcDbSpline
 62
7
  6
CONTINUOUS
 70
0
 71
3
 72
8
 73
4
 74
0
 42
0.0000001
 43
0.0000001
 44
0.0000000001
 40
0.0
 40
0.0
 40
0.0
 40
0.0
 40
1.0
 40
1.0
 40
1.0
 40
1.0
 10
760.9318883694
 20
171.1743652339
 30
0.0
 10
760.9317806492
 20
170.8896825322
 30
0.0
 10
760.7609882033
 20
170.6027040614
 30
0.0
 10
760.5518932557
 20
170.4095110099
 30
0.0
  0
SPLINE
  5
34E
100
AcDbEntity
  8
0
100
AcDbSpline
 62
7
  6
CONTINUOUS
 70
0
 71
3
 72
9
 73
5
 74
0
 42
0.0000001
 43
0.0000001
 44
0.0000000001
 40
0.0
 40
0.0
 40
0.0
 40
0.0
 40
0.4980896218
 40
1.0
 40
1.0
 40
1.0
 40
1.0
 10
412.0571330906
 20
1443.3873411524
 30
0.0
 10
412.0817411254
 20
1443.3886870597
 30
0.0
 10
412.1311513458
 20
1443.3912934878
 30
0.0
 10
412.1805845909
 20
1443.3934461279
 30
0.0
 10
412.2054020013
 20
1443.3943498586
 30
0.0
  0
SPLINE
  5
34F
100
AcDbEntity
  8
0
100
AcDbSpline
 62
7
  6
CONTINUOUS
 70
0
 71
3
 72
9
 73
5
 74
0
 42
0.0000001
 43
0.0000001
 44
0.0000000001
 40
0.0
 40
0.0
 40
0.0
 40
0.0
 40
0.496145515
 40
1.0
 40
1.0
 40
1.0
 40
1.0
 10
412.2054020013
 20
1443.3943498586
 30
0.0
 10
412.2344997062
 20
1443.3954094571
 30
0.0
 10
412.2931668626
 20
1443.3970549877
 30
0.0
 10
412.3518605632
 20
1443.3973432807
 30
0.0
 10
412.3814286341
 20
1443.3970626223
 30
0.0
  0
SPLINE
  5
350
100
AcDbEntity
  8
0
100
AcDbSpline
 62
7
  6
CONTINUOUS
 70
0
 71
3
 72
8
 73
4
 74
0
 42
0.0000001
 43
0.0000001
 44
0.0000000001
 40
0.0
 40
0.0
 40
0.0
 40
0.0
 40
1.0
 40
1.0
 40
1.0
 40
1.0
 10
739.6458593033
 20
1193.6503626925
 30
0.0
 10
739.8352833339
 20
1193.7595817195
 30
0.0
 10
740.0437233008
 20
1193.8399534177
 30
0.0
 10
740.2567034863
 20
1193.8894478598
 30
0.0
  0
SPLINE
  5
351
100
AcDbEntity
  8
0
100
AcDbSpline
 62
7
  6
CONTINUOUS
 70
0
 71
3
 72
9
 73
5
 74
0
 42
0.0000001
 43
0.0000001
 44
0.0000000001
 40
0.0
 40
0.0
 40
0.0
 40
0.0
 40
0.223710445
 40
1.0
 40
1.0
 40
1.0
 40
1.0
 10
740.4846466753
 20
1193.931081633
 30
0.0
 10
740.6687976916
 20
1193.9559024137
 30
0.0
 10
741.5051628114
 20
1193.9754196598
 30
0.0
 10
742.3183225347
 20
1193.6592242879
 30
0.0
 10
742.8778255305
 20
1193.3387310372
 30
0.0
  0
SPLINE
  5
352
100
AcDbEntity
  8
0
100
AcDbSpline
 62
7
  6
CONTINUOUS
 70
0
 71
3
 72
9
 73
5
 74
0
 42
0.0000001
 43
0.0000001
 44
0.0000000001
 40
0.0
 40
0.0
 40
0.0
 40
0.0
 40
0.4997026044
 40
1.0
 40
1.0
 40
1.0
 40
1.0
 10
742.8778255305
 20
1193.3387310372
 30
0.0
 10
744.2467602351
 20
1192.5545809311
 30
0.0
 10
746.4109955413
 20
1190.0637474607
 30
0.0
 10
747.4920079145
 20
1186.9472051134
 30
0.0
 10
747.4920079145
 20
1185.367710857
 30
0.0
  0
SPLINE
  5
353
100
AcDbEntity
  8
0
100
AcDbSpline
 62
7
  6
CONTINUOUS
 70
0
 71
3
 72
9
 73
5
 74
0
 42
0.0000001
 43
0.0000001
 44
0.0000000001
 40
0.0
 40
0.0
 40
0.0
 40
0.0
 40
0.2236097662
 40
1.0
 40
1.0
 40
1.0
 40
1.0
 10
740.045625474
 20
1193.6796124711
 30
0.0
 10
739.9308541682
 20
1193.5313342583
 30
0.0
 10
739.4921472098
 20
1192.8094817381
 30
0.0
 10
739.3602372435
 20
1191.9382456169
 30
0.0
 10
739.3602372435
 20
1191.2872068966
 30
0.0
  0
SPLINE
  5
354
100
AcDbEntity
  8
0
100
AcDbSpline
 62
7
  6
CONTINUOUS
 70
0
 71
3
 72
8
 73
4
 74
0
 42
0.0000001
 43
0.0000001
 44
0.0000000001
 40
0.0
 40
0.0
 40
0.0
 40
0.0
 40
1.0
 40
1.0
 40
1.0
 40
1.0
 10
418.6412466619
 20
1441.3234641611
 30
0.0
 10
418.4238503646
 20
1441.5951266241
 30
0.0
 10
418.1386974568
 20
1441.8153351456
 30
0.0
 10
417.83737162
 20
1441.989301763
 30
0.0
  0
SPLINE
  5
355
100
AcDbEntity
  8
0
100
AcDbSpline
 62
7
  6
CONTINUOUS
 70
0
 71
3
 72
8
 73
4
 74
0
 42
0.0000001
 43
0.0000001
 44
0.0000000001
 40
0.0
 40
0.0
 40
0.0
 40
0.0
 40
1.0
 40
1.0
 40
1.0
 40
1.0
 10
706.7177486868
 20
1275.0061807695
 30
0.0
 10
706.5003523895
 20
1275.2778432326
 30
0.0
 10
706.2151994817
 20
1275.498051754
 30
0.0
 10
705.9138736448
 20
1275.6720183714
 30
0.0
  0
SPLINE
  5
356
100
AcDbEntity
  8
0
100
AcDbSpline
 62
7
  6
CONTINUOUS
 70
0
 71
3
 72
10
 73
6
 74
0
 42
0.0000001
 43
0.0000001
 44
0.0000000001
 40
0.0
 40
0.0
 40
0.0
 40
0.0
 40
0.2633683871
 40
0.5513276631
 40
1.0
 40
1.0
 40
1.0
 40
1.0
 10
739.3602372435
 20
1191.2872068966
 30
0.0
 10
739.3602372435
 20
1190.247281968
 30
0.0
 10
739.9007373703
 20
1188.0530477749
 30
0.0
 10
741.8128041709
 20
1184.7212068586
 30
0.0
 10
744.6187684485
 20
1182.4838014661
 30
0.0
 10
746.373916676
 20
1182.7247364985
 30
0.0
  0
SPLINE
  5
357
100
AcDbEntity
  8
0
100
AcDbSpline
 62
7
  6
CONTINUOUS
 70
0
 71
3
 72
10
 73
6
 74
0
 42
0.0000001
 43
0.0000001
 44
0.0000000001
 40
0.0
 40
0.0
 40
0.0
 40
0.0
 40
0.2633683871
 40
0.5513276631
 40
1.0
 40
1.0
 40
1.0
 40
1.0
 10
739.3602372435
 20
476.8475919082
 30
0.0
 10
739.3602372435
 20
475.8076669796
 30
0.0
 10
739.9007373703
 20
473.6134327865
 30
0.0
 10
741.8128041709
 20
470.2815918702
 30
0.0
 10
744.6187684485
 20
468.0441864777
 30
0.0
 10
746.373916676
 20
468.2851215101
 30
0.0
  0
SPLINE
  5
358
100
AcDbEntity
  8
0
100
AcDbSpline
 62
7
  6
CONTINUOUS
 70
0
 71
3
 72
10
 73
6
 74
0
 42
0.0000001
 43
0.0000001
 44
0.0000000001
 40
0.0
 40
0.0
 40
0.0
 40
0.0
 40
0.2633683871
 40
0.5513276631
 40
1.0
 40
1.0
 40
1.0
 40
1.0
 10
739.3602372435
 20
905.5113609012
 30
0.0
 10
739.3602372435
 20
904.4714359727
 30
0.0
 10
739.9007373703
 20
902.2772017795
 30
0.0
 10
741.8128041709
 20
898.9453608632
 30
0.0
 10
744.6187684485
 20
896.7079554708
 30
0.0
 10
746.373916676
 20
896.9488905031
 30
0.0
  0
SPLINE
  5
359
100
AcDbEntity
  8
0
100
AcDbSpline
 62
7
  6
CONTINUOUS
 70
0
 71
3
 72
10
 73
6
 74
0
 42
0.0000001
 43
0.0000001
 44
0.0000000001
 40
0.0
 40
0.0
 40
0.0
 40
0.0
 40
0.2633683871
 40
0.5513276631
 40
1.0
 40
1.0
 40
1.0
 40
1.0
 10
739.3602372435
 20
191.0717459128
 30
0.0
 10
739.3602372435
 20
190.0318209843
 30
0.0
 10
739.9007373703
 20
187.8375867911
 30
0.0
 10
741.8128041709
 20
184.5057458748
 30
0.0
 10
744.6187684485
 20
182.2683404824
 30
0.0
 10
746.373916676
 20
182.5092755148
 30
0.0
  0
SPLINE
  5
35A
100
AcDbEntity
  8
0
100
AcDbSpline
 62
7
  6
CONTINUOUS
 70
0
 71
3
 72
10
 73
6
 74
0
 42
0.0000001
 43
0.0000001
 44
0.0000000001
 40
0.0
 40
0.0
 40
0.0
 40
0.0
 40
0.2633683871
 40
0.5513276631
 40
1.0
 40
1.0
 40
1.0
 40
1.0
 10
356.1067662138
 20
1412.5536958466
 30
0.0
 10
356.1067662138
 20
1411.513770918
 30
0.0
 10
356.6472663407
 20
1409.3195367249
 30
0.0
 10
358.5593331412
 20
1405.9876958086
 30
0.0
 10
361.3652974189
 20
1403.7502904161
 30
0.0
 10
363.1204456463
 20
1403.9912254485
 30
0.0
  0
SPLINE
  5
35B
100
AcDbEntity
  8
0
100
AcDbSpline
 62
7
  6
CONTINUOUS
 70
0
 71
3
 72
10
 73
6
 74
0
 42
0.0000001
 43
0.0000001
 44
0.0000000001
 40
0.0
 40
0.0
 40
0.0
 40
0.0
 40
0.2633683871
 40
0.5513276631
 40
1.0
 40
1.0
 40
1.0
 40
1.0
 10
356.1067662138
 20
698.1140808582
 30
0.0
 10
356.1067662138
 20
697.0741559296
 30
0.0
 10
356.6472663407
 20
694.8799217365
 30
0.0
 10
358.5593331412
 20
691.5480808202
 30
0.0
 10
361.3652974189
 20
689.3106754278
 30
0.0
 10
363.1204456463
 20
689.5516104601
 30
0.0
  0
SPLINE
  5
35C
100
AcDbEntity
  8
0
100
AcDbSpline
 62
7
  6
CONTINUOUS
 70
0
 71
3
 72
10
 73
6
 74
0
 42
0.0000001
 43
0.0000001
 44
0.0000000001
 40
0.0
 40
0.0
 40
0.0
 40
0.0
 40
0.2633683871
 40
0.5513276631
 40
1.0
 40
1.0
 40
1.0
 40
1.0
 10
356.1067662138
 20
1126.7778498512
 30
0.0
 10
356.1067662138
 20
1125.7379249227
 30
0.0
 10
356.6472663407
 20
1123.5436907295
 30
0.0
 10
358.5593331412
 20
1120.2118498132
 30
0.0
 10
361.3652974189
 20
1117.9744444208
 30
0.0
 10
363.1204456463
 20
1118.2153794532
 30
0.0
  0
SPLINE
  5
35D
100
AcDbEntity
  8
0
100
AcDbSpline
 62
7
  6
CONTINUOUS
 70
0
 71
3
 72
10
 73
6
 74
0
 42
0.0000001
 43
0.0000001
 44
0.0000000001
 40
0.0
 40
0.0
 40
0.0
 40
0.0
 40
0.2633683871
 40
0.5513276631
 40
1.0
 40
1.0
 40
1.0
 40
1.0
 10
356.1067662138
 20
412.3382348629
 30
0.0
 10
356.1067662138
 20
411.2983099343
 30
0.0
 10
356.6472663407
 20
409.1040757412
 30
0.0
 10
358.5593331412
 20
405.7722348248
 30
0.0
 10
361.3652974189
 20
403.5348294324
 30
0.0
 10
363.1204456463
 20
403.7757644648
 30
0.0
  0
SPLINE
  5
35E
100
AcDbEntity
  8
0
100
AcDbSpline
 62
7
  6
CONTINUOUS
 70
0
 71
3
 72
9
 73
5
 74
0
 42
0.0000001
 43
0.0000001
 44
0.0000000001
 40
0.0
 40
0.0
 40
0.0
 40
0.0
 40
0.2807306068
 40
1.0
 40
1.0
 40
1.0
 40
1.0
 10
747.4920079145
 20
1185.367710857
 30
0.0
 10
747.4920079145
 20
1185.1327035518
 30
0.0
 10
747.4446026467
 20
1184.300348311
 30
0.0
 10
747.1752013567
 20
1183.4515218753
 30
0.0
 10
746.8066800803
 20
1182.9753488262
 30
0.0
  0
SPLINE
  5
35F
100
AcDbEntity
  8
0
100
AcDbSpline
 62
7
  6
CONTINUOUS
 70
0
 71
3
 72
8
 73
4
 74
0
 42
0.0000001
 43
0.0000001
 44
0.0000000001
 40
0.0
 40
0.0
 40
0.0
 40
0.0
 40
1.0
 40
1.0
 40
1.0
 40
1.0
 10
746.6587055082
 20
1182.8014007658
 30
0.0
 10
746.5092697526
 20
1182.6416722554
 30
0.0
 10
746.3352214375
 20
1182.5014466661
 30
0.0
 10
746.1457300989
 20
1182.3921888303
 30
0.0
  0
SPLINE
  5
360
100
AcDbEntity
  8
0
100
AcDbSpline
 62
7
  6
CONTINUOUS
 70
0
 71
3
 72
9
 73
5
 74
0
 42
0.0000001
 43
0.0000001
 44
0.0000000001
 40
0.0
 40
0.0
 40
0.0
 40
0.0
 40
0.2807306068
 40
1.0
 40
1.0
 40
1.0
 40
1.0
 10
747.4920079145
 20
470.9280958686
 30
0.0
 10
747.4920079145
 20
470.6930885634
 30
0.0
 10
747.4446026467
 20
469.8607333226
 30
0.0
 10
747.1752013567
 20
469.011906887
 30
0.0
 10
746.8066800803
 20
468.5357338378
 30
0.0
  0
SPLINE
  5
361
100
AcDbEntity
  8
0
100
AcDbSpline
 62
7
  6
CONTINUOUS
 70
0
 71
3
 72
8
 73
4
 74
0
 42
0.0000001
 43
0.0000001
 44
0.0000000001
 40
0.0
 40
0.0
 40
0.0
 40
0.0
 40
1.0
 40
1.0
 40
1.0
 40
1.0
 10
746.6587055082
 20
468.3617857775
 30
0.0
 10
746.5092697526
 20
468.202057267
 30
0.0
 10
746.3352214375
 20
468.0618316777
 30
0.0
 10
746.1457300989
 20
467.9525738419
 30
0.0
  0
SPLINE
  5
362
100
AcDbEntity
  8
0
100
AcDbSpline
 62
7
  6
CONTINUOUS
 70
0
 71
3
 72
9
 73
5
 74
0
 42
0.0000001
 43
0.0000001
 44
0.0000000001
 40
0.0
 40
0.0
 40
0.0
 40
0.0
 40
0.2807306068
 40
1.0
 40
1.0
 40
1.0
 40
1.0
 10
747.4920079145
 20
899.5918648617
 30
0.0
 10
747.4920079145
 20
899.3568575564
 30
0.0
 10
747.4446026467
 20
898.5245023157
 30
0.0
 10
747.1752013567
 20
897.67567588
 30
0.0
 10
746.8066800803
 20
897.1995028309
 30
0.0
  0
SPLINE
  5
363
100
AcDbEntity
  8
0
100
AcDbSpline
 62
7
  6
CONTINUOUS
 70
0
 71
3
 72
8
 73
4
 74
0
 42
0.0000001
 43
0.0000001
 44
0.0000000001
 40
0.0
 40
0.0
 40
0.0
 40
0.0
 40
1.0
 40
1.0
 40
1.0
 40
1.0
 10
746.6587055082
 20
897.0255547705
 30
0.0
 10
746.5092697526
 20
896.86582626
 30
0.0
 10
746.3352214375
 20
896.7256006707
 30
0.0
 10
746.1457300989
 20
896.616342835
 30
0.0
  0
SPLINE
  5
364
100
AcDbEntity
  8
0
100
AcDbSpline
 62
7
  6
CONTINUOUS
 70
0
 71
3
 72
9
 73
5
 74
0
 42
0.0000001
 43
0.0000001
 44
0.0000000001
 40
0.0
 40
0.0
 40
0.0
 40
0.0
 40
0.2807306068
 40
1.0
 40
1.0
 40
1.0
 40
1.0
 10
747.4920079145
 20
185.1522498733
 30
0.0
 10
747.4920079145
 20
184.9172425681
 30
0.0
 10
747.4446026467
 20
184.0848873273
 30
0.0
 10
747.1752013567
 20
183.2360608916
 30
0.0
 10
746.8066800803
 20
182.7598878425
 30
0.0
  0
SPLINE
  5
365
100
AcDbEntity
  8
0
100
AcDbSpline
 62
7
  6
CONTINUOUS
 70
0
 71
3
 72
8
 73
4
 74
0
 42
0.0000001
 43
0.0000001
 44
0.0000000001
 40
0.0
 40
0.0
 40
0.0
 40
0.0
 40
1.0
 40
1.0
 40
1.0
 40
1.0
 10
746.6587055082
 20
182.5859397821
 30
0.0
 10
746.5092697526
 20
182.4262112717
 30
0.0
 10
746.3352214375
 20
182.2859856823
 30
0.0
 10
746.1457300989
 20
182.1767278466
 30
0.0
  0
SPLINE
  5
366
100
AcDbEntity
  8
0
100
AcDbSpline
 62
7
  6
CONTINUOUS
 70
0
 71
3
 72
9
 73
5
 74
0
 42
0.0000001
 43
0.0000001
 44
0.0000000001
 40
0.0
 40
0.0
 40
0.0
 40
0.0
 40
0.2807306068
 40
1.0
 40
1.0
 40
1.0
 40
1.0
 10
364.2385368849
 20
1406.634199807
 30
0.0
 10
364.2385368849
 20
1406.3991925018
 30
0.0
 10
364.1911316171
 20
1405.566837261
 30
0.0
 10
363.921730327
 20
1404.7180108253
 30
0.0
 10
363.5532090506
 20
1404.2418377762
 30
0.0
  0
SPLINE
  5
367
100
AcDbEntity
  8
0
100
AcDbSpline
 62
7
  6
CONTINUOUS
 70
0
 71
3
 72
8
 73
4
 74
0
 42
0.0000001
 43
0.0000001
 44
0.0000000001
 40
0.0
 40
0.0
 40
0.0
 40
0.0
 40
1.0
 40
1.0
 40
1.0
 40
1.0
 10
363.4052344785
 20
1404.0678897158
 30
0.0
 10
363.255798723
 20
1403.9081612054
 30
0.0
 10
363.0817504078
 20
1403.7679356161
 30
0.0
 10
362.8922590692
 20
1403.6586777803
 30
0.0
  0
SPLINE
  5
368
100
AcDbEntity
  8
0
100
AcDbSpline
 62
7
  6
CONTINUOUS
 70
0
 71
3
 72
9
 73
5
 74
0
 42
0.0000001
 43
0.0000001
 44
0.0000000001
 40
0.0
 40
0.0
 40
0.0
 40
0.0
 40
0.2807306068
 40
1.0
 40
1.0
 40
1.0
 40
1.0
 10
364.2385368849
 20
692.1945848186
 30
0.0
 10
364.2385368849
 20
691.9595775134
 30
0.0
 10
364.1911316171
 20
691.1272222726
 30
0.0
 10
363.921730327
 20
690.278395837
 30
0.0
 10
363.5532090506
 20
689.8022227879
 30
0.0
  0
SPLINE
  5
369
100
AcDbEntity
  8
0
100
AcDbSpline
 62
7
  6
CONTINUOUS
 70
0
 71
3
 72
8
 73
4
 74
0
 42
0.0000001
 43
0.0000001
 44
0.0000000001
 40
0.0
 40
0.0
 40
0.0
 40
0.0
 40
1.0
 40
1.0
 40
1.0
 40
1.0
 10
363.4052344785
 20
689.6282747275
 30
0.0
 10
363.255798723
 20
689.468546217
 30
0.0
 10
363.0817504078
 20
689.3283206277
 30
0.0
 10
362.8922590692
 20
689.2190627919
 30
0.0
  0
SPLINE
  5
36A
100
AcDbEntity
  8
0
100
AcDbSpline
 62
7
  6
CONTINUOUS
 70
0
 71
3
 72
9
 73
5
 74
0
 42
0.0000001
 43
0.0000001
 44
0.0000000001
 40
0.0
 40
0.0
 40
0.0
 40
0.0
 40
0.2807306068
 40
1.0
 40
1.0
 40
1.0
 40
1.0
 10
364.2385368849
 20
1120.8583538117
 30
0.0
 10
364.2385368849
 20
1120.6233465064
 30
0.0
 10
364.1911316171
 20
1119.7909912657
 30
0.0
 10
363.921730327
 20
1118.94216483
 30
0.0
 10
363.5532090506
 20
1118.4659917809
 30
0.0
  0
SPLINE
  5
36B
100
AcDbEntity
  8
0
100
AcDbSpline
 62
7
  6
CONTINUOUS
 70
0
 71
3
 72
8
 73
4
 74
0
 42
0.0000001
 43
0.0000001
 44
0.0000000001
 40
0.0
 40
0.0
 40
0.0
 40
0.0
 40
1.0
 40
1.0
 40
1.0
 40
1.0
 10
363.4052344785
 20
1118.2920437205
 30
0.0
 10
363.255798723
 20
1118.13231521
 30
0.0
 10
363.0817504078
 20
1117.9920896207
 30
0.0
 10
362.8922590692
 20
1117.882831785
 30
0.0
  0
SPLINE
  5
36C
100
AcDbEntity
  8
0
100
AcDbSpline
 62
7
  6
CONTINUOUS
 70
0
 71
3
 72
9
 73
5
 74
0
 42
0.0000001
 43
0.0000001
 44
0.0000000001
 40
0.0
 40
0.0
 40
0.0
 40
0.0
 40
0.2807306068
 40
1.0
 40
1.0
 40
1.0
 40
1.0
 10
364.2385368849
 20
406.4187388233
 30
0.0
 10
364.2385368849
 20
406.1837315181
 30
0.0
 10
364.1911316171
 20
405.3513762773
 30
0.0
 10
363.921730327
 20
404.5025498416
 30
0.0
 10
363.5532090506
 20
404.0263767925
 30
0.0
  0
SPLINE
  5
36D
100
AcDbEntity
  8
0
100
AcDbSpline
 62
7
  6
CONTINUOUS
 70
0
 71
3
 72
8
 73
4
 74
0
 42
0.0000001
 43
0.0000001
 44
0.0000000001
 40
0.0
 40
0.0
 40
0.0
 40
0.0
 40
1.0
 40
1.0
 40
1.0
 40
1.0
 10
363.4052344785
 20
403.8524287321
 30
0.0
 10
363.255798723
 20
403.6927002217
 30
0.0
 10
363.0817504078
 20
403.5524746323
 30
0.0
 10
362.8922590692
 20
403.4432167966
 30
0.0
  0
SPLINE
  5
36E
100
AcDbEntity
  8
0
100
AcDbSpline
 62
7
  6
CONTINUOUS
 70
0
 71
3
 72
9
 73
5
 74
0
 42
0.0000001
 43
0.0000001
 44
0.0000000001
 40
0.0
 40
0.0
 40
0.0
 40
0.0
 40
0.7286799961
 40
1.0
 40
1.0
 40
1.0
 40
1.0
 10
753.6548754475
 20
126.2951400668
 30
0.0
 10
753.1884345217
 20
126.0591113633
 30
0.0
 10
752.3639864136
 20
126.0994316563
 30
0.0
 10
751.7277821873
 20
126.4187729511
 30
0.0
 10
751.5590612222
 20
126.5158318843
 30
0.0
  0
SPLINE
  5
36F
100
AcDbEntity
  8
0
100
AcDbSpline
 62
7
  6
CONTINUOUS
 70
0
 71
3
 72
8
 73
4
 74
0
 42
0.0000001
 43
0.0000001
 44
0.0000000001
 40
0.0
 40
0.0
 40
0.0
 40
0.0
 40
1.0
 40
1.0
 40
1.0
 40
1.0
 10
753.6548754475
 20
126.2951400668
 30
0.0
 10
753.8110676016
 20
126.3823977034
 30
0.0
 10
753.9849980916
 20
126.511118329
 30
0.0
 10
754.0227206769
 20
126.6860094114
 30
0.0
  0
SPLINE
  5
370
100
AcDbEntity
  8
0
100
AcDbSpline
 62
7
  6
CONTINUOUS
 70
0
 71
3
 72
10
 73
6
 74
0
 42
0.0000001
 43
0.0000001
 44
0.0000000001
 40
0.0
 40
0.0
 40
0.0
 40
0.0
 40
0.7189510454
 40
0.924227053
 40
1.0
 40
1.0
 40
1.0
 40
1.0
 10
353.1167646857
 20
357.540962713
 30
0.0
 10
352.8872932543
 20
357.4697844795
 30
0.0
 10
352.5855574944
 20
357.3141813674
 30
0.0
 10
352.3668522825
 20
357.1084816299
 30
0.0
 10
352.2379274374
 20
357.0837252072
 30
0.0
 10
352.238632697
 20
357.0584134328
 30
0.0
  0
SPLINE
  5
371
100
AcDbEntity
  8
0
100
AcDbSpline
 62
7
  6
CONTINUOUS
 70
0
 71
3
 72
8
 73
4
 74
0
 42
0.0000001
 43
0.0000001
 44
0.0000000001
 40
0.0
 40
0.0
 40
0.0
 40
0.0
 40
1.0
 40
1.0
 40
1.0
 40
1.0
 10
751.5590612222
 20
126.5158318843
 30
0.0
 10
750.6678064832
 20
127.0285377841
 30
0.0
 10
750.0017621939
 20
127.8908521181
 30
0.0
 10
749.4213536868
 20
128.7395736946
 30
0.0
  0
SPLINE
  5
372
100
AcDbEntity
  8
0
100
AcDbSpline
 62
7
  6
CONTINUOUS
 70
0
 71
3
 72
8
 73
4
 74
0
 42
0.0000001
 43
0.0000001
 44
0.0000000001
 40
0.0
 40
0.0
 40
0.0
 40
0.0
 40
1.0
 40
1.0
 40
1.0
 40
1.0
 10
352.2386330324
 20
1471.2822156901
 30
0.0
 10
352.2384813292
 20
1470.2632004691
 30
0.0
 10
352.5406818434
 20
1469.1945535935
 30
0.0
 10
353.1167646857
 20
1468.3540057944
 30
0.0
  0
SPLINE
  5
373
100
AcDbEntity
  8
0
100
AcDbSpline
 62
7
  6
CONTINUOUS
 70
0
 71
3
 72
11
 73
7
 74
0
 42
0.0000001
 43
0.0000001
 44
0.0000000001
 40
0.0
 40
0.0
 40
0.0
 40
0.0
 40
0.1835917426
 40
0.4352068886
 40
0.7283955701
 40
1.0
 40
1.0
 40
1.0
 40
1.0
 10
362.8922590692
 20
689.2190627919
 30
0.0
 10
362.2122045171
 20
688.8269536375
 30
0.0
 10
360.0930788242
 20
688.9514758151
 30
0.0
 10
357.6261841934
 20
690.9805998088
 30
0.0
 10
355.6811155238
 20
693.9253993133
 30
0.0
 10
355.046110458
 20
696.3403918797
 30
0.0
 10
355.046110458
 20
697.5017146274
 30
0.0
  0
SPLINE
  5
374
100
AcDbEntity
  8
0
100
AcDbSpline
 62
7
  6
CONTINUOUS
 70
0
 71
3
 72
11
 73
7
 74
0
 42
0.0000001
 43
0.0000001
 44
0.0000000001
 40
0.0
 40
0.0
 40
0.0
 40
0.0
 40
0.1835917426
 40
0.4352068886
 40
0.7283955701
 40
1.0
 40
1.0
 40
1.0
 40
1.0
 10
746.1457300989
 20
182.1767278466
 30
0.0
 10
745.4656755468
 20
181.7846186921
 30
0.0
 10
743.3465498539
 20
181.9091408697
 30
0.0
 10
740.8796552231
 20
183.9382648635
 30
0.0
 10
738.9345865534
 20
186.8830643679
 30
0.0
 10
738.2995814876
 20
189.2980569344
 30
0.0
 10
738.2995814876
 20
190.459379682
 30
0.0
  0
SPLINE
  5
375
100
AcDbEntity
  8
0
100
AcDbSpline
 62
7
  6
CONTINUOUS
 70
0
 71
3
 72
11
 73
7
 74
0
 42
0.0000001
 43
0.0000001
 44
0.0000000001
 40
0.0
 40
0.0
 40
0.0
 40
0.0
 40
0.1835917426
 40
0.4352068886
 40
0.7283955701
 40
1.0
 40
1.0
 40
1.0
 40
1.0
 10
746.1457300989
 20
1182.3921888303
 30
0.0
 10
745.4656755468
 20
1182.0000796758
 30
0.0
 10
743.3465498539
 20
1182.1246018535
 30
0.0
 10
740.8796552231
 20
1184.1537258472
 30
0.0
 10
738.9345865534
 20
1187.0985253516
 30
0.0
 10
738.2995814876
 20
1189.5135179181
 30
0.0
 10
738.2995814876
 20
1190.6748406658
 30
0.0
  0
SPLINE
  5
376
100
AcDbEntity
  8
0
100
AcDbSpline
 62
7
  6
CONTINUOUS
 70
0
 71
3
 72
8
 73
4
 74
0
 42
0.0000001
 43
0.0000001
 44
0.0000000001
 40
0.0
 40
0.0
 40
0.0
 40
0.0
 40
1.0
 40
1.0
 40
1.0
 40
1.0
 10
738.2995814876
 20
1190.6748406658
 30
0.0
 10
738.2995814876
 20
1191.0603689475
 30
0.0
 10
738.3365379619
 20
1191.4491964324
 30
0.0
 10
738.4236687786
 20
1191.8247497266
 30
0.0
  0
SPLINE
  5
377
100
AcDbEntity
  8
0
100
AcDbSpline
 62
7
  6
CONTINUOUS
 70
0
 71
3
 72
9
 73
5
 74
0
 42
0.0000001
 43
0.0000001
 44
0.0000000001
 40
0.0
 40
0.0
 40
0.0
 40
0.0
 40
0.2787808137
 40
1.0
 40
1.0
 40
1.0
 40
1.0
 10
738.4236687786
 20
1191.8247497266
 30
0.0
 10
738.4705220277
 20
1192.0266977022
 30
0.0
 10
738.6850769241
 20
1192.7364475177
 30
0.0
 10
739.1812337563
 20
1193.3824666394
 30
0.0
 10
739.6458593033
 20
1193.6503626925
 30
0.0
  0
SPLINE
  5
378
100
AcDbEntity
  8
0
100
AcDbSpline
 62
7
  6
CONTINUOUS
 70
0
 71
3
 72
8
 73
4
 74
0
 42
0.0000001
 43
0.0000001
 44
0.0000000001
 40
0.0
 40
0.0
 40
0.0
 40
0.0
 40
1.0
 40
1.0
 40
1.0
 40
1.0
 10
738.2995814876
 20
476.2352256774
 30
0.0
 10
738.2995814876
 20
476.6207539591
 30
0.0
 10
738.3365379619
 20
477.009581444
 30
0.0
 10
738.4236687786
 20
477.3851347382
 30
0.0
  0
SPLINE
  5
379
100
AcDbEntity
  8
0
100
AcDbSpline
 62
7
  6
CONTINUOUS
 70
0
 71
3
 72
9
 73
5
 74
0
 42
0.0000001
 43
0.0000001
 44
0.0000000001
 40
0.0
 40
0.0
 40
0.0
 40
0.0
 40
0.2787808137
 40
1.0
 40
1.0
 40
1.0
 40
1.0
 10
738.4236687786
 20
477.3851347382
 30
0.0
 10
738.4705220277
 20
477.5870827138
 30
0.0
 10
738.6850769241
 20
478.2968325294
 30
0.0
 10
739.1812337563
 20
478.942851651
 30
0.0
 10
739.6458593033
 20
479.2107477041
 30
0.0
  0
SPLINE
  5
37A
100
AcDbEntity
  8
0
100
AcDbSpline
 62
7
  6
CONTINUOUS
 70
0
 71
3
 72
8
 73
4
 74
0
 42
0.0000001
 43
0.0000001
 44
0.0000000001
 40
0.0
 40
0.0
 40
0.0
 40
0.0
 40
1.0
 40
1.0
 40
1.0
 40
1.0
 10
738.2995814876
 20
904.8989946704
 30
0.0
 10
738.2995814876
 20
905.2845229521
 30
0.0
 10
738.3365379619
 20
905.673350437
 30
0.0
 10
738.4236687786
 20
906.0489037312
 30
0.0
  0
SPLINE
  5
37B
100
AcDbEntity
  8
0
100
AcDbSpline
 62
7
  6
CONTINUOUS
 70
0
 71
3
 72
9
 73
5
 74
0
 42
0.0000001
 43
0.0000001
 44
0.0000000001
 40
0.0
 40
0.0
 40
0.0
 40
0.0
 40
0.2787808137
 40
1.0
 40
1.0
 40
1.0
 40
1.0
 10
738.4236687786
 20
906.0489037312
 30
0.0
 10
738.4705220277
 20
906.2508517068
 30
0.0
 10
738.6850769241
 20
906.9606015224
 30
0.0
 10
739.1812337563
 20
907.6066206441
 30
0.0
 10
739.6458593033
 20
907.8745166971
 30
0.0
  0
SPLINE
  5
37C
100
AcDbEntity
  8
0
100
AcDbSpline
 62
7
  6
CONTINUOUS
 70
0
 71
3
 72
8
 73
4
 74
0
 42
0.0000001
 43
0.0000001
 44
0.0000000001
 40
0.0
 40
0.0
 40
0.0
 40
0.0
 40
1.0
 40
1.0
 40
1.0
 40
1.0
 10
738.2995814876
 20
190.459379682
 30
0.0
 10
738.2995814876
 20
190.8449079637
 30
0.0
 10
738.3365379619
 20
191.2337354487
 30
0.0
 10
738.4236687786
 20
191.6092887428
 30
0.0
  0
SPLINE
  5
37D
100
AcDbEntity
  8
0
100
AcDbSpline
 62
7
  6
CONTINUOUS
 70
0
 71
3
 72
9
 73
5
 74
0
 42
0.0000001
 43
0.0000001
 44
0.0000000001
 40
0.0
 40
0.0
 40
0.0
 40
0.0
 40
0.2787808137
 40
1.0
 40
1.0
 40
1.0
 40
1.0
 10
738.4236687786
 20
191.6092887428
 30
0.0
 10
738.4705220277
 20
191.8112367184
 30
0.0
 10
738.6850769241
 20
192.520986534
 30
0.0
 10
739.1812337563
 20
193.1670056557
 30
0.0
 10
739.6458593033
 20
193.4349017087
 30
0.0
  0
SPLINE
  5
37E
100
AcDbEntity
  8
0
100
AcDbSpline
 62
7
  6
CONTINUOUS
 70
0
 71
3
 72
8
 73
4
 74
0
 42
0.0000001
 43
0.0000001
 44
0.0000000001
 40
0.0
 40
0.0
 40
0.0
 40
0.0
 40
1.0
 40
1.0
 40
1.0
 40
1.0
 10
355.046110458
 20
1411.9413296158
 30
0.0
 10
355.046110458
 20
1412.3268578975
 30
0.0
 10
355.0830669322
 20
1412.7156853824
 30
0.0
 10
355.1701977489
 20
1413.0912386766
 30
0.0
  0
SPLINE
  5
37F
100
AcDbEntity
  8
0
100
AcDbSpline
 62
7
  6
CONTINUOUS
 70
0
 71
3
 72
9
 73
5
 74
0
 42
0.0000001
 43
0.0000001
 44
0.0000000001
 40
0.0
 40
0.0
 40
0.0
 40
0.0
 40
0.2787808137
 40
1.0
 40
1.0
 40
1.0
 40
1.0
 10
355.1701977489
 20
1413.0912386766
 30
0.0
 10
355.2170509981
 20
1413.2931866522
 30
0.0
 10
355.4316058944
 20
1414.0029364678
 30
0.0
 10
355.9277627267
 20
1414.6489555894
 30
0.0
 10
356.3923882736
 20
1414.9168516425
 30
0.0
  0
SPLINE
  5
380
100
AcDbEntity
  8
0
100
AcDbSpline
 62
7
  6
CONTINUOUS
 70
0
 71
3
 72
8
 73
4
 74
0
 42
0.0000001
 43
0.0000001
 44
0.0000000001
 40
0.0
 40
0.0
 40
0.0
 40
0.0
 40
1.0
 40
1.0
 40
1.0
 40
1.0
 10
355.046110458
 20
697.5017146274
 30
0.0
 10
355.046110458
 20
697.8872429091
 30
0.0
 10
355.0830669322
 20
698.276070394
 30
0.0
 10
355.1701977489
 20
698.6516236882
 30
0.0
  0
SPLINE
  5
381
100
AcDbEntity
  8
0
100
AcDbSpline
 62
7
  6
CONTINUOUS
 70
0
 71
3
 72
9
 73
5
 74
0
 42
0.0000001
 43
0.0000001
 44
0.0000000001
 40
0.0
 40
0.0
 40
0.0
 40
0.0
 40
0.2787808137
 40
1.0
 40
1.0
 40
1.0
 40
1.0
 10
355.1701977489
 20
698.6516236882
 30
0.0
 10
355.2170509981
 20
698.8535716638
 30
0.0
 10
355.4316058944
 20
699.5633214794
 30
0.0
 10
355.9277627267
 20
700.209340601
 30
0.0
 10
356.3923882736
 20
700.4772366541
 30
0.0
  0
SPLINE
  5
382
100
AcDbEntity
  8
0
100
AcDbSpline
 62
7
  6
CONTINUOUS
 70
0
 71
3
 72
8
 73
4
 74
0
 42
0.0000001
 43
0.0000001
 44
0.0000000001
 40
0.0
 40
0.0
 40
0.0
 40
0.0
 40
1.0
 40
1.0
 40
1.0
 40
1.0
 10
355.046110458
 20
1126.1654836204
 30
0.0
 10
355.046110458
 20
1126.5510119021
 30
0.0
 10
355.0830669322
 20
1126.939839387
 30
0.0
 10
355.1701977489
 20
1127.3153926812
 30
0.0
  0
SPLINE
  5
383
100
AcDbEntity
  8
0
100
AcDbSpline
 62
7
  6
CONTINUOUS
 70
0
 71
3
 72
9
 73
5
 74
0
 42
0.0000001
 43
0.0000001
 44
0.0000000001
 40
0.0
 40
0.0
 40
0.0
 40
0.0
 40
0.2787808137
 40
1.0
 40
1.0
 40
1.0
 40
1.0
 10
355.1701977489
 20
1127.3153926812
 30
0.0
 10
355.2170509981
 20
1127.5173406568
 30
0.0
 10
355.4316058944
 20
1128.2270904724
 30
0.0
 10
355.9277627267
 20
1128.8731095941
 30
0.0
 10
356.3923882736
 20
1129.1410056471
 30
0.0
  0
SPLINE
  5
384
100
AcDbEntity
  8
0
100
AcDbSpline
 62
7
  6
CONTINUOUS
 70
0
 71
3
 72
11
 73
7
 74
0
 42
0.0000001
 43
0.0000001
 44
0.0000000001
 40
0.0
 40
0.0
 40
0.0
 40
0.0
 40
0.1835917426
 40
0.4352068886
 40
0.7283955701
 40
1.0
 40
1.0
 40
1.0
 40
1.0
 10
362.8922590692
 20
403.4432167966
 30
0.0
 10
362.2122045171
 20
403.0511076421
 30
0.0
 10
360.0930788242
 20
403.1756298197
 30
0.0
 10
357.6261841934
 20
405.2047538135
 30
0.0
 10
355.6811155238
 20
408.1495533179
 30
0.0
 10
355.046110458
 20
410.5645458844
 30
0.0
 10
355.046110458
 20
411.725868632
 30
0.0
  0
SPLINE
  5
385
100
AcDbEntity
  8
0
100
AcDbSpline
 62
7
  6
CONTINUOUS
 70
0
 71
3
 72
8
 73
4
 74
0
 42
0.0000001
 43
0.0000001
 44
0.0000000001
 40
0.0
 40
0.0
 40
0.0
 40
0.0
 40
1.0
 40
1.0
 40
1.0
 40
1.0
 10
355.046110458
 20
411.725868632
 30
0.0
 10
355.046110458
 20
412.1113969137
 30
0.0
 10
355.0830669322
 20
412.5002243987
 30
0.0
 10
355.1701977489
 20
412.8757776928
 30
0.0
  0
SPLINE
  5
386
100
AcDbEntity
  8
0
100
AcDbSpline
 62
7
  6
CONTINUOUS
 70
0
 71
3
 72
9
 73
5
 74
0
 42
0.0000001
 43
0.0000001
 44
0.0000000001
 40
0.0
 40
0.0
 40
0.0
 40
0.0
 40
0.2787808137
 40
1.0
 40
1.0
 40
1.0
 40
1.0
 10
355.1701977489
 20
412.8757776928
 30
0.0
 10
355.2170509981
 20
413.0777256684
 30
0.0
 10
355.4316058944
 20
413.787475484
 30
0.0
 10
355.9277627267
 20
414.4334946057
 30
0.0
 10
356.3923882736
 20
414.7013906587
 30
0.0
  0
SPLINE
  5
387
100
AcDbEntity
  8
0
100
AcDbSpline
 62
7
  6
CONTINUOUS
 70
0
 71
3
 72
10
 73
6
 74
0
 42
0.0000001
 43
0.0000001
 44
0.0000000001
 40
0.0
 40
0.0
 40
0.0
 40
0.0
 40
0.1960810926
 40
0.4408423471
 40
1.0
 40
1.0
 40
1.0
 40
1.0
 10
749.4213536868
 20
1239.5526167761
 30
0.0
 10
749.7265429273
 20
1239.6471529501
 30
0.0
 10
750.3291863175
 20
1240.0633842248
 30
0.0
 10
751.7407303927
 20
1240.8618129093
 30
0.0
 10
752.8904099275
 20
1241.4994828304
 30
0.0
 10
753.6548754475
 20
1241.9951507592
 30
0.0
  0
SPLINE
  5
388
100
AcDbEntity
  8
0
100
AcDbSpline
 62
7
  6
CONTINUOUS
 70
0
 71
3
 72
9
 73
5
 74
0
 42
0.0000001
 43
0.0000001
 44
0.0000000001
 40
0.0
 40
0.0
 40
0.0
 40
0.0
 40
0.6937432228
 40
1.0
 40
1.0
 40
1.0
 40
1.0
 10
754.0817290901
 20
1242.2532394544
 30
0.0
 10
753.9805213041
 20
1242.1920283846
 30
0.0
 10
753.8358419203
 20
1242.1017870984
 30
0.0
 10
753.6884222605
 20
1242.0161148957
 30
0.0
 10
753.6431159811
 20
1241.990158835
 30
0.0
  0
SPLINE
  5
389
100
AcDbEntity
  8
0
100
AcDbSpline
 62
7
  6
CONTINUOUS
 70
0
 71
3
 72
8
 73
4
 74
0
 42
0.0000001
 43
0.0000001
 44
0.0000000001
 40
0.0
 40
0.0
 40
0.0
 40
0.0
 40
1.0
 40
1.0
 40
1.0
 40
1.0
 10
760.5518932557
 20
1210.4433213927
 30
0.0
 10
760.760988202
 20
1210.636514443
 30
0.0
 10
760.9317810322
 20
1210.9234928982
 30
0.0
 10
760.9318883943
 20
1211.2081755983
 30
0.0
  0
SPLINE
  5
38A
100
AcDbEntity
  8
0
100
AcDbSpline
 62
7
  6
CONTINUOUS
 70
0
 71
3
 72
11
 73
7
 74
0
 42
0.0000001
 43
0.0000001
 44
0.0000000001
 40
0.0
 40
0.0
 40
0.0
 40
0.0
 40
0.1835917426
 40
0.4352068886
 40
0.7283955701
 40
1.0
 40
1.0
 40
1.0
 40
1.0
 10
746.1457300989
 20
896.616342835
 30
0.0
 10
745.4656755468
 20
896.2242336805
 30
0.0
 10
743.3465498539
 20
896.3487558581
 30
0.0
 10
740.8796552231
 20
898.3778798518
 30
0.0
 10
738.9345865534
 20
901.3226793563
 30
0.0
 10
738.2995814876
 20
903.7376719228
 30
0.0
 10
738.2995814876
 20
904.8989946704
 30
0.0
  0
SPLINE
  5
38B
100
AcDbEntity
  8
0
100
AcDbSpline
 62
7
  6
CONTINUOUS
 70
0
 71
3
 72
11
 73
7
 74
0
 42
0.0000001
 43
0.0000001
 44
0.0000000001
 40
0.0
 40
0.0
 40
0.0
 40
0.0
 40
0.1835917426
 40
0.4352068886
 40
0.7283955701
 40
1.0
 40
1.0
 40
1.0
 40
1.0
 10
362.8922590692
 20
1117.882831785
 30
0.0
 10
362.2122045171
 20
1117.4907226305
 30
0.0
 10
360.0930788242
 20
1117.6152448081
 30
0.0
 10
357.6261841934
 20
1119.6443688018
 30
0.0
 10
355.6811155238
 20
1122.5891683063
 30
0.0
 10
355.046110458
 20
1125.0041608728
 30
0.0
 10
355.046110458
 20
1126.1654836204
 30
0.0
  0
SPLINE
  5
38C
100
AcDbEntity
  8
0
100
AcDbSpline
 62
7
  6
CONTINUOUS
 70
0
 71
3
 72
11
 73
7
 74
0
 42
0.0000001
 43
0.0000001
 44
0.0000000001
 40
0.0
 40
0.0
 40
0.0
 40
0.0
 40
0.1835917426
 40
0.4352068886
 40
0.7283955701
 40
1.0
 40
1.0
 40
1.0
 40
1.0
 10
746.1457300989
 20
467.9525738419
 30
0.0
 10
745.4656755468
 20
467.5604646875
 30
0.0
 10
743.3465498539
 20
467.6849868651
 30
0.0
 10
740.8796552231
 20
469.7141108588
 30
0.0
 10
738.9345865534
 20
472.6589103633
 30
0.0
 10
738.2995814876
 20
475.0739029297
 30
0.0
 10
738.2995814876
 20
476.2352256774
 30
0.0
  0
SPLINE
  5
38D
100
AcDbEntity
  8
0
100
AcDbSpline
 62
7
  6
CONTINUOUS
 70
0
 71
3
 72
11
 73
7
 74
0
 42
0.0000001
 43
0.0000001
 44
0.0000000001
 40
0.0
 40
0.0
 40
0.0
 40
0.0
 40
0.1835917426
 40
0.4352068886
 40
0.7283955701
 40
1.0
 40
1.0
 40
1.0
 40
1.0
 10
362.8922590692
 20
1403.6586777803
 30
0.0
 10
362.2122045171
 20
1403.2665686258
 30
0.0
 10
360.0930788242
 20
1403.3910908035
 30
0.0
 10
357.6261841934
 20
1405.4202147972
 30
0.0
 10
355.6811155238
 20
1408.3650143017
 30
0.0
 10
355.046110458
 20
1410.7800068681
 30
0.0
 10
355.046110458
 20
1411.9413296158
 30
0.0
  0
ELLIPSE
  5
38E
100
AcDbEntity
  8
0
100
AcDbEllipse
 62
7
  6
CONTINUOUS
 10
759.6537652731
 20
195.1187221577
 30
0.0
 11
3.9897363519
 21
-0.659194334
 31
0.0
 40
0.4344138212
 41
0.6352989396
 42
0.857054404
  0
ELLIPSE
  5
38F
100
AcDbEntity
  8
0
100
AcDbEllipse
 62
7
  6
CONTINUOUS
 10
470.1630437979
 20
1475.4588050282
 30
0.0
 11
3.9374589769
 21
1.02581769
 31
0.0
 40
0.6868360053
 41
0.6083364066
 42
3.7499290601
  0
ELLIPSE
  5
390
100
AcDbEntity
  8
0
100
AcDbEllipse
 62
7
  6
CONTINUOUS
 10
758.2395458228
 20
1309.1415216367
 30
0.0
 11
3.9374589769
 21
1.02581769
 31
0.0
 40
0.6868360053
 41
6.8915217137
 42
10.0331143673
  0
ELLIPSE
  5
391
100
AcDbEntity
  8
0
100
AcDbEllipse
 62
7
  6
CONTINUOUS
 10
759.6537652731
 20
1308.3250401276
 30
0.0
 11
3.9374589769
 21
1.02581769
 31
0.0
 40
0.6868360053
 41
3.7499290601
 42
6.8915217137
  0
ELLIPSE
  5
392
100
AcDbEntity
  8
0
100
AcDbEllipse
 62
7
  6
CONTINUOUS
 10
471.5772632482
 20
1474.6423235192
 30
0.0
 11
3.9374589769
 21
1.02581769
 31
0.0
 40
0.6868360053
 41
3.7499290601
 42
6.8915217137
  0
ELLIPSE
  5
393
100
AcDbEntity
  8
0
100
AcDbEllipse
 62
7
  6
CONTINUOUS
 10
703.085458296
 20
1275.6655078179
 30
0.0
 11
3.9897363519
 21
-0.659194334
 31
0.0
 40
0.4344138212
 41
3.9986470576
 42
7.1402397112
  0
ELLIPSE
  5
394
100
AcDbEntity
  8
0
100
AcDbEllipse
 62
7
  6
CONTINUOUS
 10
701.6712388457
 20
1276.481989327
 30
0.0
 11
3.9897363519
 21
-0.659194334
 31
0.0
 40
0.4344138212
 41
7.1402397112
 42
10.2818323648
  0
ELLIPSE
  5
395
100
AcDbEntity
  8
0
100
AcDbEllipse
 62
7
  6
CONTINUOUS
 10
413.5947368208
 20
1442.7992727185
 30
0.0
 11
3.9897363519
 21
-0.659194334
 31
0.0
 40
0.4344138212
 41
7.1402397112
 42
10.2818323648
  0
ELLIPSE
  5
396
100
AcDbEntity
  8
0
100
AcDbEllipse
 62
7
  6
CONTINUOUS
 10
415.0089562711
 20
1441.9827912095
 30
0.0
 11
3.9897363519
 21
-0.659194334
 31
0.0
 40
0.4344138212
 41
3.9986470576
 42
7.1402397112
  0
ENDSEC
  0
SECTION
  2
OBJECTS
  0
DICTIONARY
  5
C
100
AcDbDictionary
280
0
281
1
  3
ACAD_GROUP
350
D
  3
ACAD_MLINESTYLE
350
17
  3
ACAD_LAYOUT
350
1A
  3
ACAD_PLOTSETTINGS
350
19
  3
ACAD_PLOTSTYLENAME
350
E
  0
DICTIONARY
  5
D
102
{ACAD_REACTORS
330
C
102
}
100
AcDbDictionary
280
0
281
1
  0
ACDBDICTIONARYWDFLT
  5
E
102
{ACAD_REACTORS
330
C
102
}
100
AcDbDictionary
281
1
  3
Normal
350
F
100
AcDbDictionaryWithDefault
340
F
  0
DICTIONARY
  5
17
102
{ACAD_REACTORS
330
C
102
}
100
AcDbDictionary
280
0
281
1
  3
Standard
350
18
  0
DICTIONARY
  5
19
102
{ACAD_REACTORS
330
C
102
}
100
AcDbDictionary
281
1
  0
DICTIONARY
  5
1A
102
{ACAD_REACTORS
330
C
102
}
100
AcDbDictionary
281
1
  3
Model
350
397
  3
Layout1
350
398
  0
ACDBPLACEHOLDER
  5
F
102
{ACAD_REACTORS
330
E
102
}
  0
MLINESTYLE
  5
18
102
{ACAD_REACTORS
330
17
102
}
100
AcDbMlineStyle
  2
STANDARD
 70
0
  3

 62
256
 51
90.0
 52
90.0
 71
2
 49
0.5
 62
256
  6
BYLAYER
 49
-0.5
 62
256
  6
BYLAYER
  0
LAYOUT
  5
397
102
{ACAD_REACTORS
330
1A
102
}
100
AcDbPlotSettings
  1

  2
none_device
  4

  6

 40
0.0
 41
0.0
 42
0.0
 43
0.0
 44
210.0
 45
297.0
 46
0.0
 47
0.0
 48
0.0
 49
0.0
140
0.0
141
0.0
142
1.0
143
1.0
 70
1024
 72
1
 73
0
 74
0
  7

 75
0
147
1.0
148
0.0
149
0.0
100
AcDbLayout
  1
Model
 70
0
 71
0
 10
0.0
 20
0.0
 11
210.0
 21
297.0
 12
0.0
 22
0.0
 32
0.0
 14
0.0
 24
0.0
 34
0.0
 15
0.0
 25
0.0
 35
0.0
146
0.0
 13
0.0
 23
0.0
 33
0.0
 16
1.0
 26
0.0
 36
0.0
 17
0.0
 27
1.0
 37
0.0
 76
0
330
210
345
0
346
0
  0
LAYOUT
  5
398
102
{ACAD_REACTORS
330
1A
102
}
100
AcDbPlotSettings
  1

  2
none_device
  4

  6

 40
0.0
 41
0.0
 42
0.0
 43
0.0
 44
210.0
 45
297.0
 46
0.0
 47
0.0
 48
0.0
 49
0.0
140
0.0
141
0.0
142
1.0
143
1.0
 70
0
 72
1
 73
0
 74
0
  7

 75
0
147
1.0
148
0.0
149
0.0
100
AcDbLayout
  1
Layout1
 70
0
 71
1
 10
0.0
 20
0.0
 11
210.0
 21
297.0
 12
0.0
 22
0.0
 32
0.0
 14
0.0
 24
0.0
 34
0.0
 15
0.0
 25
0.0
 35
0.0
146
0.0
 13
0.0
 23
0.0
 33
0.0
 16
1.0
 26
0.0
 36
0.0
 17
0.0
 27
1.0
 37
0.0
 76
0
330
211
345
0
346
0
  0
ENDSEC
  0
EOF
