999
DXF file: C:\Users\sesa63760\Dev\_Creo\CAD\MCADPD0004409_3D-CAD\drw0001_5.dxf
999
Pro/ENGINEER 2019471 by Parametric Technology Corporation
  0
SECTION
  2
HEADER
  9
$ACADVER
  1
AC1024
  9
$DWGCODEPAGE
  3
ANSI_1252
  9
$EXTMAX
 10
198.8516978059
 20
281.2331154684
 30
0.0
  9
$EXTMIN
 10
0.0
 20
0.0
 30
0.0
  9
$LIMMIN
 10
0.0
 20
0.0
  9
$LIMMAX
 10
198.8516978059
 20
281.2331154684
  9
$VIEWCTR
 10
99.425848903
 20
140.6165577342
  9
$VIEWSIZE
 40
281.2331154684
  9
$CLAYER
  8
0
  9
$LTSCALE
 40
18.332232712
  9
$CELTYPE
  6
BYLAYER
  9
$DIMSCALE
 40
1.0
  9
$DIMASZ
 40
2.3672821167
  9
$DIMEXO
 40
1.0
  9
$DIMDLI
 40
12.6659062374
  9
$DIMEXE
 40
1.0
  9
$DIMCEN
 40
2.9998198983
  9
$DIMLFAC
 40
1.0
  9
$DIMBLK
  1
_FILLED
  9
$DIMALT
 70
0
  9
$DIMALTF
 40
0.0393700787
  9
$DIMTXT
 40
3.3141949634
  9
$DIMTOL
 70
1
  9
$DIMLIM
 70
0
  9
$DIMTFAC
 40
1.0
  9
$DIMTP
 40
0.01
  9
$DIMTM
 40
0.01
  9
$DIMGAP
 40
0.625
  9
$DIMDSEP
 70
46
  9
$AUNITS
 70
0
  9
$PDMODE
 70
3
  9
$PDSIZE
 40
0.3125
  9
$HANDSEED
  5
261
  9
$TILEMODE
 70
1
  9
$MEASUREMENT
 70
1
  9
$INSUNITS
 70
4
  0
ENDSEC
  0
SECTION
  2
CLASSES
  0
CLASS
  1
ACDBDICTIONARYWDFLT
  2
AcDbDictionaryWithDefault
  3
AutoCAD 2000
 90
0
 91
1
280
0
281
0
  0
CLASS
  1
ACDBPLACEHOLDER
  2
AcDbPlaceHolder
  3
AutoCAD 2000
 90
0
 91
1
280
0
281
0
  0
CLASS
  1
LAYOUT
  2
AcDbLayout
  3
AutoCAD 2000
 90
0
 91
0
280
0
281
0
  0
ENDSEC
  0
SECTION
  2
TABLES
  0
TABLE
  2
VPORT
  5
8
100
AcDbSymbolTable
 70
2
  0
VPORT
  5
1F4
100
AcDbSymbolTableRecord
100
AcDbViewportTableRecord
  2
*ACTIVE
 70
0
 10
0.0
 20
0.0
 11
1.0
 21
1.0
 12
99.425848903
 22
140.6165577342
 13
0.0
 23
0.0
 14
1.0
 24
1.0
 15
0.0
 25
0.0
 16
0.0
 26
0.0
 36
1.0
 17
0.0
 27
0.0
 37
0.0
 40
281.2331154684
 41
0.7070707071
 42
50.0
 43
0.0
 44
0.0
 50
0.0
 51
0.0
 71
0
 72
100
 73
1
 74
1
 75
0
 76
0
 77
0
 78
0
  0
ENDTAB
  0
TABLE
  2
LTYPE
  5
5
100
AcDbSymbolTable
 70
6
  0
LTYPE
  5
14
100
AcDbSymbolTableRecord
100
AcDbLinetypeTableRecord
  2
BYBLOCK
 70
0
  3

 72
65
 73
0
 40
0.0
  0
LTYPE
  5
15
100
AcDbSymbolTableRecord
100
AcDbLinetypeTableRecord
  2
BYLAYER
 70
0
  3

 72
65
 73
0
 40
0.0
  0
LTYPE
  5
16
100
AcDbSymbolTableRecord
100
AcDbLinetypeTableRecord
  2
CONTINUOUS
 70
64
  3
Solid line
 72
65
 73
0
 40
0.0
  0
LTYPE
  5
1F5
100
AcDbSymbolTableRecord
100
AcDbLinetypeTableRecord
  2
CENTER
 70
64
  3
____ _ ____ _ ____ _ ____ _ ____ _ ____ _ ____
 72
65
 73
4
 40
0.6
 49
0.375
 74
0
 49
-0.075
 74
0
 49
0.075
 74
0
 49
-0.075
 74
0
  0
LTYPE
  5
1F6
100
AcDbSymbolTableRecord
100
AcDbLinetypeTableRecord
  2
HIDDEN
 70
64
  3
- - - - - - - - - - - - - - - - - - - -
 72
65
 73
2
 40
0.2
 49
0.1
 74
0
 49
-0.1
 74
0
  0
LTYPE
  5
1F7
100
AcDbSymbolTableRecord
100
AcDbLinetypeTableRecord
  2
PHANTOM
 70
64
  3
_____ _ _ _____ _ _ _____ _ _ _____
 72
65
 73
6
 40
0.8
 49
0.45
 74
0
 49
-0.05
 74
0
 49
0.1
 74
0
 49
-0.05
 74
0
 49
0.1
 74
0
 49
-0.05
 74
0
  0
LTYPE
  5
1F8
100
AcDbSymbolTableRecord
100
AcDbLinetypeTableRecord
  2
DOT
 70
64
  3
. . . . . . . . . . . . . . . . . . . .
 72
65
 73
2
 40
0.2
 49
0.1
 74
0
 49
-0.1
 74
0
  0
LTYPE
  5
1F9
100
AcDbSymbolTableRecord
100
AcDbLinetypeTableRecord
  2
DASHED
 70
64
  3
- - - - - - - - - - - - - - - - - - - -
 72
65
 73
2
 40
0.2
 49
0.1
 74
0
 49
-0.1
 74
0
  0
ENDTAB
  0
TABLE
  2
LAYER
  5
2
100
AcDbSymbolTable
 70
36
  0
LAYER
  5
10
100
AcDbSymbolTableRecord
100
AcDbLayerTableRecord
  2
0
 70
0
 62
7
  6
CONTINUOUS
370
-3
390
F
  0
LAYER
  5
1FA
100
AcDbSymbolTableRecord
100
AcDbLayerTableRecord
  2
DEFAULT_1
 70
0
 62
7
  6
CENTER
370
-3
390
F
  0
LAYER
  5
1FB
100
AcDbSymbolTableRecord
100
AcDbLayerTableRecord
  2
DEFAULT_2
 70
0
 62
7
  6
HIDDEN
370
-3
390
F
  0
LAYER
  5
1FC
100
AcDbSymbolTableRecord
100
AcDbLayerTableRecord
  2
DEFAULT_3
 70
0
 62
7
  6
PHANTOM
370
-3
390
F
  0
LAYER
  5
1FD
100
AcDbSymbolTableRecord
100
AcDbLayerTableRecord
  2
00_COMPONENTS
 70
0
 62
7
  6
CONTINUOUS
370
-3
390
F
  0
LAYER
  5
1FE
100
AcDbSymbolTableRecord
100
AcDbLayerTableRecord
  2
01_1_DEFAULT_DATUMS
 70
0
 62
7
  6
CONTINUOUS
370
-3
390
F
  0
LAYER
  5
1FF
100
AcDbSymbolTableRecord
100
AcDbLayerTableRecord
  2
01_PLANES
 70
0
 62
7
  6
CONTINUOUS
370
-3
390
F
  0
LAYER
  5
200
100
AcDbSymbolTableRecord
100
AcDbLayerTableRecord
  2
02_COORD_SYS
 70
0
 62
7
  6
CONTINUOUS
370
-3
390
F
  0
LAYER
  5
201
100
AcDbSymbolTableRecord
100
AcDbLayerTableRecord
  2
03_AXES
 70
0
 62
7
  6
CONTINUOUS
370
-3
390
F
  0
LAYER
  5
202
100
AcDbSymbolTableRecord
100
AcDbLayerTableRecord
  2
04_POINTS
 70
0
 62
7
  6
CONTINUOUS
370
-3
390
F
  0
LAYER
  5
203
100
AcDbSymbolTableRecord
100
AcDbLayerTableRecord
  2
05_CURVES
 70
0
 62
7
  6
CONTINUOUS
370
-3
390
F
  0
LAYER
  5
204
100
AcDbSymbolTableRecord
100
AcDbLayerTableRecord
  2
06_SURFS
 70
0
 62
7
  6
CONTINUOUS
370
-3
390
F
  0
LAYER
  5
205
100
AcDbSymbolTableRecord
100
AcDbLayerTableRecord
  2
07_COSMETICS
 70
0
 62
7
  6
CONTINUOUS
370
-3
390
F
  0
LAYER
  5
206
100
AcDbSymbolTableRecord
100
AcDbLayerTableRecord
  2
10_NOTES
 70
0
 62
7
  6
CONTINUOUS
370
-3
390
F
  0
LAYER
  5
207
100
AcDbSymbolTableRecord
100
AcDbLayerTableRecord
  2
11_NOTES_PUB
 70
0
 62
7
  6
CONTINUOUS
370
-3
390
F
  0
LAYER
  5
208
100
AcDbSymbolTableRecord
100
AcDbLayerTableRecord
  2
13_REF_GTOL
 70
0
 62
7
  6
CONTINUOUS
370
-3
390
F
  0
LAYER
  5
209
100
AcDbSymbolTableRecord
100
AcDbLayerTableRecord
  2
16_MISC
 70
0
 62
7
  6
CONTINUOUS
370
-3
390
F
  0
LAYER
  5
20A
100
AcDbSymbolTableRecord
100
AcDbLayerTableRecord
  2
17_NO_PRINT
 70
0
 62
7
  6
CONTINUOUS
370
-3
390
F
  0
LAYER
  5
20B
100
AcDbSymbolTableRecord
100
AcDbLayerTableRecord
  2
18_DATUM_CAMS_JOINTS
 70
0
 62
7
  6
CONTINUOUS
370
-3
390
F
  0
LAYER
  5
20C
100
AcDbSymbolTableRecord
100
AcDbLayerTableRecord
  2
19_DATUM_FUNCTIONAL
 70
0
 62
7
  6
CONTINUOUS
370
-3
390
F
  0
LAYER
  5
20D
100
AcDbSymbolTableRecord
100
AcDbLayerTableRecord
  2
20_DATUM_KINEMATIC_SCHEME
 70
0
 62
7
  6
CONTINUOUS
370
-3
390
F
  0
ENDTAB
  0
TABLE
  2
STYLE
  5
3
100
AcDbSymbolTable
 70
1
  0
STYLE
  5
11
100
AcDbSymbolTableRecord
100
AcDbTextStyleTableRecord
  2
STANDARD
 70
0
 40
0.0
 41
1.0
 50
0.0
 71
0
 42
0.2
  3
ARIAL.TTF
  4

  0
STYLE
  5
20E
100
AcDbSymbolTableRecord
100
AcDbTextStyleTableRecord
  2
TEXTSTYLE_1
 70
0
 40
0.0
 41
0.8
 50
0.0
 71
0
 42
0.2
  3
gdt
  4

  0
ENDTAB
  0
TABLE
  2
VIEW
  5
6
100
AcDbSymbolTable
 70
0
  0
ENDTAB
  0
TABLE
  2
UCS
  5
7
100
AcDbSymbolTable
 70
0
  0
ENDTAB
  0
TABLE
  2
APPID
  5
9
100
AcDbSymbolTable
 70
1
  0
APPID
  5
20F
100
AcDbSymbolTableRecord
100
AcDbRegAppTableRecord
  2
ACAD
 70
0
  0
ENDTAB
  0
TABLE
  2
BLOCK_RECORD
  5
1
100
AcDbSymbolTable
 70
0
  0
BLOCK_RECORD
  5
210
100
AcDbSymbolTableRecord
100
AcDbBlockTableRecord
  2
*Model_Space
  0
BLOCK_RECORD
  5
211
100
AcDbSymbolTableRecord
100
AcDbBlockTableRecord
  2
*Paper_Space
  0
BLOCK_RECORD
  5
212
100
AcDbSymbolTableRecord
100
AcDbBlockTableRecord
  2
_FILLED
  0
ENDTAB
  0
TABLE
  2
DIMSTYLE
  5
A
100
AcDbSymbolTable
 70
1
100
AcDbDimStyleTable
 71
0
  0
DIMSTYLE
105
213
100
AcDbSymbolTableRecord
100
AcDbDimStyleTableRecord
  2
STANDARD
 70
0
  3

  4

 40
1.0
 41
2.3672821167
 42
1.0
 43
0.38
 44
1.0
 45
0.0
 46
0.0
 47
0.01
 48
0.01
140
3.3141949634
141
0.09
142
0.0
143
25.4
144
1.0
145
0.0
146
1.0
147
0.625
 71
1
 72
0
 73
0
 74
0
 75
0
 76
0
 77
1
 78
8
 79
2
170
0
171
1
172
0
173
0
174
0
175
0
176
0
177
0
178
0
270
2
179
2
271
2
272
2
273
2
274
2
275
0
280
0
281
0
282
0
283
1
284
8
285
0
286
0
287
3
288
0
340
11
278
46
341
212
342
212
343
212
344
212
  0
ENDTAB
  0
ENDSEC
  0
SECTION
  2
BLOCKS
  0
BLOCK
  5
20
100
AcDbEntity
  8
0
100
AcDbBlockBegin
  2
*Model_Space
 70
0
 10
0.0
 20
0.0
 30
0.0
  3
*Model_Space
  1

  0
ENDBLK
  5
21
100
AcDbEntity
  8
0
100
AcDbBlockEnd
  0
BLOCK
  5
1C
100
AcDbEntity
  8
0
100
AcDbBlockBegin
  2
*Paper_Space
 70
0
 10
0.0
 20
0.0
 30
0.0
  3
*Paper_Space
  1

  0
ENDBLK
  5
1D
100
AcDbEntity
  8
0
100
AcDbBlockEnd
  0
BLOCK
  5
214
100
AcDbEntity
  8
0
100
AcDbBlockBegin
  2
_FILLED
 70
64
 10
0.0
 20
0.0
  3
_FILLED
  1

  0
SOLID
  5
215
100
AcDbEntity
  8
0
  6
BYBLOCK
 62
0
100
AcDbTrace
 10
0.0
 20
0.0
 11
-1.0
 21
0.25
 12
-1.0
 22
-0.25
 13
-1.0
 23
-0.25
  0
ENDBLK
  5
216
100
AcDbEntity
  8
0
  6
BYBLOCK
 62
0
100
AcDbBlockEnd
  0
ENDSEC
  0
SECTION
  2
ENTITIES
  0
LINE
  5
217
100
AcDbEntity
  8
0
100
AcDbLine
 62
7
  6
BYLAYER
 10
23.1796615391
 20
74.9682361648
 11
23.1796615391
 21
161.9607843137
  0
LINE
  5
218
100
AcDbEntity
  8
0
100
AcDbLine
 62
7
  6
BYLAYER
 10
24.1796615391
 20
75.6513481507
 11
24.1796615391
 21
75.394125542
  0
LINE
  5
219
100
AcDbEntity
  8
0
100
AcDbLine
 62
7
  6
BYLAYER
 10
24.1796615391
 20
74.9682361648
 11
24.1796615391
 21
74.9607843138
  0
LINE
  5
21A
100
AcDbEntity
  8
0
100
AcDbLine
 62
7
  6
BYLAYER
 10
24.6796615391
 20
161.9607843137
 11
24.6796615391
 21
206.9607843137
  0
LINE
  5
21B
100
AcDbEntity
  8
0
100
AcDbLine
 62
7
  6
BYLAYER
 10
32.6796615391
 20
206.9607843137
 11
32.6796615391
 21
201.4607843137
  0
LINE
  5
21C
100
AcDbEntity
  8
0
100
AcDbLine
 62
7
  6
BYLAYER
 10
37.6796615391
 20
205.9607843137
 11
37.6796615391
 21
201.4607843137
  0
LINE
  5
21D
100
AcDbEntity
  8
0
100
AcDbLine
 62
7
  6
BYLAYER
 10
37.6796615391
 20
75.0655807193
 11
37.6796615391
 21
75.1470963805
  0
LINE
  5
21E
100
AcDbEntity
  8
0
100
AcDbLine
 62
7
  6
BYLAYER
 10
37.6796615391
 20
76.1257640787
 11
37.6796615391
 21
76.3705706548
  0
LINE
  5
21F
100
AcDbEntity
  8
0
100
AcDbLine
 62
7
  6
BYLAYER
 10
181.1796615391
 20
74.9682361647
 11
152.1796615391
 21
74.9607843138
  0
LINE
  5
220
100
AcDbEntity
  8
0
100
AcDbLine
 62
7
  6
BYLAYER
 10
52.1796615391
 20
74.9607843138
 11
23.1796615391
 21
74.9682361647
  0
LINE
  5
221
100
AcDbEntity
  8
0
100
AcDbLine
 62
7
  6
BYLAYER
 10
23.1796615391
 20
75.0655807193
 11
37.6796615391
 21
75.0655807193
  0
LINE
  5
222
100
AcDbEntity
  8
0
100
AcDbLine
 62
7
  6
BYLAYER
 10
166.6796615391
 20
75.0655807193
 11
181.1796615391
 21
75.0655807193
  0
LINE
  5
223
100
AcDbEntity
  8
0
100
AcDbLine
 62
7
  6
BYLAYER
 10
181.1796615391
 20
75.1470961083
 11
166.6796615391
 21
75.1470961083
  0
LINE
  5
224
100
AcDbEntity
  8
0
100
AcDbLine
 62
7
  6
BYLAYER
 10
37.6796615391
 20
75.1470961083
 11
23.1796615391
 21
75.1470961083
  0
LINE
  5
225
100
AcDbEntity
  8
0
100
AcDbLine
 62
7
  6
BYLAYER
 10
23.1796615391
 20
75.3941255419
 11
24.1796615391
 21
75.3941255419
  0
LINE
  5
226
100
AcDbEntity
  8
0
100
AcDbLine
 62
7
  6
BYLAYER
 10
180.1796615391
 20
75.3941255419
 11
181.1796615391
 21
75.3941255419
  0
LINE
  5
227
100
AcDbEntity
  8
0
100
AcDbLine
 62
7
  6
BYLAYER
 10
181.1796615391
 20
75.6513481507
 11
180.1796615391
 21
75.6513481507
  0
LINE
  5
228
100
AcDbEntity
  8
0
100
AcDbLine
 62
7
  6
BYLAYER
 10
24.1796615391
 20
75.6513481507
 11
23.1796615391
 21
75.6513481507
  0
LINE
  5
229
100
AcDbEntity
  8
0
100
AcDbLine
 62
7
  6
BYLAYER
 10
23.1796615391
 20
76.1257640787
 11
37.6796615391
 21
76.1257640787
  0
LINE
  5
22A
100
AcDbEntity
  8
0
100
AcDbLine
 62
7
  6
BYLAYER
 10
166.6796615391
 20
76.1257640787
 11
181.1796615391
 21
76.1257640787
  0
LINE
  5
22B
100
AcDbEntity
  8
0
100
AcDbLine
 62
7
  6
BYLAYER
 10
181.1796615391
 20
76.3705706548
 11
166.6796615391
 21
76.3705706548
  0
LINE
  5
22C
100
AcDbEntity
  8
0
100
AcDbLine
 62
7
  6
BYLAYER
 10
37.6796615391
 20
76.3705706548
 11
23.1796615391
 21
76.3705706548
  0
LINE
  5
22D
100
AcDbEntity
  8
0
100
AcDbLine
 62
7
  6
BYLAYER
 10
23.1796615391
 20
76.9607843137
 11
52.1796615391
 21
76.9607843137
  0
LINE
  5
22E
100
AcDbEntity
  8
0
100
AcDbLine
 62
7
  6
BYLAYER
 10
152.1796615391
 20
76.9607843137
 11
181.1796615391
 21
76.9607843137
  0
LINE
  5
22F
100
AcDbEntity
  8
0
100
AcDbLine
 62
7
  6
BYLAYER
 10
47.6796615391
 20
206.9607843137
 11
47.6796615391
 21
201.4607843137
  0
LINE
  5
230
100
AcDbEntity
  8
0
100
AcDbLine
 62
7
  6
BYLAYER
 10
134.6796615391
 20
83.4607843137
 11
69.6796615391
 21
83.4607843137
  0
LINE
  5
231
100
AcDbEntity
  8
0
100
AcDbLine
 62
7
  6
BYLAYER
 10
69.6796615391
 20
84.2494408003
 11
134.6796615391
 21
84.2494408003
  0
LINE
  5
232
100
AcDbEntity
  8
0
100
AcDbLine
 62
7
  6
BYLAYER
 10
52.1796615391
 20
74.9607843138
 11
52.1796615391
 21
94.9607843137
  0
LINE
  5
233
100
AcDbEntity
  8
0
100
AcDbLine
 62
7
  6
BYLAYER
 10
52.1796615391
 20
161.9607843137
 11
52.1796615391
 21
194.9607843137
  0
LINE
  5
234
100
AcDbEntity
  8
0
100
AcDbLine
 62
7
  6
BYLAYER
 10
55.6796615391
 20
206.9607843137
 11
55.6796615391
 21
201.4607843137
  0
LINE
  5
235
100
AcDbEntity
  8
0
100
AcDbLine
 62
7
  6
BYLAYER
 10
152.1796615391
 20
94.9607843137
 11
52.1796615391
 21
94.9607843137
  0
LINE
  5
236
100
AcDbEntity
  8
0
100
AcDbLine
 62
7
  6
BYLAYER
 10
69.6796615391
 20
83.4607843137
 11
69.6796615391
 21
94.9607843137
  0
LINE
  5
237
100
AcDbEntity
  8
0
100
AcDbLine
 62
7
  6
BYLAYER
 10
70.6796615391
 20
201.4607843137
 11
70.6796615391
 21
206.9607843137
  0
LINE
  5
238
100
AcDbEntity
  8
0
100
AcDbLine
 62
7
  6
BYLAYER
 10
168.6796615391
 20
203.9607843137
 11
170.6796615391
 21
205.9607843137
  0
LINE
  5
239
100
AcDbEntity
  8
0
100
AcDbLine
 62
7
  6
BYLAYER
 10
181.1796615391
 20
161.9607843137
 11
152.1796615391
 21
161.9607843137
  0
LINE
  5
23A
100
AcDbEntity
  8
0
100
AcDbLine
 62
7
  6
BYLAYER
 10
52.1796615391
 20
161.9607843137
 11
23.1796615391
 21
161.9607843137
  0
LINE
  5
23B
100
AcDbEntity
  8
0
100
AcDbLine
 62
7
  6
BYLAYER
 10
133.6796615391
 20
201.4607843137
 11
133.6796615391
 21
206.9607843137
  0
LINE
  5
23C
100
AcDbEntity
  8
0
100
AcDbLine
 62
7
  6
BYLAYER
 10
134.6796615391
 20
83.4607843137
 11
134.6796615391
 21
94.9607843137
  0
LINE
  5
23D
100
AcDbEntity
  8
0
100
AcDbLine
 62
7
  6
BYLAYER
 10
148.6796615391
 20
206.9607843137
 11
148.6796615391
 21
201.4607843137
  0
LINE
  5
23E
100
AcDbEntity
  8
0
100
AcDbLine
 62
7
  6
BYLAYER
 10
52.1796615391
 20
183.4607843137
 11
152.1796615391
 21
183.4607843137
  0
LINE
  5
23F
100
AcDbEntity
  8
0
100
AcDbLine
 62
7
  6
BYLAYER
 10
152.1796615391
 20
74.9607843138
 11
152.1796615391
 21
94.9607843137
  0
LINE
  5
240
100
AcDbEntity
  8
0
100
AcDbLine
 62
7
  6
BYLAYER
 10
152.1796615391
 20
161.9607843137
 11
152.1796615391
 21
194.9607843137
  0
LINE
  5
241
100
AcDbEntity
  8
0
100
AcDbLine
 62
7
  6
BYLAYER
 10
156.6796615391
 20
206.9607843137
 11
156.6796615391
 21
201.4607843137
  0
LINE
  5
242
100
AcDbEntity
  8
0
100
AcDbLine
 62
7
  6
BYLAYER
 10
52.1796615391
 20
194.9607843137
 11
24.6796615391
 21
194.9607843137
  0
LINE
  5
243
100
AcDbEntity
  8
0
100
AcDbLine
 62
7
  6
BYLAYER
 10
152.1796615391
 20
194.9607843137
 11
179.6796615391
 21
194.9607843137
  0
LINE
  5
244
100
AcDbEntity
  8
0
100
AcDbLine
 62
7
  6
BYLAYER
 10
32.6796615391
 20
201.4607843137
 11
47.6796615391
 21
201.4607843137
  0
LINE
  5
245
100
AcDbEntity
  8
0
100
AcDbLine
 62
7
  6
BYLAYER
 10
55.6796615391
 20
201.4607843137
 11
70.6796615391
 21
201.4607843137
  0
LINE
  5
246
100
AcDbEntity
  8
0
100
AcDbLine
 62
7
  6
BYLAYER
 10
133.6796615391
 20
201.4607843137
 11
148.6796615391
 21
201.4607843137
  0
LINE
  5
247
100
AcDbEntity
  8
0
100
AcDbLine
 62
7
  6
BYLAYER
 10
156.6796615391
 20
201.4607843137
 11
171.6796615391
 21
201.4607843137
  0
LINE
  5
248
100
AcDbEntity
  8
0
100
AcDbLine
 62
7
  6
BYLAYER
 10
166.6796615391
 20
76.3705706548
 11
166.6796615391
 21
76.1257640787
  0
LINE
  5
249
100
AcDbEntity
  8
0
100
AcDbLine
 62
7
  6
BYLAYER
 10
166.6796615391
 20
75.1470961083
 11
166.6796615391
 21
75.0655807193
  0
LINE
  5
24A
100
AcDbEntity
  8
0
100
AcDbLine
 62
7
  6
BYLAYER
 10
168.6796615391
 20
203.9607843137
 11
168.6796615391
 21
201.4607843137
  0
LINE
  5
24B
100
AcDbEntity
  8
0
100
AcDbLine
 62
7
  6
BYLAYER
 10
171.6796615391
 20
206.9607843137
 11
171.6796615391
 21
201.4607843137
  0
LINE
  5
24C
100
AcDbEntity
  8
0
100
AcDbLine
 62
7
  6
BYLAYER
 10
171.6796615391
 20
205.9607843137
 11
170.6796615391
 21
205.9607843137
  0
LINE
  5
24D
100
AcDbEntity
  8
0
100
AcDbLine
 62
7
  6
BYLAYER
 10
37.6796615391
 20
205.9607843137
 11
32.6796615391
 21
205.9607843137
  0
LINE
  5
24E
100
AcDbEntity
  8
0
100
AcDbLine
 62
7
  6
BYLAYER
 10
179.6796615391
 20
206.9607843137
 11
171.6796615391
 21
206.9607843137
  0
LINE
  5
24F
100
AcDbEntity
  8
0
100
AcDbLine
 62
7
  6
BYLAYER
 10
156.6796615391
 20
206.9607843137
 11
148.6796615391
 21
206.9607843137
  0
LINE
  5
250
100
AcDbEntity
  8
0
100
AcDbLine
 62
7
  6
BYLAYER
 10
133.6796615391
 20
206.9607843137
 11
70.6796615391
 21
206.9607843137
  0
LINE
  5
251
100
AcDbEntity
  8
0
100
AcDbLine
 62
7
  6
BYLAYER
 10
55.6796615391
 20
206.9607843137
 11
47.6796615391
 21
206.9607843137
  0
LINE
  5
252
100
AcDbEntity
  8
0
100
AcDbLine
 62
7
  6
BYLAYER
 10
32.6796615391
 20
206.9607843137
 11
24.6796615391
 21
206.9607843137
  0
LINE
  5
253
100
AcDbEntity
  8
0
100
AcDbLine
 62
7
  6
BYLAYER
 10
179.6796615391
 20
161.9607843137
 11
179.6796615391
 21
206.9607843137
  0
LINE
  5
254
100
AcDbEntity
  8
0
100
AcDbLine
 62
7
  6
BYLAYER
 10
180.1796615391
 20
74.9682361648
 11
180.1796615391
 21
74.9607843138
  0
LINE
  5
255
100
AcDbEntity
  8
0
100
AcDbLine
 62
7
  6
BYLAYER
 10
180.1796615391
 20
75.394125542
 11
180.1796615391
 21
75.6513481507
  0
LINE
  5
256
100
AcDbEntity
  8
0
100
AcDbLine
 62
7
  6
BYLAYER
 10
181.1796615391
 20
74.9682361648
 11
181.1796615391
 21
161.9607843137
  0
SPLINE
  5
257
100
AcDbEntity
  8
0
100
AcDbSpline
 62
7
  6
BYLAYER
 70
0
 71
3
 72
18
 73
14
 74
0
 42
0.0000001
 43
0.0000001
 44
0.0000000001
 40
0.0
 40
0.0
 40
0.0
 40
0.0
 40
0.0067793469
 40
0.0218608121
 40
0.0460087904
 40
0.0792211852
 40
0.1211990471
 40
0.1715549546
 40
0.295577811
 40
0.4465111101
 40
0.6187224532
 40
0.8058187705
 40
1.0
 40
1.0
 40
1.0
 40
1.0
 10
40.1795845148
 20
76.2452460347
 30
0.0
 10
40.1795803583
 20
76.2509202144
 30
0.0
 10
40.1595526712
 20
76.2622500748
 30
0.0
 10
40.1255016569
 20
76.2711356714
 30
0.0
 10
40.0642128222
 20
76.2830850821
 30
0.0
 10
39.9824832448
 20
76.2937158416
 30
0.0
 10
39.8776836851
 20
76.3046495133
 30
0.0
 10
39.6973194255
 20
76.3194265795
 30
0.0
 10
39.4253983494
 20
76.3353949922
 30
0.0
 10
39.0514565047
 20
76.3505578616
 30
0.0
 10
38.6245231883
 20
76.3619350171
 30
0.0
 10
38.161312568
 20
76.368974148
 30
0.0
 10
37.842187445
 20
76.3705706548
 30
0.0
 10
37.6796615391
 20
76.3705706548
 30
0.0
  0
SPLINE
  5
258
100
AcDbEntity
  8
0
100
AcDbSpline
 62
7
  6
BYLAYER
 70
0
 71
3
 72
21
 73
17
 74
0
 42
0.0000001
 43
0.0000001
 44
0.0000000001
 40
0.0
 40
0.0
 40
0.0
 40
0.0
 40
0.0014517006
 40
0.0051592728
 40
0.0112226611
 40
0.0196427114
 40
0.0435008425
 40
0.0765819396
 40
0.1185424753
 40
0.1689615958
 40
0.2274054128
 40
0.2932954676
 40
0.4446998816
 40
0.6174587391
 40
0.8051741361
 40
1.0
 40
1.0
 40
1.0
 40
1.0
 10
40.1796716905
 20
75.1034263801
 30
0.0
 10
40.1796728019
 20
75.1046368881
 30
0.0
 10
40.1739983016
 20
75.106153292
 30
0.0
 10
40.1662016546
 20
75.1078806873
 30
0.0
 10
40.1503786079
 20
75.1097877932
 30
0.0
 10
40.1190007369
 20
75.1127250114
 30
0.0
 10
40.0642579906
 20
75.116113519
 30
0.0
 10
39.982039546
 20
75.1199168233
 30
0.0
 10
39.877425838
 20
75.1236447694
 30
0.0
 10
39.7517343227
 20
75.1272599431
 30
0.0
 10
39.606048079
 20
75.1306899686
 30
0.0
 10
39.3761684886
 20
75.1351737234
 30
0.0
 10
39.0509504994
 20
75.1398660761
 30
0.0
 10
38.6241368518
 20
75.14396814
 30
0.0
 10
38.1611024882
 20
75.1465150072
 30
0.0
 10
37.8421181429
 20
75.1470963805
 30
0.0
 10
37.6796615411
 20
75.1470963805
 30
0.0
  0
SPLINE
  5
259
100
AcDbEntity
  8
0
100
AcDbSpline
 62
7
  6
BYLAYER
 70
0
 71
3
 72
18
 73
14
 74
0
 42
0.0000001
 43
0.0000001
 44
0.0000000001
 40
0.0
 40
0.0
 40
0.0
 40
0.0
 40
0.194200453
 40
0.3813105726
 40
0.5535179589
 40
0.7044499621
 40
0.8284578921
 40
0.8788014191
 40
0.920768701
 40
0.953971716
 40
0.9781247676
 40
0.9932193636
 40
1.0
 40
1.0
 40
1.0
 40
1.0
 10
166.6796615391
 20
76.3705706548
 30
0.0
 10
166.5171176414
 20
76.3705706548
 30
0.0
 10
166.1979611411
 20
76.3689729935
 30
0.0
 10
165.7347207947
 20
76.361933197
 30
0.0
 10
165.3077753117
 20
76.3505536833
 30
0.0
 10
164.9338461558
 20
76.3353926494
 30
0.0
 10
164.6619452119
 20
76.319425651
 30
0.0
 10
164.4816115742
 20
76.3046471818
 30
0.0
 10
164.376836163
 20
76.293714143
 30
0.0
 10
164.2951231156
 20
76.2830815291
 30
0.0
 10
164.233814926
 20
76.2711277813
 30
0.0
 10
164.1997692474
 20
76.2622534287
 30
0.0
 10
164.1796967443
 20
76.2509213467
 30
0.0
 10
164.1797050897
 20
76.2452460258
 30
0.0
  0
SPLINE
  5
25A
100
AcDbEntity
  8
0
100
AcDbSpline
 62
7
  6
BYLAYER
 70
0
 71
3
 72
21
 73
17
 74
0
 42
0.0000001
 43
0.0000001
 44
0.0000000001
 40
0.0
 40
0.0
 40
0.0
 40
0.0
 40
0.19482594
 40
0.382541396
 40
0.5553002607
 40
0.7067046519
 40
0.7725946899
 40
0.8310384887
 40
0.8814575913
 40
0.9234181104
 40
0.9564991931
 40
0.9803573123
 40
0.9887773569
 40
0.9948407394
 40
0.9985483053
 40
1.0
 40
1.0
 40
1.0
 40
1.0
 10
166.6796611344
 20
75.1470963887
 30
0.0
 10
166.5172045137
 20
75.1470963887
 30
0.0
 10
166.1982201429
 20
75.1465150201
 30
0.0
 10
165.7351857873
 20
75.1439681572
 30
0.0
 10
165.3083722204
 20
75.1398660868
 30
0.0
 10
164.9831543472
 20
75.1351737298
 30
0.0
 10
164.753274868
 20
75.1306899729
 30
0.0
 10
164.6075887083
 20
75.1272599461
 30
0.0
 10
164.4818972716
 20
75.1236447717
 30
0.0
 10
164.3772836325
 20
75.1199168242
 30
0.0
 10
164.2950652478
 20
75.1161135209
 30
0.0
 10
164.2403225401
 20
75.11272501
 30
0.0
 10
164.2089447017
 20
75.1097877959
 30
0.0
 10
164.1931216676
 20
75.1078806829
 30
0.0
 10
164.1853250489
 20
75.1061533015
 30
0.0
 10
164.1796505509
 20
75.1046368828
 30
0.0
 10
164.179651674
 20
75.1034263801
 30
0.0
  0
SPLINE
  5
25B
100
AcDbEntity
  8
0
100
AcDbSpline
 62
7
  6
BYLAYER
 70
0
 71
3
 72
21
 73
17
 74
0
 42
0.0000001
 43
0.0000001
 44
0.0000000001
 40
0.0
 40
0.0
 40
0.0
 40
0.0
 40
0.0014498063
 40
0.0051552303
 40
0.0112165309
 40
0.0196345887
 40
0.0434890781
 40
0.0765670366
 40
0.1185250301
 40
0.1689423098
 40
0.2273850421
 40
0.2932747624
 40
0.4446807483
 40
0.6174439356
 40
0.8051661838
 40
1.0
 40
1.0
 40
1.0
 40
1.0
 10
164.179651674
 20
75.1034263801
 30
0.0
 10
164.1796527956
 20
75.1022175233
 30
0.0
 10
164.1853333305
 20
75.1007235708
 30
0.0
 10
164.1931291915
 20
75.0990368576
 30
0.0
 10
164.2089566887
 20
75.0972010843
 30
0.0
 10
164.2403380815
 20
75.0944088945
 30
0.0
 10
164.2950858377
 20
75.0912656072
 30
0.0
 10
164.3773070286
 20
75.0878236209
 30
0.0
 10
164.481923156
 20
75.0845359699
 30
0.0
 10
164.6076159697
 20
75.0814219174
 30
0.0
 10
164.7533026341
 20
75.0785358573
 30
0.0
 10
164.9831827751
 20
75.074844854
 30
0.0
 10
165.3083981287
 20
75.0711088019
 30
0.0
 10
165.7352046914
 20
75.0679407345
 30
0.0
 10
166.1982301927
 20
75.0660137307
 30
0.0
 10
166.5172079041
 20
75.0655803752
 30
0.0
 10
166.6796615359
 20
75.0655803752
 30
0.0
  0
SPLINE
  5
25C
100
AcDbEntity
  8
0
100
AcDbSpline
 62
7
  6
BYLAYER
 70
0
 71
3
 72
21
 73
17
 74
0
 42
0.0000001
 43
0.0000001
 44
0.0000000001
 40
0.0
 40
0.0
 40
0.0
 40
0.0
 40
0.1948339016
 40
0.3825562171
 40
0.5553194066
 40
0.7067253646
 40
0.7726150668
 40
0.8310577798
 40
0.8814750402
 40
0.9234330158
 40
0.9565109588
 40
0.9803654356
 40
0.9887834875
 40
0.994844782
 40
0.9985501996
 40
1.0
 40
1.0
 40
1.0
 40
1.0
 10
37.6796619452
 20
75.0655803647
 30
0.0
 10
37.8421156409
 20
75.0655803647
 30
0.0
 10
38.1610934653
 20
75.0660137144
 30
0.0
 10
38.624119075
 20
75.0679407124
 30
0.0
 10
39.0509256533
 20
75.0711087864
 30
0.0
 10
39.3761409558
 20
75.0748448429
 30
0.0
 10
39.6060210321
 20
75.0785358484
 30
0.0
 10
39.7517076427
 20
75.08142191
 30
0.0
 10
39.8774004033
 20
75.0845359638
 30
0.0
 10
39.9820164826
 20
75.0878236167
 30
0.0
 10
40.0642376298
 20
75.0912656027
 30
0.0
 10
40.1189853583
 20
75.0944088941
 30
0.0
 10
40.1503667247
 20
75.0972010802
 30
0.0
 10
40.1661942125
 20
75.0990368611
 30
0.0
 10
40.1739900468
 20
75.1007235607
 30
0.0
 10
40.1796705806
 20
75.1022175283
 30
0.0
 10
40.1796716905
 20
75.1034263801
 30
0.0
  0
SPLINE
  5
25D
100
AcDbEntity
  8
0
100
AcDbSpline
 62
7
  6
BYLAYER
 70
0
 71
3
 72
18
 73
14
 74
0
 42
0.0000001
 43
0.0000001
 44
0.0000000001
 40
0.0
 40
0.0
 40
0.0
 40
0.0
 40
0.0067727289
 40
0.0218524399
 40
0.0459889026
 40
0.0791749799
 40
0.1211253564
 40
0.1714564595
 40
0.2954614733
 40
0.4464112599
 40
0.618642594
 40
0.8057784566
 40
1.0
 40
1.0
 40
1.0
 40
1.0
 10
164.1797050897
 20
76.2452460258
 30
0.0
 10
164.1797134239
 20
76.2395783031
 30
0.0
 10
164.1998042087
 20
76.2283249884
 30
0.0
 10
164.233855812
 20
76.2196187522
 30
0.0
 10
164.2951624396
 20
76.2079349241
 30
0.0
 10
164.3768652937
 20
76.1976642382
 30
0.0
 10
164.4816281812
 20
76.1871715118
 30
0.0
 10
164.6619608143
 20
76.1731134361
 30
0.0
 10
164.9338711745
 20
76.158127472
 30
0.0
 10
165.307810078
 20
76.1440737119
 30
0.0
 10
165.7347606723
 20
76.1336299975
 30
0.0
 10
166.1979879326
 20
76.1272127511
 30
0.0
 10
166.5171280807
 20
76.1257640787
 30
0.0
 10
166.6796615391
 20
76.1257640787
 30
0.0
  0
SPLINE
  5
25E
100
AcDbEntity
  8
0
100
AcDbSpline
 62
7
  6
BYLAYER
 70
0
 71
3
 72
18
 73
14
 74
0
 42
0.0000001
 43
0.0000001
 44
0.0000000001
 40
0.0
 40
0.0
 40
0.0
 40
0.0
 40
0.1942326199
 40
0.3813481572
 40
0.5535563412
 40
0.7045096288
 40
0.828523891
 40
0.8788677444
 40
0.9208315296
 40
0.9540144964
 40
0.978149053
 40
0.9932305994
 40
1.0
 40
1.0
 40
1.0
 40
1.0
 10
37.6796615391
 20
76.1257640787
 30
0.0
 10
37.8422025032
 20
76.1257640787
 30
0.0
 10
38.1613314545
 20
76.1272110037
 30
0.0
 10
38.6245265882
 20
76.1336278604
 30
0.0
 10
39.0514390501
 20
76.1440734624
 30
0.0
 10
39.4253652209
 20
76.158123379
 30
0.0
 10
39.6972942787
 20
76.1731084199
 30
0.0
 10
39.8776543332
 20
76.1871653129
 30
0.0
 10
39.9824366137
 20
76.1976551592
 30
0.0
 10
40.0641435768
 20
76.2079266411
 30
0.0
 10
40.1254499363
 20
76.2196210147
 30
0.0
 10
40.1594910442
 20
76.2283121145
 30
0.0
 10
40.1795886645
 20
76.2395811541
 30
0.0
 10
40.1795845148
 20
76.2452460347
 30
0.0
  0
ENDSEC
  0
SECTION
  2
OBJECTS
  0
DICTIONARY
  5
C
100
AcDbDictionary
280
0
281
1
  3
ACAD_GROUP
350
D
  3
ACAD_MLINESTYLE
350
17
  3
ACAD_LAYOUT
350
1A
  3
ACAD_PLOTSETTINGS
350
19
  3
ACAD_PLOTSTYLENAME
350
E
  0
DICTIONARY
  5
D
102
{ACAD_REACTORS
330
C
102
}
100
AcDbDictionary
280
0
281
1
  0
ACDBDICTIONARYWDFLT
  5
E
102
{ACAD_REACTORS
330
C
102
}
100
AcDbDictionary
281
1
  3
Normal
350
F
100
AcDbDictionaryWithDefault
340
F
  0
DICTIONARY
  5
17
102
{ACAD_REACTORS
330
C
102
}
100
AcDbDictionary
280
0
281
1
  3
Standard
350
18
  0
DICTIONARY
  5
19
102
{ACAD_REACTORS
330
C
102
}
100
AcDbDictionary
281
1
  0
DICTIONARY
  5
1A
102
{ACAD_REACTORS
330
C
102
}
100
AcDbDictionary
281
1
  3
Model
350
25F
  3
Layout1
350
260
  0
ACDBPLACEHOLDER
  5
F
102
{ACAD_REACTORS
330
E
102
}
  0
MLINESTYLE
  5
18
102
{ACAD_REACTORS
330
17
102
}
100
AcDbMlineStyle
  2
STANDARD
 70
0
  3

 62
256
 51
90.0
 52
90.0
 71
2
 49
0.5
 62
256
  6
BYLAYER
 49
-0.5
 62
256
  6
BYLAYER
  0
LAYOUT
  5
25F
102
{ACAD_REACTORS
330
1A
102
}
100
AcDbPlotSettings
  1

  2
none_device
  4

  6

 40
0.0
 41
0.0
 42
0.0
 43
0.0
 44
210.0
 45
297.0
 46
0.0
 47
0.0
 48
0.0
 49
0.0
140
0.0
141
0.0
142
1.0
143
1.0
 70
1024
 72
1
 73
0
 74
0
  7

 75
0
147
1.0
148
0.0
149
0.0
100
AcDbLayout
  1
Model
 70
0
 71
0
 10
0.0
 20
0.0
 11
210.0
 21
297.0
 12
0.0
 22
0.0
 32
0.0
 14
0.0
 24
0.0
 34
0.0
 15
0.0
 25
0.0
 35
0.0
146
0.0
 13
0.0
 23
0.0
 33
0.0
 16
1.0
 26
0.0
 36
0.0
 17
0.0
 27
1.0
 37
0.0
 76
0
330
210
345
0
346
0
  0
LAYOUT
  5
260
102
{ACAD_REACTORS
330
1A
102
}
100
AcDbPlotSettings
  1

  2
none_device
  4

  6

 40
0.0
 41
0.0
 42
0.0
 43
0.0
 44
210.0
 45
297.0
 46
0.0
 47
0.0
 48
0.0
 49
0.0
140
0.0
141
0.0
142
1.0
143
1.0
 70
0
 72
1
 73
0
 74
0
  7

 75
0
147
1.0
148
0.0
149
0.0
100
AcDbLayout
  1
Layout1
 70
0
 71
1
 10
0.0
 20
0.0
 11
210.0
 21
297.0
 12
0.0
 22
0.0
 32
0.0
 14
0.0
 24
0.0
 34
0.0
 15
0.0
 25
0.0
 35
0.0
146
0.0
 13
0.0
 23
0.0
 33
0.0
 16
1.0
 26
0.0
 36
0.0
 17
0.0
 27
1.0
 37
0.0
 76
0
330
211
345
0
346
0
  0
ENDSEC
  0
EOF
