999
DXF file: C:\Users\sesa63760\Dev\_Creo\CAD\MCADPD0005306_3D-CAD\drw0001_2.dxf
999
Pro/ENGINEER 2019471 by Parametric Technology Corporation
  0
SECTION
  2
HEADER
  9
$ACADVER
  1
AC1024
  9
$DWGCODEPAGE
  3
ANSI_1252
  9
$EXTMAX
 10
88.1674045668
 20
124.6939007445
 30
0.0
  9
$EXTMIN
 10
0.0
 20
0.0
 30
0.0
  9
$LIMMIN
 10
0.0
 20
0.0
  9
$LIMMAX
 10
88.1674045668
 20
124.6939007445
  9
$VIEWCTR
 10
44.0837022834
 20
62.3469503722
  9
$VIEWSIZE
 40
124.6939007445
  9
$CLAYER
  8
0
  9
$LTSCALE
 40
8.1281950115
  9
$CELTYPE
  6
BYLAYER
  9
$DIMSCALE
 40
1.0
  9
$DIMASZ
 40
1.0496119591
  9
$DIMEXO
 40
1.0
  9
$DIMDLI
 40
5.6158438261
  9
$DIMEXE
 40
1.0
  9
$DIMCEN
 40
1.3300682746
  9
$DIMLFAC
 40
1.0
  9
$DIMBLK
  1
_FILLED
  9
$DIMALT
 70
0
  9
$DIMALTF
 40
0.0393700787
  9
$DIMTXT
 40
1.4694567428
  9
$DIMTOL
 70
1
  9
$DIMLIM
 70
0
  9
$DIMTFAC
 40
1.0
  9
$DIMTP
 40
0.01
  9
$DIMTM
 40
0.01
  9
$DIMGAP
 40
0.625
  9
$DIMDSEP
 70
46
  9
$AUNITS
 70
0
  9
$PDMODE
 70
3
  9
$PDSIZE
 40
0.3125
  9
$HANDSEED
  5
275
  9
$TILEMODE
 70
1
  9
$MEASUREMENT
 70
1
  9
$INSUNITS
 70
4
  0
ENDSEC
  0
SECTION
  2
CLASSES
  0
CLASS
  1
ACDBDICTIONARYWDFLT
  2
AcDbDictionaryWithDefault
  3
AutoCAD 2000
 90
0
 91
1
280
0
281
0
  0
CLASS
  1
ACDBPLACEHOLDER
  2
AcDbPlaceHolder
  3
AutoCAD 2000
 90
0
 91
1
280
0
281
0
  0
CLASS
  1
LAYOUT
  2
AcDbLayout
  3
AutoCAD 2000
 90
0
 91
0
280
0
281
0
  0
ENDSEC
  0
SECTION
  2
TABLES
  0
TABLE
  2
VPORT
  5
8
100
AcDbSymbolTable
 70
2
  0
VPORT
  5
1F4
100
AcDbSymbolTableRecord
100
AcDbViewportTableRecord
  2
*ACTIVE
 70
0
 10
0.0
 20
0.0
 11
1.0
 21
1.0
 12
44.0837022834
 22
62.3469503722
 13
0.0
 23
0.0
 14
1.0
 24
1.0
 15
0.0
 25
0.0
 16
0.0
 26
0.0
 36
1.0
 17
0.0
 27
0.0
 37
0.0
 40
124.6939007445
 41
0.7070707071
 42
50.0
 43
0.0
 44
0.0
 50
0.0
 51
0.0
 71
0
 72
100
 73
1
 74
1
 75
0
 76
0
 77
0
 78
0
  0
ENDTAB
  0
TABLE
  2
LTYPE
  5
5
100
AcDbSymbolTable
 70
6
  0
LTYPE
  5
14
100
AcDbSymbolTableRecord
100
AcDbLinetypeTableRecord
  2
BYBLOCK
 70
0
  3

 72
65
 73
0
 40
0.0
  0
LTYPE
  5
15
100
AcDbSymbolTableRecord
100
AcDbLinetypeTableRecord
  2
BYLAYER
 70
0
  3

 72
65
 73
0
 40
0.0
  0
LTYPE
  5
16
100
AcDbSymbolTableRecord
100
AcDbLinetypeTableRecord
  2
CONTINUOUS
 70
64
  3
Solid line
 72
65
 73
0
 40
0.0
  0
LTYPE
  5
1F5
100
AcDbSymbolTableRecord
100
AcDbLinetypeTableRecord
  2
CENTER
 70
64
  3
____ _ ____ _ ____ _ ____ _ ____ _ ____ _ ____
 72
65
 73
4
 40
0.6
 49
0.375
 74
0
 49
-0.075
 74
0
 49
0.075
 74
0
 49
-0.075
 74
0
  0
LTYPE
  5
1F6
100
AcDbSymbolTableRecord
100
AcDbLinetypeTableRecord
  2
HIDDEN
 70
64
  3
- - - - - - - - - - - - - - - - - - - -
 72
65
 73
2
 40
0.2
 49
0.1
 74
0
 49
-0.1
 74
0
  0
LTYPE
  5
1F7
100
AcDbSymbolTableRecord
100
AcDbLinetypeTableRecord
  2
PHANTOM
 70
64
  3
_____ _ _ _____ _ _ _____ _ _ _____
 72
65
 73
6
 40
0.8
 49
0.45
 74
0
 49
-0.05
 74
0
 49
0.1
 74
0
 49
-0.05
 74
0
 49
0.1
 74
0
 49
-0.05
 74
0
  0
LTYPE
  5
1F8
100
AcDbSymbolTableRecord
100
AcDbLinetypeTableRecord
  2
DOT
 70
64
  3
. . . . . . . . . . . . . . . . . . . .
 72
65
 73
2
 40
0.2
 49
0.1
 74
0
 49
-0.1
 74
0
  0
LTYPE
  5
1F9
100
AcDbSymbolTableRecord
100
AcDbLinetypeTableRecord
  2
DASHED
 70
64
  3
- - - - - - - - - - - - - - - - - - - -
 72
65
 73
2
 40
0.2
 49
0.1
 74
0
 49
-0.1
 74
0
  0
ENDTAB
  0
TABLE
  2
LAYER
  5
2
100
AcDbSymbolTable
 70
36
  0
LAYER
  5
10
100
AcDbSymbolTableRecord
100
AcDbLayerTableRecord
  2
0
 70
0
 62
7
  6
CONTINUOUS
370
-3
390
F
  0
LAYER
  5
1FA
100
AcDbSymbolTableRecord
100
AcDbLayerTableRecord
  2
DEFAULT_1
 70
0
 62
7
  6
CENTER
370
-3
390
F
  0
LAYER
  5
1FB
100
AcDbSymbolTableRecord
100
AcDbLayerTableRecord
  2
DEFAULT_2
 70
0
 62
7
  6
HIDDEN
370
-3
390
F
  0
LAYER
  5
1FC
100
AcDbSymbolTableRecord
100
AcDbLayerTableRecord
  2
DEFAULT_3
 70
0
 62
7
  6
PHANTOM
370
-3
390
F
  0
LAYER
  5
1FD
100
AcDbSymbolTableRecord
100
AcDbLayerTableRecord
  2
00_COMPONENTS
 70
0
 62
7
  6
CONTINUOUS
370
-3
390
F
  0
LAYER
  5
1FE
100
AcDbSymbolTableRecord
100
AcDbLayerTableRecord
  2
01_1_DEFAULT_DATUMS
 70
0
 62
7
  6
CONTINUOUS
370
-3
390
F
  0
LAYER
  5
1FF
100
AcDbSymbolTableRecord
100
AcDbLayerTableRecord
  2
01_PLANES
 70
0
 62
7
  6
CONTINUOUS
370
-3
390
F
  0
LAYER
  5
200
100
AcDbSymbolTableRecord
100
AcDbLayerTableRecord
  2
02_COORD_SYS
 70
0
 62
7
  6
CONTINUOUS
370
-3
390
F
  0
LAYER
  5
201
100
AcDbSymbolTableRecord
100
AcDbLayerTableRecord
  2
03_AXES
 70
0
 62
7
  6
CONTINUOUS
370
-3
390
F
  0
LAYER
  5
202
100
AcDbSymbolTableRecord
100
AcDbLayerTableRecord
  2
04_POINTS
 70
0
 62
7
  6
CONTINUOUS
370
-3
390
F
  0
LAYER
  5
203
100
AcDbSymbolTableRecord
100
AcDbLayerTableRecord
  2
05_CURVES
 70
0
 62
7
  6
CONTINUOUS
370
-3
390
F
  0
LAYER
  5
204
100
AcDbSymbolTableRecord
100
AcDbLayerTableRecord
  2
06_SURFS
 70
0
 62
7
  6
CONTINUOUS
370
-3
390
F
  0
LAYER
  5
205
100
AcDbSymbolTableRecord
100
AcDbLayerTableRecord
  2
07_COSMETICS
 70
0
 62
7
  6
CONTINUOUS
370
-3
390
F
  0
LAYER
  5
206
100
AcDbSymbolTableRecord
100
AcDbLayerTableRecord
  2
10_NOTES
 70
0
 62
7
  6
CONTINUOUS
370
-3
390
F
  0
LAYER
  5
207
100
AcDbSymbolTableRecord
100
AcDbLayerTableRecord
  2
11_NOTES_PUB
 70
0
 62
7
  6
CONTINUOUS
370
-3
390
F
  0
LAYER
  5
208
100
AcDbSymbolTableRecord
100
AcDbLayerTableRecord
  2
13_REF_GTOL
 70
0
 62
7
  6
CONTINUOUS
370
-3
390
F
  0
LAYER
  5
209
100
AcDbSymbolTableRecord
100
AcDbLayerTableRecord
  2
16_MISC
 70
0
 62
7
  6
CONTINUOUS
370
-3
390
F
  0
LAYER
  5
20A
100
AcDbSymbolTableRecord
100
AcDbLayerTableRecord
  2
17_NO_PRINT
 70
0
 62
7
  6
CONTINUOUS
370
-3
390
F
  0
LAYER
  5
20B
100
AcDbSymbolTableRecord
100
AcDbLayerTableRecord
  2
18_DATUM_CAMS_JOINTS
 70
0
 62
7
  6
CONTINUOUS
370
-3
390
F
  0
LAYER
  5
20C
100
AcDbSymbolTableRecord
100
AcDbLayerTableRecord
  2
19_DATUM_FUNCTIONAL
 70
0
 62
7
  6
CONTINUOUS
370
-3
390
F
  0
LAYER
  5
20D
100
AcDbSymbolTableRecord
100
AcDbLayerTableRecord
  2
20_DATUM_KINEMATIC_SCHEME
 70
0
 62
7
  6
CONTINUOUS
370
-3
390
F
  0
ENDTAB
  0
TABLE
  2
STYLE
  5
3
100
AcDbSymbolTable
 70
1
  0
STYLE
  5
11
100
AcDbSymbolTableRecord
100
AcDbTextStyleTableRecord
  2
STANDARD
 70
0
 40
0.0
 41
1.0
 50
0.0
 71
0
 42
0.2
  3
ARIAL.TTF
  4

  0
STYLE
  5
20E
100
AcDbSymbolTableRecord
100
AcDbTextStyleTableRecord
  2
TEXTSTYLE_1
 70
0
 40
0.0
 41
0.8
 50
0.0
 71
0
 42
0.2
  3
gdt
  4

  0
ENDTAB
  0
TABLE
  2
VIEW
  5
6
100
AcDbSymbolTable
 70
0
  0
ENDTAB
  0
TABLE
  2
UCS
  5
7
100
AcDbSymbolTable
 70
0
  0
ENDTAB
  0
TABLE
  2
APPID
  5
9
100
AcDbSymbolTable
 70
1
  0
APPID
  5
20F
100
AcDbSymbolTableRecord
100
AcDbRegAppTableRecord
  2
ACAD
 70
0
  0
ENDTAB
  0
TABLE
  2
BLOCK_RECORD
  5
1
100
AcDbSymbolTable
 70
0
  0
BLOCK_RECORD
  5
210
100
AcDbSymbolTableRecord
100
AcDbBlockTableRecord
  2
*Model_Space
  0
BLOCK_RECORD
  5
211
100
AcDbSymbolTableRecord
100
AcDbBlockTableRecord
  2
*Paper_Space
  0
BLOCK_RECORD
  5
212
100
AcDbSymbolTableRecord
100
AcDbBlockTableRecord
  2
_FILLED
  0
ENDTAB
  0
TABLE
  2
DIMSTYLE
  5
A
100
AcDbSymbolTable
 70
1
100
AcDbDimStyleTable
 71
0
  0
DIMSTYLE
105
213
100
AcDbSymbolTableRecord
100
AcDbDimStyleTableRecord
  2
STANDARD
 70
0
  3

  4

 40
1.0
 41
1.0496119591
 42
1.0
 43
0.38
 44
1.0
 45
0.0
 46
0.0
 47
0.01
 48
0.01
140
1.4694567428
141
0.09
142
0.0
143
25.4
144
1.0
145
0.0
146
1.0
147
0.625
 71
1
 72
0
 73
0
 74
0
 75
0
 76
0
 77
1
 78
8
 79
2
170
0
171
1
172
0
173
0
174
0
175
0
176
0
177
0
178
0
270
2
179
2
271
2
272
2
273
2
274
2
275
0
280
0
281
0
282
0
283
1
284
8
285
0
286
0
287
3
288
0
340
11
278
46
341
212
342
212
343
212
344
212
  0
ENDTAB
  0
ENDSEC
  0
SECTION
  2
BLOCKS
  0
BLOCK
  5
20
100
AcDbEntity
  8
0
100
AcDbBlockBegin
  2
*Model_Space
 70
0
 10
0.0
 20
0.0
 30
0.0
  3
*Model_Space
  1

  0
ENDBLK
  5
21
100
AcDbEntity
  8
0
100
AcDbBlockEnd
  0
BLOCK
  5
1C
100
AcDbEntity
  8
0
100
AcDbBlockBegin
  2
*Paper_Space
 70
0
 10
0.0
 20
0.0
 30
0.0
  3
*Paper_Space
  1

  0
ENDBLK
  5
1D
100
AcDbEntity
  8
0
100
AcDbBlockEnd
  0
BLOCK
  5
214
100
AcDbEntity
  8
0
100
AcDbBlockBegin
  2
_FILLED
 70
64
 10
0.0
 20
0.0
  3
_FILLED
  1

  0
SOLID
  5
215
100
AcDbEntity
  8
0
  6
BYBLOCK
 62
0
100
AcDbTrace
 10
0.0
 20
0.0
 11
-1.0
 21
0.25
 12
-1.0
 22
-0.25
 13
-1.0
 23
-0.25
  0
ENDBLK
  5
216
100
AcDbEntity
  8
0
  6
BYBLOCK
 62
0
100
AcDbBlockEnd
  0
ENDSEC
  0
SECTION
  2
ENTITIES
  0
LINE
  5
217
100
AcDbEntity
  8
0
100
AcDbLine
 62
7
  6
BYLAYER
 10
22.1941987375
 20
8.3180141867
 11
67.1941987375
 21
8.3180141867
  0
LINE
  5
218
100
AcDbEntity
  8
0
100
AcDbLine
 62
7
  6
BYLAYER
 10
43.1941987375
 20
11.8180141867
 11
31.1941987375
 21
11.8180141867
  0
LINE
  5
219
100
AcDbEntity
  8
0
100
AcDbLine
 62
7
  6
BYLAYER
 10
28.1941987375
 20
12.8180141867
 11
46.1941987375
 21
12.8180141867
  0
LINE
  5
21A
100
AcDbEntity
  8
0
100
AcDbLine
 62
7
  6
BYLAYER
 10
67.1941987375
 20
17.2180141867
 11
22.1941987375
 21
17.2180141867
  0
LINE
  5
21B
100
AcDbEntity
  8
0
100
AcDbLine
 62
7
  6
BYLAYER
 10
22.1941987375
 20
18.2180141867
 11
67.1941987375
 21
18.2180141867
  0
LINE
  5
21C
100
AcDbEntity
  8
0
100
AcDbLine
 62
7
  6
BYLAYER
 10
62.0941987375
 20
26.0780141867
 11
57.2941987375
 21
26.0780141867
  0
LINE
  5
21D
100
AcDbEntity
  8
0
100
AcDbLine
 62
7
  6
BYLAYER
 10
47.0941987375
 20
26.0780141867
 11
42.2941987375
 21
26.0780141867
  0
LINE
  5
21E
100
AcDbEntity
  8
0
100
AcDbLine
 62
7
  6
BYLAYER
 10
32.0941987375
 20
26.0780141867
 11
27.2941987375
 21
26.0780141867
  0
LINE
  5
21F
100
AcDbEntity
  8
0
100
AcDbLine
 62
7
  6
BYLAYER
 10
13.1941987375
 20
69.3180141867
 11
13.1941987375
 21
70.6180141867
  0
LINE
  5
220
100
AcDbEntity
  8
0
100
AcDbLine
 62
7
  6
BYLAYER
 10
14.6941987375
 20
70.6180141867
 11
14.6941987375
 21
74.9180141867
  0
LINE
  5
221
100
AcDbEntity
  8
0
100
AcDbLine
 62
7
  6
BYLAYER
 10
27.2941987375
 20
32.3680141867
 11
32.0941987375
 21
32.3680141867
  0
LINE
  5
222
100
AcDbEntity
  8
0
100
AcDbLine
 62
7
  6
BYLAYER
 10
42.2941987375
 20
32.3680141867
 11
47.0941987375
 21
32.3680141867
  0
LINE
  5
223
100
AcDbEntity
  8
0
100
AcDbLine
 62
7
  6
BYLAYER
 10
57.2941987375
 20
32.3680141867
 11
62.0941987375
 21
32.3680141867
  0
LINE
  5
224
100
AcDbEntity
  8
0
100
AcDbLine
 62
7
  6
BYLAYER
 10
17.6941987375
 20
70.6180141867
 11
17.6941987375
 21
75.9180141867
  0
LINE
  5
225
100
AcDbEntity
  8
0
100
AcDbLine
 62
7
  6
BYLAYER
 10
17.7941987375
 20
63.6180141867
 11
17.7941987375
 21
69.3180141867
  0
LINE
  5
226
100
AcDbEntity
  8
0
100
AcDbLine
 62
7
  6
BYLAYER
 10
18.9441987375
 20
55.9180141867
 11
18.9441987375
 21
63.6180141867
  0
LINE
  5
227
100
AcDbEntity
  8
0
100
AcDbLine
 62
7
  6
BYLAYER
 10
20.6941987375
 20
69.3180141867
 11
20.6941987375
 21
63.6180141867
  0
LINE
  5
228
100
AcDbEntity
  8
0
100
AcDbLine
 62
7
  6
BYLAYER
 10
20.7941987375
 20
70.6180141867
 11
20.7941987375
 21
69.3180141867
  0
LINE
  5
229
100
AcDbEntity
  8
0
100
AcDbLine
 62
7
  6
BYLAYER
 10
22.1941987375
 20
113.9180141867
 11
22.1941987375
 21
75.9180141867
  0
LINE
  5
22A
100
AcDbEntity
  8
0
100
AcDbLine
 62
7
  6
BYLAYER
 10
22.1941987375
 20
8.3180141867
 11
22.1941987375
 21
55.9180141867
  0
LINE
  5
22B
100
AcDbEntity
  8
0
100
AcDbLine
 62
7
  6
BYLAYER
 10
22.4441987375
 20
55.9180141867
 11
22.4441987375
 21
63.6180141867
  0
LINE
  5
22C
100
AcDbEntity
  8
0
100
AcDbLine
 62
7
  6
BYLAYER
 10
25.0031008211
 20
97.6992202263
 11
24.9103872734
 21
113.9878132424
  0
LINE
  5
22D
100
AcDbEntity
  8
0
100
AcDbLine
 62
7
  6
BYLAYER
 10
24.9103872744
 20
115.9180141867
 11
24.9103872744
 21
113.9878132113
  0
LINE
  5
22E
100
AcDbEntity
  8
0
100
AcDbLine
 62
7
  6
BYLAYER
 10
27.2941987375
 20
26.0780141867
 11
27.2941987375
 21
32.3680141867
  0
LINE
  5
22F
100
AcDbEntity
  8
0
100
AcDbLine
 62
7
  6
BYLAYER
 10
28.1941987375
 20
8.3180141867
 11
28.1941987375
 21
12.8180141867
  0
LINE
  5
230
100
AcDbEntity
  8
0
100
AcDbLine
 62
7
  6
BYLAYER
 10
30.7452192519
 20
59.2180141867
 11
30.7452192519
 21
63.6180141867
  0
LINE
  5
231
100
AcDbEntity
  8
0
100
AcDbLine
 62
7
  6
BYLAYER
 10
32.0941987375
 20
32.3680141867
 11
32.0941987375
 21
26.0780141867
  0
LINE
  5
232
100
AcDbEntity
  8
0
100
AcDbLine
 62
7
  6
BYLAYER
 10
67.1941987375
 20
47.7180141867
 11
22.1941987375
 21
47.7180141867
  0
LINE
  5
233
100
AcDbEntity
  8
0
100
AcDbLine
 62
7
  6
BYLAYER
 10
22.1941987375
 20
48.7180141867
 11
67.1941987375
 21
48.7180141867
  0
LINE
  5
234
100
AcDbEntity
  8
0
100
AcDbLine
 62
7
  6
BYLAYER
 10
33.1941987375
 20
8.3180141867
 11
33.1941987375
 21
11.8180141867
  0
LINE
  5
235
100
AcDbEntity
  8
0
100
AcDbLine
 62
7
  6
BYLAYER
 10
35.6441987375
 20
63.6180141867
 11
35.6441987375
 21
59.2180141867
  0
LINE
  5
236
100
AcDbEntity
  8
0
100
AcDbLine
 62
7
  6
BYLAYER
 10
18.9441987375
 20
55.9180141867
 11
22.4441987375
 21
55.9180141867
  0
LINE
  5
237
100
AcDbEntity
  8
0
100
AcDbLine
 62
7
  6
BYLAYER
 10
66.9441987375
 20
55.9180141867
 11
70.4441987375
 21
55.9180141867
  0
LINE
  5
238
100
AcDbEntity
  8
0
100
AcDbLine
 62
7
  6
BYLAYER
 10
41.1941987375
 20
11.8180141867
 11
41.1941987375
 21
8.3180141867
  0
LINE
  5
239
100
AcDbEntity
  8
0
100
AcDbLine
 62
7
  6
BYLAYER
 10
42.2941987375
 20
26.0780141867
 11
42.2941987375
 21
32.3680141867
  0
LINE
  5
23A
100
AcDbEntity
  8
0
100
AcDbLine
 62
7
  6
BYLAYER
 10
30.7452192519
 20
59.2180141867
 11
58.643178223
 21
59.2180141867
  0
LINE
  5
23B
100
AcDbEntity
  8
0
100
AcDbLine
 62
7
  6
BYLAYER
 10
46.1941987375
 20
12.8180141867
 11
46.1941987375
 21
8.3180141867
  0
LINE
  5
23C
100
AcDbEntity
  8
0
100
AcDbLine
 62
7
  6
BYLAYER
 10
47.0941987375
 20
32.3680141867
 11
47.0941987375
 21
26.0780141867
  0
LINE
  5
23D
100
AcDbEntity
  8
0
100
AcDbLine
 62
7
  6
BYLAYER
 10
17.7941987375
 20
63.6180141867
 11
71.5941987375
 21
63.6180141867
  0
LINE
  5
23E
100
AcDbEntity
  8
0
100
AcDbLine
 62
7
  6
BYLAYER
 10
13.1941987375
 20
69.3180141867
 11
76.1941987375
 21
69.3180141867
  0
LINE
  5
23F
100
AcDbEntity
  8
0
100
AcDbLine
 62
7
  6
BYLAYER
 10
76.1941987375
 20
70.6180141867
 11
13.1941987375
 21
70.6180141867
  0
LINE
  5
240
100
AcDbEntity
  8
0
100
AcDbLine
 62
7
  6
BYLAYER
 10
53.7441987375
 20
59.2180141867
 11
53.7441987375
 21
63.6180141867
  0
LINE
  5
241
100
AcDbEntity
  8
0
100
AcDbLine
 62
7
  6
BYLAYER
 10
57.2941987375
 20
26.0780141867
 11
57.2941987375
 21
32.3680141867
  0
LINE
  5
242
100
AcDbEntity
  8
0
100
AcDbLine
 62
7
  6
BYLAYER
 10
74.6941987375
 20
74.9180141867
 11
14.6941987375
 21
74.9180141867
  0
LINE
  5
243
100
AcDbEntity
  8
0
100
AcDbLine
 62
7
  6
BYLAYER
 10
58.1941987375
 20
113.9180141867
 11
58.1941987375
 21
115.9180141867
  0
LINE
  5
244
100
AcDbEntity
  8
0
100
AcDbLine
 62
7
  6
BYLAYER
 10
58.5941987375
 20
113.9180141867
 11
58.5941987375
 21
115.9180141867
  0
LINE
  5
245
100
AcDbEntity
  8
0
100
AcDbLine
 62
7
  6
BYLAYER
 10
58.643178223
 20
63.6180141867
 11
58.643178223
 21
59.2180141867
  0
LINE
  5
246
100
AcDbEntity
  8
0
100
AcDbLine
 62
7
  6
BYLAYER
 10
15.6941987375
 20
75.9180141867
 11
73.6941987375
 21
75.9180141867
  0
LINE
  5
247
100
AcDbEntity
  8
0
100
AcDbLine
 62
7
  6
BYLAYER
 10
62.0941987375
 20
32.3680141867
 11
62.0941987375
 21
26.0780141867
  0
LINE
  5
248
100
AcDbEntity
  8
0
100
AcDbLine
 62
7
  6
BYLAYER
 10
64.4780100164
 20
113.987813201
 11
64.4780100164
 21
115.9180141867
  0
LINE
  5
249
100
AcDbEntity
  8
0
100
AcDbLine
 62
7
  6
BYLAYER
 10
64.4780101998
 20
113.9878132219
 11
64.3852966539
 21
97.6992202263
  0
LINE
  5
24A
100
AcDbEntity
  8
0
100
AcDbLine
 62
7
  6
BYLAYER
 10
66.9441987375
 20
55.9180141867
 11
66.9441987375
 21
63.6180141867
  0
LINE
  5
24B
100
AcDbEntity
  8
0
100
AcDbLine
 62
7
  6
BYLAYER
 10
67.1941987375
 20
113.9180141867
 11
67.1941987375
 21
75.9180141867
  0
LINE
  5
24C
100
AcDbEntity
  8
0
100
AcDbLine
 62
7
  6
BYLAYER
 10
67.1941987375
 20
8.3180141867
 11
67.1941987375
 21
55.9180141867
  0
LINE
  5
24D
100
AcDbEntity
  8
0
100
AcDbLine
 62
7
  6
BYLAYER
 10
68.5941987375
 20
69.3180141867
 11
68.5941987375
 21
70.6180141867
  0
LINE
  5
24E
100
AcDbEntity
  8
0
100
AcDbLine
 62
7
  6
BYLAYER
 10
68.6941987375
 20
63.6180141867
 11
68.6941987375
 21
69.3180141867
  0
LINE
  5
24F
100
AcDbEntity
  8
0
100
AcDbLine
 62
7
  6
BYLAYER
 10
54.5186833406
 20
83.6180141867
 11
34.8697141349
 21
83.6180141867
  0
LINE
  5
250
100
AcDbEntity
  8
0
100
AcDbLine
 62
7
  6
BYLAYER
 10
53.4270739393
 20
86.1180141867
 11
35.9613235357
 21
86.1180141867
  0
LINE
  5
251
100
AcDbEntity
  8
0
100
AcDbLine
 62
7
  6
BYLAYER
 10
70.4441987375
 20
55.9180141867
 11
70.4441987375
 21
63.6180141867
  0
LINE
  5
252
100
AcDbEntity
  8
0
100
AcDbLine
 62
7
  6
BYLAYER
 10
71.5941987375
 20
69.3180141867
 11
71.5941987375
 21
63.6180141867
  0
LINE
  5
253
100
AcDbEntity
  8
0
100
AcDbLine
 62
7
  6
BYLAYER
 10
71.6941987375
 20
70.6180141867
 11
71.6941987375
 21
75.9180141867
  0
LINE
  5
254
100
AcDbEntity
  8
0
100
AcDbLine
 62
7
  6
BYLAYER
 10
74.6941987375
 20
70.6180141867
 11
74.6941987375
 21
74.9180141867
  0
LINE
  5
255
100
AcDbEntity
  8
0
100
AcDbLine
 62
7
  6
BYLAYER
 10
76.1941987375
 20
70.6180141867
 11
76.1941987375
 21
69.3180141867
  0
LINE
  5
256
100
AcDbEntity
  8
0
100
AcDbLine
 62
7
  6
BYLAYER
 10
25.0031008211
 20
97.6992202263
 11
64.3852966539
 21
97.6992202263
  0
LINE
  5
257
100
AcDbEntity
  8
0
100
AcDbLine
 62
7
  6
BYLAYER
 10
67.1941987375
 20
113.9180141867
 11
66.9510882466
 21
113.9180141867
  0
LINE
  5
258
100
AcDbEntity
  8
0
100
AcDbLine
 62
7
  6
BYLAYER
 10
22.4373092285
 20
113.9180141867
 11
22.1941987375
 21
113.9180141867
  0
LINE
  5
259
100
AcDbEntity
  8
0
100
AcDbLine
 62
7
  6
BYLAYER
 10
58.1941987375
 20
113.9180141867
 11
58.5941987375
 21
113.9180141867
  0
LINE
  5
25A
100
AcDbEntity
  8
0
100
AcDbLine
 62
7
  6
BYLAYER
 10
64.4780101998
 20
113.9878132219
 11
58.5941987375
 21
113.9878131801
  0
LINE
  5
25B
100
AcDbEntity
  8
0
100
AcDbLine
 62
7
  6
BYLAYER
 10
58.1941987375
 20
113.9878131802
 11
24.9103872734
 21
113.9878132424
  0
LINE
  5
25C
100
AcDbEntity
  8
0
100
AcDbLine
 62
7
  6
BYLAYER
 10
24.1942030351
 20
115.9180141867
 11
65.1941944399
 21
115.9180141867
  0
ARC
  5
25D
100
AcDbEntity
  8
0
100
AcDbCircle
 62
7
  6
BYLAYER
 10
65.1941987375
 20
113.9180141867
 40
2.0
100
AcDbArc
 50
0.0
 51
90.0
  0
ARC
  5
25E
100
AcDbEntity
  8
0
100
AcDbCircle
 62
7
  6
BYLAYER
 10
24.1941987375
 20
113.9180141867
 40
2.0
100
AcDbArc
 50
90.0
 51
180.0
  0
ARC
  5
25F
100
AcDbEntity
  8
0
100
AcDbCircle
 62
7
  6
BYLAYER
 10
64.9713146995
 20
113.9514987115
 40
1.9665573889
100
AcDbArc
 50
83.8126156044
 51
84.4838860339
  0
ARC
  5
260
100
AcDbEntity
  8
0
100
AcDbCircle
 62
7
  6
BYLAYER
 10
64.9723808487
 20
113.964582182
 40
1.9534320309
100
AcDbArc
 50
84.4781241195
 51
89.9909993967
  0
ARC
  5
261
100
AcDbEntity
  8
0
100
AcDbCircle
 62
7
  6
BYLAYER
 10
73.6941987375
 20
74.9180141867
 40
1.0
100
AcDbArc
 50
0.0
 51
90.0
  0
ARC
  5
262
100
AcDbEntity
  8
0
100
AcDbCircle
 62
7
  6
BYLAYER
 10
15.6941987375
 20
74.9180141867
 40
1.0
100
AcDbArc
 50
90.0
 51
180.0
  0
SPLINE
  5
263
100
AcDbEntity
  8
0
100
AcDbSpline
 62
7
  6
BYLAYER
 70
0
 71
3
 72
15
 73
11
 74
0
 42
0.0000001
 43
0.0000001
 44
0.0000000001
 40
0.0
 40
0.0
 40
0.0
 40
0.0
 40
0.3520228444
 40
0.5140820401
 40
0.6599218214
 40
0.7849925175
 40
0.8852801859
 40
0.9576955288
 40
0.9827141545
 40
1.0
 40
1.0
 40
1.0
 40
1.0
 10
24.9103871117
 20
113.9878036266
 30
0.0
 10
24.6199244511
 20
113.9866283955
 30
0.0
 10
24.195746113
 20
113.9828672718
 30
0.0
 10
23.6513005479
 20
113.9735361518
 30
0.0
 10
23.2941438449
 20
113.9650414849
 30
0.0
 10
22.9880011736
 20
113.9552728486
 30
0.0
 10
22.7425457972
 20
113.9444550825
 30
0.0
 10
22.5796589696
 20
113.9344447954
 30
0.0
 10
22.485450153
 20
113.9252975691
 30
0.0
 10
22.4508132393
 20
113.9206919893
 30
0.0
 10
22.4368038766
 20
113.9180136479
 30
0.0
  0
SPLINE
  5
264
100
AcDbEntity
  8
0
100
AcDbSpline
 62
7
  6
BYLAYER
 70
0
 71
3
 72
15
 73
11
 74
0
 42
0.0000001
 43
0.0000001
 44
0.0000000001
 40
0.0
 40
0.0
 40
0.0
 40
0.0
 40
0.1256270257
 40
0.2512272417
 40
0.3765564263
 40
0.5016853139
 40
0.6265608096
 40
0.7511674462
 40
0.8756872999
 40
1.0
 40
1.0
 40
1.0
 40
1.0
 10
22.4373225387
 20
113.9180145245
 30
0.0
 10
22.4373225529
 20
114.0486498996
 30
0.0
 10
22.462872512
 20
114.3105891394
 30
0.0
 10
22.5759606976
 20
114.6879401728
 30
0.0
 10
22.7599095808
 20
115.035875225
 30
0.0
 10
23.0073404719
 20
115.3409416546
 30
0.0
 10
23.3090362591
 20
115.5913250167
 30
0.0
 10
23.6533765759
 20
115.7775731954
 30
0.0
 10
24.0269737884
 20
115.892109706
 30
0.0
 10
24.2864432636
 20
115.9180141061
 30
0.0
 10
24.4157119152
 20
115.9180141422
 30
0.0
  0
SPLINE
  5
265
100
AcDbEntity
  8
0
100
AcDbSpline
 62
7
  6
BYLAYER
 70
0
 71
3
 72
9
 73
5
 74
0
 42
0.0000001
 43
0.0000001
 44
0.0000000001
 40
0.0
 40
0.0
 40
0.0
 40
0.0
 40
0.4999990478
 40
1.0
 40
1.0
 40
1.0
 40
1.0
 10
22.4373092285
 20
113.9180141867
 30
0.0
 10
22.4538923246
 20
111.2003403466
 30
0.0
 10
22.4855188291
 20
105.7649724596
 30
0.0
 10
22.5234196714
 20
100.3296446985
 30
0.0
 10
22.5417135815
 20
97.6119714846
 30
0.0
  0
SPLINE
  5
266
100
AcDbEntity
  8
0
100
AcDbSpline
 62
7
  6
BYLAYER
 70
0
 71
3
 72
23
 73
19
 74
0
 42
0.0000001
 43
0.0000001
 44
0.0000000001
 40
0.0
 40
0.0
 40
0.0
 40
0.0
 40
0.0788712594
 40
0.1558557052
 40
0.2296426399
 40
0.299178765
 40
0.3637986383
 40
0.4233658889
 40
0.4784131711
 40
0.5301904063
 40
0.5805009009
 40
0.6312889044
 40
0.6841742424
 40
0.7402011504
 40
0.7998513257
 40
0.8631895478
 40
0.9300199764
 40
1.0
 40
1.0
 40
1.0
 40
1.0
 10
22.5417135815
 20
97.6119714846
 30
0.0
 10
22.5458212595
 20
97.0239418605
 30
0.0
 10
22.567892711
 20
95.8619834574
 30
0.0
 10
22.6487221281
 20
94.1514544918
 30
0.0
 10
22.7882097716
 20
92.5142941064
 30
0.0
 10
23.0020640077
 20
90.9777217514
 30
0.0
 10
23.3087149746
 20
89.5643873011
 30
0.0
 10
23.727566865
 20
88.292010664
 30
0.0
 10
24.2768663523
 20
87.1740763086
 30
0.0
 10
24.9700989044
 20
86.2213331817
 30
0.0
 10
25.8103084956
 20
85.4405209817
 30
0.0
 10
26.7888102292
 20
84.8283615468
 30
0.0
 10
27.8922170048
 20
84.3694914953
 30
0.0
 10
29.1083802129
 20
84.0421203486
 30
0.0
 10
30.4266198436
 20
83.8235409607
 30
0.0
 10
31.8365841839
 20
83.6922026478
 30
0.0
 10
33.3278599216
 20
83.6280576746
 30
0.0
 10
34.3479609479
 20
83.618013738
 30
0.0
 10
34.8697141349
 20
83.6180141867
 30
0.0
  0
SPLINE
  5
267
100
AcDbEntity
  8
0
100
AcDbSpline
 62
7
  6
BYLAYER
 70
0
 71
3
 72
9
 73
5
 74
0
 42
0.0000001
 43
0.0000001
 44
0.0000000001
 40
0.0
 40
0.0
 40
0.0
 40
0.0
 40
0.5000009522
 40
1.0
 40
1.0
 40
1.0
 40
1.0
 10
66.8466838934
 20
97.6119714846
 30
0.0
 10
66.864977501
 20
100.3296447005
 30
0.0
 10
66.9028786467
 20
105.7649724595
 30
0.0
 10
66.9345054519
 20
111.2003403447
 30
0.0
 10
66.9510882466
 20
113.9180141867
 30
0.0
  0
SPLINE
  5
268
100
AcDbEntity
  8
0
100
AcDbSpline
 62
7
  6
BYLAYER
 70
0
 71
3
 72
13
 73
9
 74
0
 42
0.0000001
 43
0.0000001
 44
0.0000000001
 40
0.0
 40
0.0
 40
0.0
 40
0.0
 40
0.1100329494
 40
0.2265575565
 40
0.3483022662
 40
0.4741799546
 40
0.7342645705
 40
1.0
 40
1.0
 40
1.0
 40
1.0
 10
31.1941987375
 20
11.8180141867
 30
0.0
 10
31.0775459591
 20
11.8180141867
 30
0.0
 10
30.8373283495
 20
11.8411215024
 30
0.0
 10
30.4760619725
 20
11.9193988731
 30
0.0
 10
30.1058794824
 20
12.0299443924
 30
0.0
 10
29.5986073723
 20
12.2103448178
 30
0.0
 10
28.9602296353
 20
12.4754320639
 30
0.0
 10
28.451375172
 20
12.7030013888
 30
0.0
 10
28.1941987375
 20
12.8180141867
 30
0.0
  0
SPLINE
  5
269
100
AcDbEntity
  8
0
100
AcDbSpline
 62
7
  6
BYLAYER
 70
0
 71
3
 72
13
 73
9
 74
0
 42
0.0000001
 43
0.0000001
 44
0.0000000001
 40
0.0
 40
0.0
 40
0.0
 40
0.0
 40
0.1246585539
 40
0.249335215
 40
0.3742115277
 40
0.4993599301
 40
0.74931622
 40
1.0
 40
1.0
 40
1.0
 40
1.0
 10
65.1832711539
 20
115.9066003522
 30
0.0
 10
65.3032195295
 20
115.8935966126
 30
0.0
 10
65.5413345057
 20
115.8453695749
 30
0.0
 10
65.8787790888
 20
115.708515035
 30
0.0
 10
66.185991936
 20
115.5118058785
 30
0.0
 10
66.540963829
 20
115.1795331753
 30
0.0
 10
66.8622902663
 20
114.6495500173
 30
0.0
 10
66.9510782226
 20
114.1606393305
 30
0.0
 10
66.9510782595
 20
113.9180142088
 30
0.0
  0
SPLINE
  5
26A
100
AcDbEntity
  8
0
100
AcDbSpline
 62
7
  6
BYLAYER
 70
0
 71
3
 72
15
 73
11
 74
0
 42
0.0000001
 43
0.0000001
 44
0.0000000001
 40
0.0
 40
0.0
 40
0.0
 40
0.0
 40
0.0172858104
 40
0.0423045142
 40
0.1147198321
 40
0.2150073791
 40
0.3400775235
 40
0.4859168263
 40
0.6479756256
 40
1.0
 40
1.0
 40
1.0
 40
1.0
 10
66.9515640087
 20
113.9180070719
 30
0.0
 10
66.9375548792
 20
113.9206855782
 30
0.0
 10
66.9029183656
 20
113.9252913528
 30
0.0
 10
66.8087107024
 20
113.9344389431
 30
0.0
 10
66.6458258932
 20
113.9444497078
 30
0.0
 10
66.4003740237
 20
113.9552677169
 30
0.0
 10
66.0942359523
 20
113.9650367592
 30
0.0
 10
65.7370846754
 20
113.9735317932
 30
0.0
 10
65.1926450379
 20
113.9828632191
 30
0.0
 10
64.7684708027
 20
113.9866249445
 30
0.0
 10
64.4780103267
 20
113.9878002325
 30
0.0
  0
SPLINE
  5
26B
100
AcDbEntity
  8
0
100
AcDbSpline
 62
7
  6
BYLAYER
 70
0
 71
3
 72
13
 73
9
 74
0
 42
0.0000001
 43
0.0000001
 44
0.0000000001
 40
0.0
 40
0.0
 40
0.0
 40
0.0
 40
0.1099949993
 40
0.2266161269
 40
0.3483747526
 40
0.4742344545
 40
0.7343252452
 40
1.0
 40
1.0
 40
1.0
 40
1.0
 10
43.1941987375
 20
11.8180141867
 30
0.0
 10
43.3108116787
 20
11.8180141867
 30
0.0
 10
43.5511066027
 20
11.8410025553
 30
0.0
 10
43.9124116503
 20
11.9194864974
 30
0.0
 10
44.2827418173
 20
12.0298700137
 30
0.0
 10
44.789943378
 20
12.2104978359
 30
0.0
 10
45.4282808886
 20
12.4754635666
 30
0.0
 10
45.9370801501
 20
12.7030272588
 30
0.0
 10
46.1941987375
 20
12.8180141867
 30
0.0
  0
SPLINE
  5
26C
100
AcDbEntity
  8
0
100
AcDbSpline
 62
7
  6
BYLAYER
 70
0
 71
3
 72
22
 73
18
 74
0
 42
0.0000001
 43
0.0000001
 44
0.0000000001
 40
0.0
 40
0.0
 40
0.0
 40
0.0
 40
0.0726994966
 40
0.1423504097
 40
0.2085482227
 40
0.2709819953
 40
0.3295861088
 40
0.3846758511
 40
0.4371420238
 40
0.4885112969
 40
0.5406837314
 40
0.5954100923
 40
0.6538926675
 40
0.7165610191
 40
0.7832535013
 40
0.8533457738
 40
1.0
 40
1.0
 40
1.0
 40
1.0
 10
35.9613236013
 20
86.1180141867
 30
0.0
 10
35.4974646014
 20
86.118014207
 30
0.0
 10
34.5891354499
 20
86.1261873982
 30
0.0
 10
33.2592621889
 20
86.1797405718
 30
0.0
 10
31.9982309223
 20
86.2893786451
 30
0.0
 10
30.8165307056
 20
86.4732473394
 30
0.0
 10
29.7251614559
 20
86.7501645458
 30
0.0
 10
28.7349771098
 20
87.1392702182
 30
0.0
 10
27.8595079353
 20
87.6612834061
 30
0.0
 10
27.1098466366
 20
88.3259061296
 30
0.0
 10
26.4979034186
 20
89.136847253
 30
0.0
 10
26.0165280014
 20
90.0808864802
 30
0.0
 10
25.6551325735
 20
91.146388903
 30
0.0
 10
25.3927811891
 20
92.3174789823
 30
0.0
 10
25.2111559822
 20
93.5779821024
 30
0.0
 10
25.0524380035
 20
95.3800346411
 30
0.0
 10
25.0101238111
 20
96.7635195695
 30
0.0
 10
25.0031009977
 20
97.6992202277
 30
0.0
  0
SPLINE
  5
26D
100
AcDbEntity
  8
0
100
AcDbSpline
 62
7
  6
BYLAYER
 70
0
 71
3
 72
22
 73
18
 74
0
 42
0.0000001
 43
0.0000001
 44
0.0000000001
 40
0.0
 40
0.0
 40
0.0
 40
0.0
 40
0.1466447307
 40
0.2167354334
 40
0.2834291004
 40
0.3460989422
 40
0.4045822043
 40
0.4593080418
 40
0.5114802404
 40
0.5628509599
 40
0.6153196283
 40
0.6704120466
 40
0.7290168166
 40
0.7914477361
 40
0.8576436471
 40
0.9272974697
 40
1.0
 40
1.0
 40
1.0
 40
1.0
 10
64.3852971816
 20
97.6992202224
 30
0.0
 10
64.3782753438
 20
96.7635801727
 30
0.0
 10
64.3359641873
 20
95.3801660228
 30
0.0
 10
64.1772619666
 20
93.5781756396
 30
0.0
 10
63.9956512945
 20
92.3176633933
 30
0.0
 10
63.7333088978
 20
91.1465493502
 30
0.0
 10
63.3719294106
 20
90.081030904
 30
0.0
 10
62.8905781418
 20
89.1369798475
 30
0.0
 10
62.2786494066
 20
88.3260226823
 30
0.0
 10
61.528992551
 20
87.6613601022
 30
0.0
 10
60.6535016114
 20
87.1392980953
 30
0.0
 10
59.6632822457
 20
86.7501769128
 30
0.0
 10
58.5719112756
 20
86.4732559657
 30
0.0
 10
57.390238159
 20
86.289382749
 30
0.0
 10
56.1292183321
 20
86.1797481268
 30
0.0
 10
54.7993194997
 20
86.1261928372
 30
0.0
 10
53.8909524782
 20
86.1180149556
 30
0.0
 10
53.4270741355
 20
86.1180141867
 30
0.0
  0
SPLINE
  5
26E
100
AcDbEntity
  8
0
100
AcDbSpline
 62
7
  6
BYLAYER
 70
0
 71
3
 72
23
 73
19
 74
0
 42
0.0000001
 43
0.0000001
 44
0.0000000001
 40
0.0
 40
0.0
 40
0.0
 40
0.0
 40
0.0788713729
 40
0.1558558578
 40
0.2296427578
 40
0.2991789201
 40
0.3637987422
 40
0.4233658749
 40
0.4784131793
 40
0.5301903895
 40
0.5805008264
 40
0.6312888423
 40
0.6841742555
 40
0.7402011665
 40
0.7998513401
 40
0.8631895998
 40
0.9300200295
 40
1.0
 40
1.0
 40
1.0
 40
1.0
 10
66.8466838934
 20
97.6119714846
 30
0.0
 10
66.8425761405
 20
97.023941168
 30
0.0
 10
66.8205051137
 20
95.8619819251
 30
0.0
 10
66.7396753676
 20
94.1514525217
 30
0.0
 10
66.6001868672
 20
92.5142923515
 30
0.0
 10
66.3863342061
 20
90.9777205786
 30
0.0
 10
66.0796827279
 20
89.5643874729
 30
0.0
 10
65.6608274669
 20
88.2920135264
 30
0.0
 10
65.1115288201
 20
87.1740802961
 30
0.0
 10
64.4182964164
 20
86.2213377667
 30
0.0
 10
63.5780844981
 20
85.4405289935
 30
0.0
 10
62.5995821981
 20
84.8283718245
 30
0.0
 10
61.4961796966
 20
84.369491017
 30
0.0
 10
60.2800162672
 20
84.0421177208
 30
0.0
 10
58.9617759674
 20
83.823542682
 30
0.0
 10
57.5518114556
 20
83.6922078962
 30
0.0
 10
56.0605363446
 20
83.6280618097
 30
0.0
 10
55.0404359963
 20
83.618014259
 30
0.0
 10
54.5186833406
 20
83.6180141867
 30
0.0
  0
SPLINE
  5
26F
100
AcDbEntity
  8
0
100
AcDbSpline
 62
7
  6
BYLAYER
 70
0
 71
3
 72
16
 73
12
 74
0
 42
0.0000001
 43
0.0000001
 44
0.0000000001
 40
0.0
 40
0.0
 40
0.0
 40
0.0
 40
0.1557374901
 40
0.3158587394
 40
0.4727336385
 40
0.6176896336
 40
0.7434501116
 40
0.798270444
 40
0.8475139001
 40
0.9305562942
 40
1.0
 40
1.0
 40
1.0
 40
1.0
 10
54.5186833329
 20
83.6180141867
 30
0.0
 10
54.518683333
 20
83.7699177777
 30
0.0
 10
54.5063168442
 20
84.0781236728
 30
0.0
 10
54.4500819876
 20
84.5363889952
 30
0.0
 10
54.3514009112
 20
84.9768627767
 30
0.0
 10
54.2157259472
 20
85.3723476969
 30
0.0
 10
54.0676529493
 20
85.6553187935
 30
0.0
 10
53.9341611728
 20
85.8360137072
 30
0.0
 10
53.8089433646
 20
85.969145234
 30
0.0
 10
53.6445214556
 20
86.083943564
 30
0.0
 10
53.494808095
 20
86.1180141867
 30
0.0
 10
53.4270739336
 20
86.1180141867
 30
0.0
  0
SPLINE
  5
270
100
AcDbEntity
  8
0
100
AcDbSpline
 62
7
  6
BYLAYER
 70
0
 71
3
 72
15
 73
11
 74
0
 42
0.0000001
 43
0.0000001
 44
0.0000000001
 40
0.0
 40
0.0
 40
0.0
 40
0.0
 40
0.3282391563
 40
0.4912731386
 40
0.6426744688
 40
0.7741658017
 40
0.8797616528
 40
0.9550972898
 40
0.9812939624
 40
1.0
 40
1.0
 40
1.0
 40
1.0
 10
64.385296713
 20
97.6992202052
 30
0.0
 10
64.6548893498
 20
97.6975481536
 30
0.0
 10
65.0583798355
 20
97.6928635474
 30
0.0
 10
65.5861202906
 20
97.6815324402
 30
0.0
 10
65.9522270553
 20
97.6708391346
 30
0.0
 10
66.2710744189
 20
97.6582223926
 30
0.0
 10
66.5273078845
 20
97.6444560289
 30
0.0
 10
66.6970081408
 20
97.6317272215
 30
0.0
 10
66.7951340482
 20
97.620571019
 30
0.0
 10
66.8316256757
 20
97.6150220961
 30
0.0
 10
66.8466838932
 20
97.6119714595
 30
0.0
  0
SPLINE
  5
271
100
AcDbEntity
  8
0
100
AcDbSpline
 62
7
  6
BYLAYER
 70
0
 71
3
 72
16
 73
12
 74
0
 42
0.0000001
 43
0.0000001
 44
0.0000000001
 40
0.0
 40
0.0
 40
0.0
 40
0.0
 40
0.0694437048
 40
0.1524860978
 40
0.2017295533
 40
0.2565498852
 40
0.3823103622
 40
0.5272663572
 40
0.684141257
 40
0.8442625078
 40
1.0
 40
1.0
 40
1.0
 40
1.0
 10
35.9613235396
 20
86.1180141867
 30
0.0
 10
35.8935893792
 20
86.1180141867
 30
0.0
 10
35.7438760206
 20
86.0839435651
 30
0.0
 10
35.5794541131
 20
85.9691452376
 30
0.0
 10
35.4542363055
 20
85.8360137133
 30
0.0
 10
35.320744529
 20
85.6553188021
 30
0.0
 10
35.1726715304
 20
85.3723477076
 30
0.0
 10
35.036996565
 20
84.9768627883
 30
0.0
 10
34.9383154869
 20
84.5363890051
 30
0.0
 10
34.8820806291
 20
84.0781236785
 30
0.0
 10
34.86971414
 20
83.7699177798
 30
0.0
 10
34.86971414
 20
83.6180141867
 30
0.0
  0
SPLINE
  5
272
100
AcDbEntity
  8
0
100
AcDbSpline
 62
7
  6
BYLAYER
 70
0
 71
3
 72
15
 73
11
 74
0
 42
0.0000001
 43
0.0000001
 44
0.0000000001
 40
0.0
 40
0.0
 40
0.0
 40
0.0
 40
0.3282391535
 40
0.4912731352
 40
0.6426744653
 40
0.7741657989
 40
0.879761651
 40
0.9550972891
 40
0.9812939621
 40
1.0
 40
1.0
 40
1.0
 40
1.0
 10
25.0031007496
 20
97.6992202259
 30
0.0
 10
24.7335081165
 20
97.6975481744
 30
0.0
 10
24.3300176357
 20
97.6928635685
 30
0.0
 10
23.8022771861
 20
97.6815324619
 30
0.0
 10
23.4361704232
 20
97.6708391569
 30
0.0
 10
23.1173230599
 20
97.6582224156
 30
0.0
 10
22.8610895933
 20
97.6444560527
 30
0.0
 10
22.6913893358
 20
97.6317272458
 30
0.0
 10
22.5932634274
 20
97.6205710438
 30
0.0
 10
22.5567717994
 20
97.6150221211
 30
0.0
 10
22.5417135818
 20
97.6119714847
 30
0.0
  0
ENDSEC
  0
SECTION
  2
OBJECTS
  0
DICTIONARY
  5
C
100
AcDbDictionary
280
0
281
1
  3
ACAD_GROUP
350
D
  3
ACAD_MLINESTYLE
350
17
  3
ACAD_LAYOUT
350
1A
  3
ACAD_PLOTSETTINGS
350
19
  3
ACAD_PLOTSTYLENAME
350
E
  0
DICTIONARY
  5
D
102
{ACAD_REACTORS
330
C
102
}
100
AcDbDictionary
280
0
281
1
  0
ACDBDICTIONARYWDFLT
  5
E
102
{ACAD_REACTORS
330
C
102
}
100
AcDbDictionary
281
1
  3
Normal
350
F
100
AcDbDictionaryWithDefault
340
F
  0
DICTIONARY
  5
17
102
{ACAD_REACTORS
330
C
102
}
100
AcDbDictionary
280
0
281
1
  3
Standard
350
18
  0
DICTIONARY
  5
19
102
{ACAD_REACTORS
330
C
102
}
100
AcDbDictionary
281
1
  0
DICTIONARY
  5
1A
102
{ACAD_REACTORS
330
C
102
}
100
AcDbDictionary
281
1
  3
Model
350
273
  3
Layout1
350
274
  0
ACDBPLACEHOLDER
  5
F
102
{ACAD_REACTORS
330
E
102
}
  0
MLINESTYLE
  5
18
102
{ACAD_REACTORS
330
17
102
}
100
AcDbMlineStyle
  2
STANDARD
 70
0
  3

 62
256
 51
90.0
 52
90.0
 71
2
 49
0.5
 62
256
  6
BYLAYER
 49
-0.5
 62
256
  6
BYLAYER
  0
LAYOUT
  5
273
102
{ACAD_REACTORS
330
1A
102
}
100
AcDbPlotSettings
  1

  2
none_device
  4

  6

 40
0.0
 41
0.0
 42
0.0
 43
0.0
 44
210.0
 45
297.0
 46
0.0
 47
0.0
 48
0.0
 49
0.0
140
0.0
141
0.0
142
1.0
143
1.0
 70
1024
 72
1
 73
0
 74
0
  7

 75
0
147
1.0
148
0.0
149
0.0
100
AcDbLayout
  1
Model
 70
0
 71
0
 10
0.0
 20
0.0
 11
210.0
 21
297.0
 12
0.0
 22
0.0
 32
0.0
 14
0.0
 24
0.0
 34
0.0
 15
0.0
 25
0.0
 35
0.0
146
0.0
 13
0.0
 23
0.0
 33
0.0
 16
1.0
 26
0.0
 36
0.0
 17
0.0
 27
1.0
 37
0.0
 76
0
330
210
345
0
346
0
  0
LAYOUT
  5
274
102
{ACAD_REACTORS
330
1A
102
}
100
AcDbPlotSettings
  1

  2
none_device
  4

  6

 40
0.0
 41
0.0
 42
0.0
 43
0.0
 44
210.0
 45
297.0
 46
0.0
 47
0.0
 48
0.0
 49
0.0
140
0.0
141
0.0
142
1.0
143
1.0
 70
0
 72
1
 73
0
 74
0
  7

 75
0
147
1.0
148
0.0
149
0.0
100
AcDbLayout
  1
Layout1
 70
0
 71
1
 10
0.0
 20
0.0
 11
210.0
 21
297.0
 12
0.0
 22
0.0
 32
0.0
 14
0.0
 24
0.0
 34
0.0
 15
0.0
 25
0.0
 35
0.0
146
0.0
 13
0.0
 23
0.0
 33
0.0
 16
1.0
 26
0.0
 36
0.0
 17
0.0
 27
1.0
 37
0.0
 76
0
330
211
345
0
346
0
  0
ENDSEC
  0
EOF
