  0
SECTION
  2
HEADER
  9
$ACADVER
  1
AC1006
  9
$EXTMIN
 10
-2.397224
 20
-3.867043
  9
$EXTMAX
 10
2.393000
 20
3.865000
  9
$LTSCALE
 40
0.000394
  9
$PDMODE
 70
    35
  9
$PDSIZE
 40
0.000315
  0
ENDSEC
  0
SECTION
  2
TABLES
  0
TABLE
  2
LTYPE
 70
     9
  0
LTYPE
  2
CONTINUOUS
 70
    64
  3
Solid line
 72
    65
 73
     0
 40
0.000000
  0
LTYPE
  2
DASHED
 70
    64
  3
__ __ __ __ __ __ __ __ __ __ __ __ __ __ __
 72
    65
 73
     2
 40
0.000003
 49
0.000002
 49
-0.000001
  0
LTYPE
  2
HIDDEN
 70
    64
  3
 _ _ _ _ _ _ _ _ _ _ _ _ _ _ _ _ _ _ _ _ _ _
 72
    65
 73
     2
 40
0.000001
 49
0.000001
 49
-0.000000
  0
LTYPE
  2
CENTER
 70
    64
  3
____ _ ____ _ ____ _ ____ _ ____ _ ____ _ ____
 72
    65
 73
     4
 40
0.000008
 49
0.000005
 49
-0.000001
 49
0.000001
 49
-0.000001
  0
LTYPE
  2
PHANTOM
 70
    64
  3
_____ _ _ _____ _ _ _____ _ _ _____ _ _ ____
 72
    65
 73
     6
 40
0.000010
 49
0.000005
 49
-0.000001
 49
0.000001
 49
-0.000001
 49
0.000001
 49
-0.000001
  0
LTYPE
  2
DOT
 70
    64
  3
...............................................
 72
    65
 73
     2
 40
0.000001
 49
0.000000
 49
-0.000001
  0
LTYPE
  2
DASHDOT
 70
    64
  3
__ . __ . __ . __ . __ . __ . __ . __ . __ . __
 72
    65
 73
     4
 40
0.000004
 49
0.000002
 49
-0.000001
 49
0.000000
 49
-0.000001
  0
LTYPE
  2
BORDER
 70
    64
  3
__ __ . __ __ . __ __ . __ __ . __ __ . __ __
 72
    65
 73
     6
 40
0.000007
 49
0.000002
 49
-0.000001
 49
0.000002
 49
-0.000001
 49
0.000000
 49
-0.000001
  0
LTYPE
  2
DIVIDE
 70
    64
  3
__ . . __ . . __ . . __ . . __ . . __ . . __
 72
    65
 73
     6
 40
0.000005
 49
0.000002
 49
-0.000001
 49
0.000000
 49
-0.000001
 49
0.000000
 49
-0.000001
  0
LTYPE
  2
DOTDOT
 70
    64
  3
 . .  . .  . .  . .  . .  . . 
 72
    65
 73
     5
 40
0.000002
 49
-0.000001
 49
0.000000
 49
-0.000001
 49
0.000000
 49
-0.000001
  0
ENDTAB
  0
TABLE
  2
STYLE
 70
     0
  0
ENDTAB
  0
TABLE
  2
LAYER
 70
     3
  0
LAYER
  2
FOREGROUND
 70
    64
 62
     7
  6
CONTINUOUS
  0
LAYER
  2
BACKGROUND
 70
    65
 62
    -7
  6
CONTINUOUS
  0
LAYER
  2
PLAN_1
 70
    64
 62
     7
  6
CONTINUOUS
  0
ENDTAB
  0
ENDSEC
  0
SECTION
  2
ENTITIES
  0
POLYLINE
  8
PLAN_1
  6
CONTINUOUS
 66
     1
 40
0.003000
 41
0.003000
  0
VERTEX
  8
PLAN_1
  6
CONTINUOUS
 10
0.531996
 20
-3.832248
  0
VERTEX
  8
PLAN_1
  6
CONTINUOUS
 10
0.375421
 20
-3.832248
  0
VERTEX
  8
PLAN_1
  6
CONTINUOUS
 10
0.375421
 20
-3.810020
  0
VERTEX
  8
PLAN_1
  6
CONTINUOUS
 10
0.497201
 20
-3.656827
  0
VERTEX
  8
PLAN_1
  6
CONTINUOUS
 10
0.384602
 20
-3.656827
  0
VERTEX
  8
PLAN_1
  6
CONTINUOUS
 10
0.384602
 20
-3.633150
  0
VERTEX
  8
PLAN_1
  6
CONTINUOUS
 10
0.531996
 20
-3.633150
  0
VERTEX
  8
PLAN_1
  6
CONTINUOUS
 10
0.531996
 20
-3.656343
  0
VERTEX
  8
PLAN_1
  6
CONTINUOUS
 10
0.409248
 20
-3.808567
  0
VERTEX
  8
PLAN_1
  6
CONTINUOUS
 10
0.531996
 20
-3.808567
  0
VERTEX
  8
PLAN_1
  6
CONTINUOUS
 10
0.531996
 20
-3.832248
  0
SEQEND
  8
0
  0
POLYLINE
  8
PLAN_1
  6
CONTINUOUS
 66
     1
 40
0.003000
 41
0.003000
  0
VERTEX
  8
PLAN_1
  6
CONTINUOUS
 10
0.699681
 20
-3.693071
  0
VERTEX
  8
PLAN_1
  6
CONTINUOUS
 10
0.697748
 20
-3.686787
  0
VERTEX
  8
PLAN_1
  6
CONTINUOUS
 10
0.695815
 20
-3.680988
  0
VERTEX
  8
PLAN_1
  6
CONTINUOUS
 10
0.693402
 20
-3.676157
  0
VERTEX
  8
PLAN_1
  6
CONTINUOUS
 10
0.690500
 20
-3.671807
  0
VERTEX
  8
PLAN_1
  6
CONTINUOUS
 10
0.687118
 20
-3.667941
  0
VERTEX
  8
PLAN_1
  6
CONTINUOUS
 10
0.683736
 20
-3.664559
  0
VERTEX
  8
PLAN_1
  6
CONTINUOUS
 10
0.679870
 20
-3.661661
  0
VERTEX
  8
PLAN_1
  6
CONTINUOUS
 10
0.676004
 20
-3.659244
  0
VERTEX
  8
PLAN_1
  6
CONTINUOUS
 10
0.672138
 20
-3.657311
  0
VERTEX
  8
PLAN_1
  6
CONTINUOUS
 10
0.667787
 20
-3.655378
  0
VERTEX
  8
PLAN_1
  6
CONTINUOUS
 10
0.663921
 20
-3.654409
  0
VERTEX
  8
PLAN_1
  6
CONTINUOUS
 10
0.659575
 20
-3.652961
  0
VERTEX
  8
PLAN_1
  6
CONTINUOUS
 10
0.651358
 20
-3.651996
  0
VERTEX
  8
PLAN_1
  6
CONTINUOUS
 10
0.643626
 20
-3.651512
  0
VERTEX
  8
PLAN_1
  6
CONTINUOUS
 10
0.636858
 20
-3.651996
  0
VERTEX
  8
PLAN_1
  6
CONTINUOUS
 10
0.630579
 20
-3.652961
  0
VERTEX
  8
PLAN_1
  6
CONTINUOUS
 10
0.624295
 20
-3.654409
  0
VERTEX
  8
PLAN_1
  6
CONTINUOUS
 10
0.618496
 20
-3.656827
  0
VERTEX
  8
PLAN_1
  6
CONTINUOUS
 10
0.612697
 20
-3.659244
  0
VERTEX
  8
PLAN_1
  6
CONTINUOUS
 10
0.607382
 20
-3.662626
  0
VERTEX
  8
PLAN_1
  6
CONTINUOUS
 10
0.602067
 20
-3.666976
  0
VERTEX
  8
PLAN_1
  6
CONTINUOUS
 10
0.597717
 20
-3.671323
  0
VERTEX
  8
PLAN_1
  6
CONTINUOUS
 10
0.593366
 20
-3.676642
  0
VERTEX
  8
PLAN_1
  6
CONTINUOUS
 10
0.589500
 20
-3.682921
  0
VERTEX
  8
PLAN_1
  6
CONTINUOUS
 10
0.586602
 20
-3.689205
  0
VERTEX
  8
PLAN_1
  6
CONTINUOUS
 10
0.583701
 20
-3.696453
  0
VERTEX
  8
PLAN_1
  6
CONTINUOUS
 10
0.581287
 20
-3.704185
  0
VERTEX
  8
PLAN_1
  6
CONTINUOUS
 10
0.579835
 20
-3.712402
  0
VERTEX
  8
PLAN_1
  6
CONTINUOUS
 10
0.578870
 20
-3.721098
  0
VERTEX
  8
PLAN_1
  6
CONTINUOUS
 10
0.578386
 20
-3.730764
  0
VERTEX
  8
PLAN_1
  6
CONTINUOUS
 10
0.578870
 20
-3.739465
  0
VERTEX
  8
PLAN_1
  6
CONTINUOUS
 10
0.579354
 20
-3.747677
  0
VERTEX
  8
PLAN_1
  6
CONTINUOUS
 10
0.580319
 20
-3.755894
  0
VERTEX
  8
PLAN_1
  6
CONTINUOUS
 10
0.581768
 20
-3.763626
  0
VERTEX
  8
PLAN_1
  6
CONTINUOUS
 10
0.583701
 20
-3.770874
  0
VERTEX
  8
PLAN_1
  6
CONTINUOUS
 10
0.586602
 20
-3.777642
  0
VERTEX
  8
PLAN_1
  6
CONTINUOUS
 10
0.589500
 20
-3.783921
  0
VERTEX
  8
PLAN_1
  6
CONTINUOUS
 10
0.592886
 20
-3.789720
  0
VERTEX
  8
PLAN_1
  6
CONTINUOUS
 10
0.597232
 20
-3.795035
  0
VERTEX
  8
PLAN_1
  6
CONTINUOUS
 10
0.602067
 20
-3.799870
  0
VERTEX
  8
PLAN_1
  6
CONTINUOUS
 10
0.607382
 20
-3.803736
  0
VERTEX
  8
PLAN_1
  6
CONTINUOUS
 10
0.613665
 20
-3.807602
  0
VERTEX
  8
PLAN_1
  6
CONTINUOUS
 10
0.619945
 20
-3.810020
  0
VERTEX
  8
PLAN_1
  6
CONTINUOUS
 10
0.627677
 20
-3.811953
  0
VERTEX
  8
PLAN_1
  6
CONTINUOUS
 10
0.635894
 20
-3.813402
  0
VERTEX
  8
PLAN_1
  6
CONTINUOUS
 10
0.644591
 20
-3.813886
  0
VERTEX
  8
PLAN_1
  6
CONTINUOUS
 10
0.647976
 20
-3.813886
  0
VERTEX
  8
PLAN_1
  6
CONTINUOUS
 10
0.651843
 20
-3.813402
  0
VERTEX
  8
PLAN_1
  6
CONTINUOUS
 10
0.655709
 20
-3.812917
  0
VERTEX
  8
PLAN_1
  6
CONTINUOUS
 10
0.659575
 20
-3.811953
  0
VERTEX
  8
PLAN_1
  6
CONTINUOUS
 10
0.663921
 20
-3.810500
  0
VERTEX
  8
PLAN_1
  6
CONTINUOUS
 10
0.667787
 20
-3.808567
  0
VERTEX
  8
PLAN_1
  6
CONTINUOUS
 10
0.672138
 20
-3.806634
  0
VERTEX
  8
PLAN_1
  6
CONTINUOUS
 10
0.676004
 20
-3.803736
  0
VERTEX
  8
PLAN_1
  6
CONTINUOUS
 10
0.680354
 20
-3.800354
  0
VERTEX
  8
PLAN_1
  6
CONTINUOUS
 10
0.684220
 20
-3.796969
  0
VERTEX
  8
PLAN_1
  6
CONTINUOUS
 10
0.687602
 20
-3.792138
  0
VERTEX
  8
PLAN_1
  6
CONTINUOUS
 10
0.690984
 20
-3.787307
  0
VERTEX
  8
PLAN_1
  6
CONTINUOUS
 10
0.694366
 20
-3.781508
  0
VERTEX
  8
PLAN_1
  6
CONTINUOUS
 10
0.697268
 20
-3.774740
  0
VERTEX
  8
PLAN_1
  6
CONTINUOUS
 10
0.699681
 20
-3.767492
  0
VERTEX
  8
PLAN_1
  6
CONTINUOUS
 10
0.701614
 20
-3.759276
  0
VERTEX
  8
PLAN_1
  6
CONTINUOUS
 10
0.727713
 20
-3.759276
  0
VERTEX
  8
PLAN_1
  6
CONTINUOUS
 10
0.726260
 20
-3.766043
  0
VERTEX
  8
PLAN_1
  6
CONTINUOUS
 10
0.724811
 20
-3.772323
  0
VERTEX
  8
PLAN_1
  6
CONTINUOUS
 10
0.723362
 20
-3.778606
  0
VERTEX
  8
PLAN_1
  6
CONTINUOUS
 10
0.721429
 20
-3.783921
  0
VERTEX
  8
PLAN_1
  6
CONTINUOUS
 10
0.719012
 20
-3.789240
  0
VERTEX
  8
PLAN_1
  6
CONTINUOUS
 10
0.716598
 20
-3.794071
  0
VERTEX
  8
PLAN_1
  6
CONTINUOUS
 10
0.714181
 20
-3.798902
  0
VERTEX
  8
PLAN_1
  6
CONTINUOUS
 10
0.711280
 20
-3.803252
  0
VERTEX
  8
PLAN_1
  6
CONTINUOUS
 10
0.708382
 20
-3.807118
  0
VERTEX
  8
PLAN_1
  6
CONTINUOUS
 10
0.705480
 20
-3.810500
  0
VERTEX
  8
PLAN_1
  6
CONTINUOUS
 10
0.702098
 20
-3.813886
  0
VERTEX
  8
PLAN_1
  6
CONTINUOUS
 10
0.699201
 20
-3.816783
  0
VERTEX
  8
PLAN_1
  6
CONTINUOUS
 10
0.692433
 20
-3.822098
  0
VERTEX
  8
PLAN_1
  6
CONTINUOUS
 10
0.685669
 20
-3.826449
  0
VERTEX
  8
PLAN_1
  6
CONTINUOUS
 10
0.678421
 20
-3.829831
  0
VERTEX
  8
PLAN_1
  6
CONTINUOUS
 10
0.671654
 20
-3.832732
  0
VERTEX
  8
PLAN_1
  6
CONTINUOUS
 10
0.664890
 20
-3.834665
  0
VERTEX
  8
PLAN_1
  6
CONTINUOUS
 10
0.658606
 20
-3.836114
  0
VERTEX
  8
PLAN_1
  6
CONTINUOUS
 10
0.647976
 20
-3.837563
  0
VERTEX
  8
PLAN_1
  6
CONTINUOUS
 10
0.640244
 20
-3.837563
  0
VERTEX
  8
PLAN_1
  6
CONTINUOUS
 10
0.632028
 20
-3.837079
  0
VERTEX
  8
PLAN_1
  6
CONTINUOUS
 10
0.623811
 20
-3.836114
  0
VERTEX
  8
PLAN_1
  6
CONTINUOUS
 10
0.615598
 20
-3.834181
  0
VERTEX
  8
PLAN_1
  6
CONTINUOUS
 10
0.607382
 20
-3.831764
  0
VERTEX
  8
PLAN_1
  6
CONTINUOUS
 10
0.599650
 20
-3.828382
  0
VERTEX
  8
PLAN_1
  6
CONTINUOUS
 10
0.592402
 20
-3.824516
  0
VERTEX
  8
PLAN_1
  6
CONTINUOUS
 10
0.588535
 20
-3.822098
  0
VERTEX
  8
PLAN_1
  6
CONTINUOUS
 10
0.585154
 20
-3.819201
  0
VERTEX
  8
PLAN_1
  6
CONTINUOUS
 10
0.581768
 20
-3.816299
  0
VERTEX
  8
PLAN_1
  6
CONTINUOUS
 10
0.578870
 20
-3.813402
  0
VERTEX
  8
PLAN_1
  6
CONTINUOUS
 10
0.575488
 20
-3.810020
  0
VERTEX
  8
PLAN_1
  6
CONTINUOUS
 10
0.572587
 20
-3.806634
  0
VERTEX
  8
PLAN_1
  6
CONTINUOUS
 10
0.569689
 20
-3.802768
  0
VERTEX
  8
PLAN_1
  6
CONTINUOUS
 10
0.567272
 20
-3.798902
  0
VERTEX
  8
PLAN_1
  6
CONTINUOUS
 10
0.564854
 20
-3.794555
  0
VERTEX
  8
PLAN_1
  6
CONTINUOUS
 10
0.562441
 20
-3.790205
  0
VERTEX
  8
PLAN_1
  6
CONTINUOUS
 10
0.560508
 20
-3.785374
  0
VERTEX
  8
PLAN_1
  6
CONTINUOUS
 10
0.558575
 20
-3.780539
  0
VERTEX
  8
PLAN_1
  6
CONTINUOUS
 10
0.556642
 20
-3.775224
  0
VERTEX
  8
PLAN_1
  6
CONTINUOUS
 10
0.555189
 20
-3.769909
  0
VERTEX
  8
PLAN_1
  6
CONTINUOUS
 10
0.553740
 20
-3.764110
  0
VERTEX
  8
PLAN_1
  6
CONTINUOUS
 10
0.552776
 20
-3.758311
  0
VERTEX
  8
PLAN_1
  6
CONTINUOUS
 10
0.551807
 20
-3.752028
  0
VERTEX
  8
PLAN_1
  6
CONTINUOUS
 10
0.551323
 20
-3.745264
  0
VERTEX
  8
PLAN_1
  6
CONTINUOUS
 10
0.550843
 20
-3.738496
  0
VERTEX
  8
PLAN_1
  6
CONTINUOUS
 10
0.550843
 20
-3.731732
  0
VERTEX
  8
PLAN_1
  6
CONTINUOUS
 10
0.551323
 20
-3.720134
  0
VERTEX
  8
PLAN_1
  6
CONTINUOUS
 10
0.552291
 20
-3.709500
  0
VERTEX
  8
PLAN_1
  6
CONTINUOUS
 10
0.554224
 20
-3.699354
  0
VERTEX
  8
PLAN_1
  6
CONTINUOUS
 10
0.557122
 20
-3.689689
  0
VERTEX
  8
PLAN_1
  6
CONTINUOUS
 10
0.560508
 20
-3.680508
  0
VERTEX
  8
PLAN_1
  6
CONTINUOUS
 10
0.564854
 20
-3.671807
  0
VERTEX
  8
PLAN_1
  6
CONTINUOUS
 10
0.569689
 20
-3.664075
  0
VERTEX
  8
PLAN_1
  6
CONTINUOUS
 10
0.575488
 20
-3.656827
  0
VERTEX
  8
PLAN_1
  6
CONTINUOUS
 10
0.578386
 20
-3.653445
  0
VERTEX
  8
PLAN_1
  6
CONTINUOUS
 10
0.581768
 20
-3.650063
  0
VERTEX
  8
PLAN_1
  6
CONTINUOUS
 10
0.585154
 20
-3.647161
  0
VERTEX
  8
PLAN_1
  6
CONTINUOUS
 10
0.589020
 20
-3.644264
  0
VERTEX
  8
PLAN_1
  6
CONTINUOUS
 10
0.592402
 20
-3.641846
  0
VERTEX
  8
PLAN_1
  6
CONTINUOUS
 10
0.596268
 20
-3.639429
  0
VERTEX
  8
PLAN_1
  6
CONTINUOUS
 10
0.600614
 20
-3.637496
  0
VERTEX
  8
PLAN_1
  6
CONTINUOUS
 10
0.604965
 20
-3.635563
  0
VERTEX
  8
PLAN_1
  6
CONTINUOUS
 10
0.609315
 20
-3.633630
  0
VERTEX
  8
PLAN_1
  6
CONTINUOUS
 10
0.613665
 20
-3.632181
  0
VERTEX
  8
PLAN_1
  6
CONTINUOUS
 10
0.618496
 20
-3.630732
  0
VERTEX
  8
PLAN_1
  6
CONTINUOUS
 10
0.623331
 20
-3.629764
  0
VERTEX
  8
PLAN_1
  6
CONTINUOUS
 10
0.628161
 20
-3.628799
  0
VERTEX
  8
PLAN_1
  6
CONTINUOUS
 10
0.632992
 20
-3.628315
  0
VERTEX
  8
PLAN_1
  6
CONTINUOUS
 10
0.638311
 20
-3.627831
  0
VERTEX
  8
PLAN_1
  6
CONTINUOUS
 10
0.643626
 20
-3.627831
  0
VERTEX
  8
PLAN_1
  6
CONTINUOUS
 10
0.653291
 20
-3.628315
  0
VERTEX
  8
PLAN_1
  6
CONTINUOUS
 10
0.661988
 20
-3.629283
  0
VERTEX
  8
PLAN_1
  6
CONTINUOUS
 10
0.670205
 20
-3.630732
  0
VERTEX
  8
PLAN_1
  6
CONTINUOUS
 10
0.677453
 20
-3.633150
  0
VERTEX
  8
PLAN_1
  6
CONTINUOUS
 10
0.684701
 20
-3.636047
  0
VERTEX
  8
PLAN_1
  6
CONTINUOUS
 10
0.690984
 20
-3.639429
  0
VERTEX
  8
PLAN_1
  6
CONTINUOUS
 10
0.697268
 20
-3.643780
  0
VERTEX
  8
PLAN_1
  6
CONTINUOUS
 10
0.702583
 20
-3.648130
  0
VERTEX
  8
PLAN_1
  6
CONTINUOUS
 10
0.707413
 20
-3.652476
  0
VERTEX
  8
PLAN_1
  6
CONTINUOUS
 10
0.711764
 20
-3.657795
  0
VERTEX
  8
PLAN_1
  6
CONTINUOUS
 10
0.715146
 20
-3.663110
  0
VERTEX
  8
PLAN_1
  6
CONTINUOUS
 10
0.718531
 20
-3.668909
  0
VERTEX
  8
PLAN_1
  6
CONTINUOUS
 10
0.720945
 20
-3.674709
  0
VERTEX
  8
PLAN_1
  6
CONTINUOUS
 10
0.723362
 20
-3.680508
  0
VERTEX
  8
PLAN_1
  6
CONTINUOUS
 10
0.724811
 20
-3.686787
  0
VERTEX
  8
PLAN_1
  6
CONTINUOUS
 10
0.725780
 20
-3.693071
  0
VERTEX
  8
PLAN_1
  6
CONTINUOUS
 10
0.699681
 20
-3.693071
  0
SEQEND
  8
0
  0
POLYLINE
  8
PLAN_1
  6
CONTINUOUS
 66
     1
 40
0.003000
 41
0.003000
  0
VERTEX
  8
PLAN_1
  6
CONTINUOUS
 10
0.787150
 20
-3.832248
  0
VERTEX
  8
PLAN_1
  6
CONTINUOUS
 10
0.760091
 20
-3.832248
  0
VERTEX
  8
PLAN_1
  6
CONTINUOUS
 10
0.760091
 20
-3.633150
  0
VERTEX
  8
PLAN_1
  6
CONTINUOUS
 10
0.787150
 20
-3.633150
  0
VERTEX
  8
PLAN_1
  6
CONTINUOUS
 10
0.787150
 20
-3.729799
  0
VERTEX
  8
PLAN_1
  6
CONTINUOUS
 10
0.883803
 20
-3.633150
  0
VERTEX
  8
PLAN_1
  6
CONTINUOUS
 10
0.921012
 20
-3.633150
  0
VERTEX
  8
PLAN_1
  6
CONTINUOUS
 10
0.837894
 20
-3.713366
  0
VERTEX
  8
PLAN_1
  6
CONTINUOUS
 10
0.922945
 20
-3.832248
  0
VERTEX
  8
PLAN_1
  6
CONTINUOUS
 10
0.888150
 20
-3.832248
  0
VERTEX
  8
PLAN_1
  6
CONTINUOUS
 10
0.818563
 20
-3.732213
  0
VERTEX
  8
PLAN_1
  6
CONTINUOUS
 10
0.787150
 20
-3.762177
  0
VERTEX
  8
PLAN_1
  6
CONTINUOUS
 10
0.787150
 20
-3.832248
  0
SEQEND
  8
0
  0
POLYLINE
  8
PLAN_1
  6
CONTINUOUS
 66
     1
 40
0.003000
 41
0.003000
  0
VERTEX
  8
PLAN_1
  6
CONTINUOUS
 10
1.030228
 20
-3.832248
  0
VERTEX
  8
PLAN_1
  6
CONTINUOUS
 10
1.003650
 20
-3.832248
  0
VERTEX
  8
PLAN_1
  6
CONTINUOUS
 10
1.003650
 20
-3.752028
  0
VERTEX
  8
PLAN_1
  6
CONTINUOUS
 10
0.928260
 20
-3.633150
  0
VERTEX
  8
PLAN_1
  6
CONTINUOUS
 10
0.959673
 20
-3.633150
  0
VERTEX
  8
PLAN_1
  6
CONTINUOUS
 10
1.016697
 20
-3.728831
  0
VERTEX
  8
PLAN_1
  6
CONTINUOUS
 10
1.073720
 20
-3.633150
  0
VERTEX
  8
PLAN_1
  6
CONTINUOUS
 10
1.105614
 20
-3.633150
  0
VERTEX
  8
PLAN_1
  6
CONTINUOUS
 10
1.030228
 20
-3.752028
  0
VERTEX
  8
PLAN_1
  6
CONTINUOUS
 10
1.030228
 20
-3.832248
  0
SEQEND
  8
0
  0
POLYLINE
  8
PLAN_1
  6
CONTINUOUS
 66
     1
 40
0.003000
 41
0.003000
  0
VERTEX
  8
PLAN_1
  6
CONTINUOUS
 10
1.119630
 20
-3.641362
  0
VERTEX
  8
PLAN_1
  6
CONTINUOUS
 10
1.254941
 20
-3.641362
  0
VERTEX
  8
PLAN_1
  6
CONTINUOUS
 10
1.254941
 20
-3.662626
  0
VERTEX
  8
PLAN_1
  6
CONTINUOUS
 10
1.246240
 20
-3.672291
  0
VERTEX
  8
PLAN_1
  6
CONTINUOUS
 10
1.236094
 20
-3.685339
  0
VERTEX
  8
PLAN_1
  6
CONTINUOUS
 10
1.230295
 20
-3.693555
  0
VERTEX
  8
PLAN_1
  6
CONTINUOUS
 10
1.224496
 20
-3.702252
  0
VERTEX
  8
PLAN_1
  6
CONTINUOUS
 10
1.218697
 20
-3.711917
  0
VERTEX
  8
PLAN_1
  6
CONTINUOUS
 10
1.212413
 20
-3.722551
  0
VERTEX
  8
PLAN_1
  6
CONTINUOUS
 10
1.206614
 20
-3.733665
  0
VERTEX
  8
PLAN_1
  6
CONTINUOUS
 10
1.200815
 20
-3.745744
  0
VERTEX
  8
PLAN_1
  6
CONTINUOUS
 10
1.195500
 20
-3.758311
  0
VERTEX
  8
PLAN_1
  6
CONTINUOUS
 10
1.190185
 20
-3.771843
  0
VERTEX
  8
PLAN_1
  6
CONTINUOUS
 10
1.185350
 20
-3.785854
  0
VERTEX
  8
PLAN_1
  6
CONTINUOUS
 10
1.181004
 20
-3.800835
  0
VERTEX
  8
PLAN_1
  6
CONTINUOUS
 10
1.177618
 20
-3.816299
  0
VERTEX
  8
PLAN_1
  6
CONTINUOUS
 10
1.174720
 20
-3.832248
  0
VERTEX
  8
PLAN_1
  6
CONTINUOUS
 10
1.147657
 20
-3.832248
  0
VERTEX
  8
PLAN_1
  6
CONTINUOUS
 10
1.149106
 20
-3.822098
  0
VERTEX
  8
PLAN_1
  6
CONTINUOUS
 10
1.151524
 20
-3.811469
  0
VERTEX
  8
PLAN_1
  6
CONTINUOUS
 10
1.154425
 20
-3.800835
  0
VERTEX
  8
PLAN_1
  6
CONTINUOUS
 10
1.157807
 20
-3.789720
  0
VERTEX
  8
PLAN_1
  6
CONTINUOUS
 10
1.161673
 20
-3.778606
  0
VERTEX
  8
PLAN_1
  6
CONTINUOUS
 10
1.166020
 20
-3.767492
  0
VERTEX
  8
PLAN_1
  6
CONTINUOUS
 10
1.170854
 20
-3.756378
  0
VERTEX
  8
PLAN_1
  6
CONTINUOUS
 10
1.175685
 20
-3.745264
  0
VERTEX
  8
PLAN_1
  6
CONTINUOUS
 10
1.181484
 20
-3.734146
  0
VERTEX
  8
PLAN_1
  6
CONTINUOUS
 10
1.187283
 20
-3.723031
  0
VERTEX
  8
PLAN_1
  6
CONTINUOUS
 10
1.193567
 20
-3.712402
  0
VERTEX
  8
PLAN_1
  6
CONTINUOUS
 10
1.199850
 20
-3.702252
  0
VERTEX
  8
PLAN_1
  6
CONTINUOUS
 10
1.206614
 20
-3.692106
  0
VERTEX
  8
PLAN_1
  6
CONTINUOUS
 10
1.213382
 20
-3.682921
  0
VERTEX
  8
PLAN_1
  6
CONTINUOUS
 10
1.220146
 20
-3.673740
  0
VERTEX
  8
PLAN_1
  6
CONTINUOUS
 10
1.227394
 20
-3.665043
  0
VERTEX
  8
PLAN_1
  6
CONTINUOUS
 10
1.119630
 20
-3.665043
  0
VERTEX
  8
PLAN_1
  6
CONTINUOUS
 10
1.119630
 20
-3.641362
  0
SEQEND
  8
0
  0
POLYLINE
  8
PLAN_1
  6
CONTINUOUS
 66
     1
 40
0.003000
 41
0.003000
  0
VERTEX
  8
PLAN_1
  6
CONTINUOUS
 10
1.363673
 20
-3.832248
  0
VERTEX
  8
PLAN_1
  6
CONTINUOUS
 10
1.337575
 20
-3.832248
  0
VERTEX
  8
PLAN_1
  6
CONTINUOUS
 10
1.337575
 20
-3.694039
  0
VERTEX
  8
PLAN_1
  6
CONTINUOUS
 10
1.292150
 20
-3.694039
  0
VERTEX
  8
PLAN_1
  6
CONTINUOUS
 10
1.292150
 20
-3.674224
  0
VERTEX
  8
PLAN_1
  6
CONTINUOUS
 10
1.302783
 20
-3.673256
  0
VERTEX
  8
PLAN_1
  6
CONTINUOUS
 10
1.312449
 20
-3.672291
  0
VERTEX
  8
PLAN_1
  6
CONTINUOUS
 10
1.316795
 20
-3.671323
  0
VERTEX
  8
PLAN_1
  6
CONTINUOUS
 10
1.320661
 20
-3.669874
  0
VERTEX
  8
PLAN_1
  6
CONTINUOUS
 10
1.324043
 20
-3.668909
  0
VERTEX
  8
PLAN_1
  6
CONTINUOUS
 10
1.326945
 20
-3.666976
  0
VERTEX
  8
PLAN_1
  6
CONTINUOUS
 10
1.330327
 20
-3.665043
  0
VERTEX
  8
PLAN_1
  6
CONTINUOUS
 10
1.332744
 20
-3.662626
  0
VERTEX
  8
PLAN_1
  6
CONTINUOUS
 10
1.335161
 20
-3.659728
  0
VERTEX
  8
PLAN_1
  6
CONTINUOUS
 10
1.337575
 20
-3.656343
  0
VERTEX
  8
PLAN_1
  6
CONTINUOUS
 10
1.339508
 20
-3.652476
  0
VERTEX
  8
PLAN_1
  6
CONTINUOUS
 10
1.341441
 20
-3.648130
  0
VERTEX
  8
PLAN_1
  6
CONTINUOUS
 10
1.342894
 20
-3.642811
  0
VERTEX
  8
PLAN_1
  6
CONTINUOUS
 10
1.344343
 20
-3.637012
  0
VERTEX
  8
PLAN_1
  6
CONTINUOUS
 10
1.363673
 20
-3.637012
  0
VERTEX
  8
PLAN_1
  6
CONTINUOUS
 10
1.363673
 20
-3.832248
  0
SEQEND
  8
0
  0
SOLID
  8
PLAN_1
 10
1.418280
 20
-3.867043
 11
1.418280
 21
-3.853028
 12
1.572921
 22
-3.867043
 13
1.572921
 23
-3.853028
  0
POLYLINE
  8
PLAN_1
  6
CONTINUOUS
 66
     1
 40
0.003000
 41
0.003000
  0
VERTEX
  8
PLAN_1
  6
CONTINUOUS
 10
1.418280
 20
-3.867043
  0
VERTEX
  8
PLAN_1
  6
CONTINUOUS
 10
1.418280
 20
-3.853028
  0
VERTEX
  8
PLAN_1
  6
CONTINUOUS
 10
1.572921
 20
-3.853028
  0
VERTEX
  8
PLAN_1
  6
CONTINUOUS
 10
1.572921
 20
-3.867043
  0
VERTEX
  8
PLAN_1
  6
CONTINUOUS
 10
1.418280
 20
-3.867043
  0
SEQEND
  8
0
  0
POLYLINE
  8
PLAN_1
  6
CONTINUOUS
 66
     1
 40
0.003000
 41
0.003000
  0
VERTEX
  8
PLAN_1
  6
CONTINUOUS
 10
1.624146
 20
-3.832248
  0
VERTEX
  8
PLAN_1
  6
CONTINUOUS
 10
1.597083
 20
-3.832248
  0
VERTEX
  8
PLAN_1
  6
CONTINUOUS
 10
1.597083
 20
-3.633150
  0
VERTEX
  8
PLAN_1
  6
CONTINUOUS
 10
1.689386
 20
-3.633150
  0
VERTEX
  8
PLAN_1
  6
CONTINUOUS
 10
1.695665
 20
-3.633150
  0
VERTEX
  8
PLAN_1
  6
CONTINUOUS
 10
1.701465
 20
-3.633630
  0
VERTEX
  8
PLAN_1
  6
CONTINUOUS
 10
1.707748
 20
-3.634598
  0
VERTEX
  8
PLAN_1
  6
CONTINUOUS
 10
1.713547
 20
-3.635563
  0
VERTEX
  8
PLAN_1
  6
CONTINUOUS
 10
1.718862
 20
-3.637012
  0
VERTEX
  8
PLAN_1
  6
CONTINUOUS
 10
1.724661
 20
-3.638945
  0
VERTEX
  8
PLAN_1
  6
CONTINUOUS
 10
1.729496
 20
-3.641362
  0
VERTEX
  8
PLAN_1
  6
CONTINUOUS
 10
1.734327
 20
-3.643780
  0
VERTEX
  8
PLAN_1
  6
CONTINUOUS
 10
1.738677
 20
-3.647161
  0
VERTEX
  8
PLAN_1
  6
CONTINUOUS
 10
1.742543
 20
-3.651028
  0
VERTEX
  8
PLAN_1
  6
CONTINUOUS
 10
1.746409
 20
-3.655378
  0
VERTEX
  8
PLAN_1
  6
CONTINUOUS
 10
1.749307
 20
-3.660693
  0
VERTEX
  8
PLAN_1
  6
CONTINUOUS
 10
1.751724
 20
-3.666008
  0
VERTEX
  8
PLAN_1
  6
CONTINUOUS
 10
1.753173
 20
-3.672291
  0
VERTEX
  8
PLAN_1
  6
CONTINUOUS
 10
1.754622
 20
-3.679055
  0
VERTEX
  8
PLAN_1
  6
CONTINUOUS
 10
1.754622
 20
-3.686787
  0
VERTEX
  8
PLAN_1
  6
CONTINUOUS
 10
1.754622
 20
-3.692106
  0
VERTEX
  8
PLAN_1
  6
CONTINUOUS
 10
1.754142
 20
-3.696937
  0
VERTEX
  8
PLAN_1
  6
CONTINUOUS
 10
1.753173
 20
-3.701287
  0
VERTEX
  8
PLAN_1
  6
CONTINUOUS
 10
1.752209
 20
-3.705634
  0
VERTEX
  8
PLAN_1
  6
CONTINUOUS
 10
1.750756
 20
-3.709020
  0
VERTEX
  8
PLAN_1
  6
CONTINUOUS
 10
1.749307
 20
-3.712886
  0
VERTEX
  8
PLAN_1
  6
CONTINUOUS
 10
1.747858
 20
-3.715783
  0
VERTEX
  8
PLAN_1
  6
CONTINUOUS
 10
1.745925
 20
-3.718685
  0
VERTEX
  8
PLAN_1
  6
CONTINUOUS
 10
1.741575
 20
-3.723516
  0
VERTEX
  8
PLAN_1
  6
CONTINUOUS
 10
1.736744
 20
-3.727866
  0
VERTEX
  8
PLAN_1
  6
CONTINUOUS
 10
1.731909
 20
-3.731248
  0
VERTEX
  8
PLAN_1
  6
CONTINUOUS
 10
1.727079
 20
-3.734146
  0
VERTEX
  8
PLAN_1
  6
CONTINUOUS
 10
1.731425
 20
-3.736079
  0
VERTEX
  8
PLAN_1
  6
CONTINUOUS
 10
1.735291
 20
-3.738496
  0
VERTEX
  8
PLAN_1
  6
CONTINUOUS
 10
1.739157
 20
-3.740913
  0
VERTEX
  8
PLAN_1
  6
CONTINUOUS
 10
1.743024
 20
-3.744295
  0
VERTEX
  8
PLAN_1
  6
CONTINUOUS
 10
1.744476
 20
-3.746713
  0
VERTEX
  8
PLAN_1
  6
CONTINUOUS
 10
1.745925
 20
-3.749130
  0
VERTEX
  8
PLAN_1
  6
CONTINUOUS
 10
1.747374
 20
-3.752028
  0
VERTEX
  8
PLAN_1
  6
CONTINUOUS
 10
1.748343
 20
-3.754929
  0
VERTEX
  8
PLAN_1
  6
CONTINUOUS
 10
1.749307
 20
-3.758311
  0
VERTEX
  8
PLAN_1
  6
CONTINUOUS
 10
1.750276
 20
-3.762657
  0
VERTEX
  8
PLAN_1
  6
CONTINUOUS
 10
1.750756
 20
-3.767008
  0
VERTEX
  8
PLAN_1
  6
CONTINUOUS
 10
1.750756
 20
-3.771843
  0
VERTEX
  8
PLAN_1
  6
CONTINUOUS
 10
1.752689
 20
-3.808087
  0
VERTEX
  8
PLAN_1
  6
CONTINUOUS
 10
1.752689
 20
-3.811953
  0
VERTEX
  8
PLAN_1
  6
CONTINUOUS
 10
1.753173
 20
-3.814850
  0
VERTEX
  8
PLAN_1
  6
CONTINUOUS
 10
1.753657
 20
-3.817752
  0
VERTEX
  8
PLAN_1
  6
CONTINUOUS
 10
1.754622
 20
-3.820165
  0
VERTEX
  8
PLAN_1
  6
CONTINUOUS
 10
1.756075
 20
-3.822583
  0
VERTEX
  8
PLAN_1
  6
CONTINUOUS
 10
1.757524
 20
-3.824516
  0
VERTEX
  8
PLAN_1
  6
CONTINUOUS
 10
1.759941
 20
-3.825965
  0
VERTEX
  8
PLAN_1
  6
CONTINUOUS
 10
1.762839
 20
-3.827898
  0
VERTEX
  8
PLAN_1
  6
CONTINUOUS
 10
1.762839
 20
-3.832248
  0
VERTEX
  8
PLAN_1
  6
CONTINUOUS
 10
1.729496
 20
-3.832248
  0
VERTEX
  8
PLAN_1
  6
CONTINUOUS
 10
1.728043
 20
-3.826933
  0
VERTEX
  8
PLAN_1
  6
CONTINUOUS
 10
1.727079
 20
-3.820650
  0
VERTEX
  8
PLAN_1
  6
CONTINUOUS
 10
1.726594
 20
-3.812917
  0
VERTEX
  8
PLAN_1
  6
CONTINUOUS
 10
1.725630
 20
-3.805669
  0
VERTEX
  8
PLAN_1
  6
CONTINUOUS
 10
1.725146
 20
-3.798421
  0
VERTEX
  8
PLAN_1
  6
CONTINUOUS
 10
1.725146
 20
-3.791654
  0
VERTEX
  8
PLAN_1
  6
CONTINUOUS
 10
1.724661
 20
-3.786339
  0
VERTEX
  8
PLAN_1
  6
CONTINUOUS
 10
1.724661
 20
-3.782472
  0
VERTEX
  8
PLAN_1
  6
CONTINUOUS
 10
1.724661
 20
-3.776189
  0
VERTEX
  8
PLAN_1
  6
CONTINUOUS
 10
1.723697
 20
-3.769909
  0
VERTEX
  8
PLAN_1
  6
CONTINUOUS
 10
1.723213
 20
-3.767008
  0
VERTEX
  8
PLAN_1
  6
CONTINUOUS
 10
1.722244
 20
-3.764110
  0
VERTEX
  8
PLAN_1
  6
CONTINUOUS
 10
1.720795
 20
-3.761209
  0
VERTEX
  8
PLAN_1
  6
CONTINUOUS
 10
1.719346
 20
-3.758311
  0
VERTEX
  8
PLAN_1
  6
CONTINUOUS
 10
1.716929
 20
-3.755894
  0
VERTEX
  8
PLAN_1
  6
CONTINUOUS
 10
1.714512
 20
-3.753961
  0
VERTEX
  8
PLAN_1
  6
CONTINUOUS
 10
1.711614
 20
-3.752028
  0
VERTEX
  8
PLAN_1
  6
CONTINUOUS
 10
1.708232
 20
-3.750094
  0
VERTEX
  8
PLAN_1
  6
CONTINUOUS
 10
1.704366
 20
-3.748646
  0
VERTEX
  8
PLAN_1
  6
CONTINUOUS
 10
1.700016
 20
-3.747677
  0
VERTEX
  8
PLAN_1
  6
CONTINUOUS
 10
1.695185
 20
-3.747197
  0
VERTEX
  8
PLAN_1
  6
CONTINUOUS
 10
1.689386
 20
-3.746713
  0
VERTEX
  8
PLAN_1
  6
CONTINUOUS
 10
1.624146
 20
-3.746713
  0
VERTEX
  8
PLAN_1
  6
CONTINUOUS
 10
1.624146
 20
-3.832248
  0
SEQEND
  8
0
  0
POLYLINE
  8
PLAN_1
  6
CONTINUOUS
 66
     1
 40
0.003000
 41
0.003000
  0
VERTEX
  8
PLAN_1
  6
CONTINUOUS
 10
1.624146
 20
-3.724000
  0
VERTEX
  8
PLAN_1
  6
CONTINUOUS
 10
1.686484
 20
-3.724000
  0
VERTEX
  8
PLAN_1
  6
CONTINUOUS
 10
1.693732
 20
-3.723516
  0
VERTEX
  8
PLAN_1
  6
CONTINUOUS
 10
1.700980
 20
-3.722551
  0
VERTEX
  8
PLAN_1
  6
CONTINUOUS
 10
1.704846
 20
-3.721583
  0
VERTEX
  8
PLAN_1
  6
CONTINUOUS
 10
1.708232
 20
-3.720618
  0
VERTEX
  8
PLAN_1
  6
CONTINUOUS
 10
1.711130
 20
-3.719165
  0
VERTEX
  8
PLAN_1
  6
CONTINUOUS
 10
1.714031
 20
-3.717717
  0
VERTEX
  8
PLAN_1
  6
CONTINUOUS
 10
1.716929
 20
-3.715783
  0
VERTEX
  8
PLAN_1
  6
CONTINUOUS
 10
1.719346
 20
-3.713366
  0
VERTEX
  8
PLAN_1
  6
CONTINUOUS
 10
1.721764
 20
-3.710469
  0
VERTEX
  8
PLAN_1
  6
CONTINUOUS
 10
1.723697
 20
-3.707087
  0
VERTEX
  8
PLAN_1
  6
CONTINUOUS
 10
1.725146
 20
-3.703701
  0
VERTEX
  8
PLAN_1
  6
CONTINUOUS
 10
1.726110
 20
-3.699354
  0
VERTEX
  8
PLAN_1
  6
CONTINUOUS
 10
1.726594
 20
-3.694520
  0
VERTEX
  8
PLAN_1
  6
CONTINUOUS
 10
1.727079
 20
-3.689205
  0
VERTEX
  8
PLAN_1
  6
CONTINUOUS
 10
1.726594
 20
-3.683890
  0
VERTEX
  8
PLAN_1
  6
CONTINUOUS
 10
1.726110
 20
-3.679055
  0
VERTEX
  8
PLAN_1
  6
CONTINUOUS
 10
1.725146
 20
-3.674709
  0
VERTEX
  8
PLAN_1
  6
CONTINUOUS
 10
1.723213
 20
-3.671323
  0
VERTEX
  8
PLAN_1
  6
CONTINUOUS
 10
1.721280
 20
-3.667941
  0
VERTEX
  8
PLAN_1
  6
CONTINUOUS
 10
1.719346
 20
-3.665528
  0
VERTEX
  8
PLAN_1
  6
CONTINUOUS
 10
1.716929
 20
-3.663110
  0
VERTEX
  8
PLAN_1
  6
CONTINUOUS
 10
1.714031
 20
-3.661177
  0
VERTEX
  8
PLAN_1
  6
CONTINUOUS
 10
1.711130
 20
-3.659728
  0
VERTEX
  8
PLAN_1
  6
CONTINUOUS
 10
1.708232
 20
-3.658276
  0
VERTEX
  8
PLAN_1
  6
CONTINUOUS
 10
1.705331
 20
-3.657795
  0
VERTEX
  8
PLAN_1
  6
CONTINUOUS
 10
1.702433
 20
-3.656827
  0
VERTEX
  8
PLAN_1
  6
CONTINUOUS
 10
1.696634
 20
-3.656343
  0
VERTEX
  8
PLAN_1
  6
CONTINUOUS
 10
1.691319
 20
-3.655862
  0
VERTEX
  8
PLAN_1
  6
CONTINUOUS
 10
1.624146
 20
-3.655862
  0
VERTEX
  8
PLAN_1
  6
CONTINUOUS
 10
1.624146
 20
-3.724000
  0
SEQEND
  8
0
  0
SOLID
  8
PLAN_1
 10
1.826146
 20
-3.832248
 11
1.797634
 21
-3.832248
 12
1.826146
 22
-3.802768
 13
1.797634
 23
-3.802768
  0
POLYLINE
  8
PLAN_1
  6
CONTINUOUS
 66
     1
 40
0.003000
 41
0.003000
  0
VERTEX
  8
PLAN_1
  6
CONTINUOUS
 10
1.826146
 20
-3.832248
  0
VERTEX
  8
PLAN_1
  6
CONTINUOUS
 10
1.797634
 20
-3.832248
  0
VERTEX
  8
PLAN_1
  6
CONTINUOUS
 10
1.797634
 20
-3.802768
  0
VERTEX
  8
PLAN_1
  6
CONTINUOUS
 10
1.826146
 20
-3.802768
  0
VERTEX
  8
PLAN_1
  6
CONTINUOUS
 10
1.826146
 20
-3.832248
  0
SEQEND
  8
0
  0
POLYLINE
  8
PLAN_1
  6
CONTINUOUS
 66
     1
 40
0.003000
 41
0.003000
  0
VERTEX
  8
PLAN_1
  6
CONTINUOUS
 10
2.021378
 20
-3.832248
  0
VERTEX
  8
PLAN_1
  6
CONTINUOUS
 10
1.874469
 20
-3.832248
  0
VERTEX
  8
PLAN_1
  6
CONTINUOUS
 10
1.874469
 20
-3.633150
  0
VERTEX
  8
PLAN_1
  6
CONTINUOUS
 10
2.019445
 20
-3.633150
  0
VERTEX
  8
PLAN_1
  6
CONTINUOUS
 10
2.019445
 20
-3.656827
  0
VERTEX
  8
PLAN_1
  6
CONTINUOUS
 10
1.901047
 20
-3.656827
  0
VERTEX
  8
PLAN_1
  6
CONTINUOUS
 10
1.901047
 20
-3.718201
  0
VERTEX
  8
PLAN_1
  6
CONTINUOUS
 10
2.010264
 20
-3.718201
  0
VERTEX
  8
PLAN_1
  6
CONTINUOUS
 10
2.010264
 20
-3.741878
  0
VERTEX
  8
PLAN_1
  6
CONTINUOUS
 10
1.901047
 20
-3.741878
  0
VERTEX
  8
PLAN_1
  6
CONTINUOUS
 10
1.901047
 20
-3.808567
  0
VERTEX
  8
PLAN_1
  6
CONTINUOUS
 10
2.021378
 20
-3.808567
  0
VERTEX
  8
PLAN_1
  6
CONTINUOUS
 10
2.021378
 20
-3.832248
  0
SEQEND
  8
0
  0
POLYLINE
  8
PLAN_1
  6
CONTINUOUS
 66
     1
 40
0.003000
 41
0.003000
  0
VERTEX
  8
PLAN_1
  6
CONTINUOUS
 10
2.086618
 20
-3.832248
  0
VERTEX
  8
PLAN_1
  6
CONTINUOUS
 10
2.059555
 20
-3.832248
  0
VERTEX
  8
PLAN_1
  6
CONTINUOUS
 10
2.059555
 20
-3.633150
  0
VERTEX
  8
PLAN_1
  6
CONTINUOUS
 10
2.148957
 20
-3.633150
  0
VERTEX
  8
PLAN_1
  6
CONTINUOUS
 10
2.155724
 20
-3.633150
  0
VERTEX
  8
PLAN_1
  6
CONTINUOUS
 10
2.162488
 20
-3.634114
  0
VERTEX
  8
PLAN_1
  6
CONTINUOUS
 10
2.168287
 20
-3.635563
  0
VERTEX
  8
PLAN_1
  6
CONTINUOUS
 10
2.174087
 20
-3.637496
  0
VERTEX
  8
PLAN_1
  6
CONTINUOUS
 10
2.179402
 20
-3.639429
  0
VERTEX
  8
PLAN_1
  6
CONTINUOUS
 10
2.184236
 20
-3.642331
  0
VERTEX
  8
PLAN_1
  6
CONTINUOUS
 10
2.188583
 20
-3.645228
  0
VERTEX
  8
PLAN_1
  6
CONTINUOUS
 10
2.192449
 20
-3.649094
  0
VERTEX
  8
PLAN_1
  6
CONTINUOUS
 10
2.196315
 20
-3.652961
  0
VERTEX
  8
PLAN_1
  6
CONTINUOUS
 10
2.199217
 20
-3.657311
  0
VERTEX
  8
PLAN_1
  6
CONTINUOUS
 10
2.202114
 20
-3.661661
  0
VERTEX
  8
PLAN_1
  6
CONTINUOUS
 10
2.204047
 20
-3.666976
  0
VERTEX
  8
PLAN_1
  6
CONTINUOUS
 10
2.205980
 20
-3.671807
  0
VERTEX
  8
PLAN_1
  6
CONTINUOUS
 10
2.207429
 20
-3.677606
  0
VERTEX
  8
PLAN_1
  6
CONTINUOUS
 10
2.207913
 20
-3.683406
  0
VERTEX
  8
PLAN_1
  6
CONTINUOUS
 10
2.208398
 20
-3.689205
  0
VERTEX
  8
PLAN_1
  6
CONTINUOUS
 10
2.207913
 20
-3.694520
  0
VERTEX
  8
PLAN_1
  6
CONTINUOUS
 10
2.207429
 20
-3.699835
  0
VERTEX
  8
PLAN_1
  6
CONTINUOUS
 10
2.206465
 20
-3.704669
  0
VERTEX
  8
PLAN_1
  6
CONTINUOUS
 10
2.205016
 20
-3.709984
  0
VERTEX
  8
PLAN_1
  6
CONTINUOUS
 10
2.203083
 20
-3.715299
  0
VERTEX
  8
PLAN_1
  6
CONTINUOUS
 10
2.201150
 20
-3.720134
  0
VERTEX
  8
PLAN_1
  6
CONTINUOUS
 10
2.198248
 20
-3.724484
  0
VERTEX
  8
PLAN_1
  6
CONTINUOUS
 10
2.194866
 20
-3.729315
  0
VERTEX
  8
PLAN_1
  6
CONTINUOUS
 10
2.191000
 20
-3.733181
  0
VERTEX
  8
PLAN_1
  6
CONTINUOUS
 10
2.187134
 20
-3.737047
  0
VERTEX
  8
PLAN_1
  6
CONTINUOUS
 10
2.182303
 20
-3.739945
  0
VERTEX
  8
PLAN_1
  6
CONTINUOUS
 10
2.176504
 20
-3.742846
  0
VERTEX
  8
PLAN_1
  6
CONTINUOUS
 10
2.170705
 20
-3.745264
  0
VERTEX
  8
PLAN_1
  6
CONTINUOUS
 10
2.163937
 20
-3.746713
  0
VERTEX
  8
PLAN_1
  6
CONTINUOUS
 10
2.157173
 20
-3.747677
  0
VERTEX
  8
PLAN_1
  6
CONTINUOUS
 10
2.148957
 20
-3.748161
  0
VERTEX
  8
PLAN_1
  6
CONTINUOUS
 10
2.086618
 20
-3.748161
  0
VERTEX
  8
PLAN_1
  6
CONTINUOUS
 10
2.086618
 20
-3.832248
  0
SEQEND
  8
0
  0
POLYLINE
  8
PLAN_1
  6
CONTINUOUS
 66
     1
 40
0.003000
 41
0.003000
  0
VERTEX
  8
PLAN_1
  6
CONTINUOUS
 10
2.086618
 20
-3.724965
  0
VERTEX
  8
PLAN_1
  6
CONTINUOUS
 10
2.140260
 20
-3.724965
  0
VERTEX
  8
PLAN_1
  6
CONTINUOUS
 10
2.144606
 20
-3.724965
  0
VERTEX
  8
PLAN_1
  6
CONTINUOUS
 10
2.148472
 20
-3.724965
  0
VERTEX
  8
PLAN_1
  6
CONTINUOUS
 10
2.152823
 20
-3.724000
  0
VERTEX
  8
PLAN_1
  6
CONTINUOUS
 10
2.156689
 20
-3.723516
  0
VERTEX
  8
PLAN_1
  6
CONTINUOUS
 10
2.160071
 20
-3.722551
  0
VERTEX
  8
PLAN_1
  6
CONTINUOUS
 10
2.163457
 20
-3.721098
  0
VERTEX
  8
PLAN_1
  6
CONTINUOUS
 10
2.166354
 20
-3.719165
  0
VERTEX
  8
PLAN_1
  6
CONTINUOUS
 10
2.169256
 20
-3.717232
  0
VERTEX
  8
PLAN_1
  6
CONTINUOUS
 10
2.171669
 20
-3.715299
  0
VERTEX
  8
PLAN_1
  6
CONTINUOUS
 10
2.174087
 20
-3.712402
  0
VERTEX
  8
PLAN_1
  6
CONTINUOUS
 10
2.176020
 20
-3.709500
  0
VERTEX
  8
PLAN_1
  6
CONTINUOUS
 10
2.177469
 20
-3.706118
  0
VERTEX
  8
PLAN_1
  6
CONTINUOUS
 10
2.178917
 20
-3.702736
  0
VERTEX
  8
PLAN_1
  6
CONTINUOUS
 10
2.179886
 20
-3.698870
  0
VERTEX
  8
PLAN_1
  6
CONTINUOUS
 10
2.180370
 20
-3.694039
  0
VERTEX
  8
PLAN_1
  6
CONTINUOUS
 10
2.180370
 20
-3.689205
  0
VERTEX
  8
PLAN_1
  6
CONTINUOUS
 10
2.180370
 20
-3.684854
  0
VERTEX
  8
PLAN_1
  6
CONTINUOUS
 10
2.179886
 20
-3.680508
  0
VERTEX
  8
PLAN_1
  6
CONTINUOUS
 10
2.178917
 20
-3.677122
  0
VERTEX
  8
PLAN_1
  6
CONTINUOUS
 10
2.177469
 20
-3.673740
  0
VERTEX
  8
PLAN_1
  6
CONTINUOUS
 10
2.176020
 20
-3.670358
  0
VERTEX
  8
PLAN_1
  6
CONTINUOUS
 10
2.174087
 20
-3.667941
  0
VERTEX
  8
PLAN_1
  6
CONTINUOUS
 10
2.171669
 20
-3.665528
  0
VERTEX
  8
PLAN_1
  6
CONTINUOUS
 10
2.169256
 20
-3.663110
  0
VERTEX
  8
PLAN_1
  6
CONTINUOUS
 10
2.166354
 20
-3.661661
  0
VERTEX
  8
PLAN_1
  6
CONTINUOUS
 10
2.163457
 20
-3.660209
  0
VERTEX
  8
PLAN_1
  6
CONTINUOUS
 10
2.160071
 20
-3.658760
  0
VERTEX
  8
PLAN_1
  6
CONTINUOUS
 10
2.156689
 20
-3.657795
  0
VERTEX
  8
PLAN_1
  6
CONTINUOUS
 10
2.149441
 20
-3.656343
  0
VERTEX
  8
PLAN_1
  6
CONTINUOUS
 10
2.141224
 20
-3.655862
  0
VERTEX
  8
PLAN_1
  6
CONTINUOUS
 10
2.086618
 20
-3.655862
  0
VERTEX
  8
PLAN_1
  6
CONTINUOUS
 10
2.086618
 20
-3.724965
  0
SEQEND
  8
0
  0
POLYLINE
  8
PLAN_1
  6
CONTINUOUS
 66
     1
 40
0.003000
 41
0.003000
  0
VERTEX
  8
PLAN_1
  6
CONTINUOUS
 10
2.362071
 20
-3.691138
  0
VERTEX
  8
PLAN_1
  6
CONTINUOUS
 10
2.361587
 20
-3.685823
  0
VERTEX
  8
PLAN_1
  6
CONTINUOUS
 10
2.360622
 20
-3.680988
  0
VERTEX
  8
PLAN_1
  6
CONTINUOUS
 10
2.359173
 20
-3.676157
  0
VERTEX
  8
PLAN_1
  6
CONTINUOUS
 10
2.357240
 20
-3.671807
  0
VERTEX
  8
PLAN_1
  6
CONTINUOUS
 10
2.354823
 20
-3.668425
  0
VERTEX
  8
PLAN_1
  6
CONTINUOUS
 10
2.351925
 20
-3.665043
  0
VERTEX
  8
PLAN_1
  6
CONTINUOUS
 10
2.348539
 20
-3.662142
  0
VERTEX
  8
PLAN_1
  6
CONTINUOUS
 10
2.345157
 20
-3.659728
  0
VERTEX
  8
PLAN_1
  6
CONTINUOUS
 10
2.341776
 20
-3.657311
  0
VERTEX
  8
PLAN_1
  6
CONTINUOUS
 10
2.337909
 20
-3.655378
  0
VERTEX
  8
PLAN_1
  6
CONTINUOUS
 10
2.334043
 20
-3.653929
  0
VERTEX
  8
PLAN_1
  6
CONTINUOUS
 10
2.329693
 20
-3.652961
  0
VERTEX
  8
PLAN_1
  6
CONTINUOUS
 10
2.325346
 20
-3.651996
  0
VERTEX
  8
PLAN_1
  6
CONTINUOUS
 10
2.321480
 20
-3.651512
  0
VERTEX
  8
PLAN_1
  6
CONTINUOUS
 10
2.317130
 20
-3.651028
  0
VERTEX
  8
PLAN_1
  6
CONTINUOUS
 10
2.312780
 20
-3.651028
  0
VERTEX
  8
PLAN_1
  6
CONTINUOUS
 10
2.306016
 20
-3.651028
  0
VERTEX
  8
PLAN_1
  6
CONTINUOUS
 10
2.298283
 20
-3.651996
  0
VERTEX
  8
PLAN_1
  6
CONTINUOUS
 10
2.294902
 20
-3.652961
  0
VERTEX
  8
PLAN_1
  6
CONTINUOUS
 10
2.291035
 20
-3.653929
  0
VERTEX
  8
PLAN_1
  6
CONTINUOUS
 10
2.287169
 20
-3.655378
  0
VERTEX
  8
PLAN_1
  6
CONTINUOUS
 10
2.283783
 20
-3.656827
  0
VERTEX
  8
PLAN_1
  6
CONTINUOUS
 10
2.280402
 20
-3.659244
  0
VERTEX
  8
PLAN_1
  6
CONTINUOUS
 10
2.277020
 20
-3.661661
  0
VERTEX
  8
PLAN_1
  6
CONTINUOUS
 10
2.274602
 20
-3.664075
  0
VERTEX
  8
PLAN_1
  6
CONTINUOUS
 10
2.272185
 20
-3.667457
  0
VERTEX
  8
PLAN_1
  6
CONTINUOUS
 10
2.269772
 20
-3.671323
  0
VERTEX
  8
PLAN_1
  6
CONTINUOUS
 10
2.268319
 20
-3.675673
  0
VERTEX
  8
PLAN_1
  6
CONTINUOUS
 10
2.267354
 20
-3.680508
  0
VERTEX
  8
PLAN_1
  6
CONTINUOUS
 10
2.267354
 20
-3.685823
  0
VERTEX
  8
PLAN_1
  6
CONTINUOUS
 10
2.267354
 20
-3.688720
  0
VERTEX
  8
PLAN_1
  6
CONTINUOUS
 10
2.267839
 20
-3.691622
  0
VERTEX
  8
PLAN_1
  6
CONTINUOUS
 10
2.268319
 20
-3.694039
  0
VERTEX
  8
PLAN_1
  6
CONTINUOUS
 10
2.269287
 20
-3.696453
  0
VERTEX
  8
PLAN_1
  6
CONTINUOUS
 10
2.270252
 20
-3.698386
  0
VERTEX
  8
PLAN_1
  6
CONTINUOUS
 10
2.271705
 20
-3.700319
  0
VERTEX
  8
PLAN_1
  6
CONTINUOUS
 10
2.273154
 20
-3.702252
  0
VERTEX
  8
PLAN_1
  6
CONTINUOUS
 10
2.274602
 20
-3.703701
  0
VERTEX
  8
PLAN_1
  6
CONTINUOUS
 10
2.278469
 20
-3.706118
  0
VERTEX
  8
PLAN_1
  6
CONTINUOUS
 10
2.282335
 20
-3.708535
  0
VERTEX
  8
PLAN_1
  6
CONTINUOUS
 10
2.286685
 20
-3.709984
  0
VERTEX
  8
PLAN_1
  6
CONTINUOUS
 10
2.291035
 20
-3.710953
  0
VERTEX
  8
PLAN_1
  6
CONTINUOUS
 10
2.347575
 20
-3.724000
  0
VERTEX
  8
PLAN_1
  6
CONTINUOUS
 10
2.352406
 20
-3.725449
  0
VERTEX
  8
PLAN_1
  6
CONTINUOUS
 10
2.357240
 20
-3.726898
  0
VERTEX
  8
PLAN_1
  6
CONTINUOUS
 10
2.361587
 20
-3.728350
  0
VERTEX
  8
PLAN_1
  6
CONTINUOUS
 10
2.365937
 20
-3.730764
  0
VERTEX
  8
PLAN_1
  6
CONTINUOUS
 10
2.369803
 20
-3.732697
  0
VERTEX
  8
PLAN_1
  6
CONTINUOUS
 10
2.373185
 20
-3.735114
  0
VERTEX
  8
PLAN_1
  6
CONTINUOUS
 10
2.377051
 20
-3.738012
  0
VERTEX
  8
PLAN_1
  6
CONTINUOUS
 10
2.379953
 20
-3.741398
  0
VERTEX
  8
PLAN_1
  6
CONTINUOUS
 10
2.382850
 20
-3.744780
  0
VERTEX
  8
PLAN_1
  6
CONTINUOUS
 10
2.385268
 20
-3.748161
  0
VERTEX
  8
PLAN_1
  6
CONTINUOUS
 10
2.387685
 20
-3.752028
  0
VERTEX
  8
PLAN_1
  6
CONTINUOUS
 10
2.389618
 20
-3.756378
  0
VERTEX
  8
PLAN_1
  6
CONTINUOUS
 10
2.391067
 20
-3.761209
  0
VERTEX
  8
PLAN_1
  6
CONTINUOUS
 10
2.392035
 20
-3.766043
  0
VERTEX
  8
PLAN_1
  6
CONTINUOUS
 10
2.393000
 20
-3.771843
  0
VERTEX
  8
PLAN_1
  6
CONTINUOUS
 10
2.393000
 20
-3.777157
  0
VERTEX
  8
PLAN_1
  6
CONTINUOUS
 10
2.393000
 20
-3.781508
  0
VERTEX
  8
PLAN_1
  6
CONTINUOUS
 10
2.392516
 20
-3.785854
  0
VERTEX
  8
PLAN_1
  6
CONTINUOUS
 10
2.392035
 20
-3.789720
  0
VERTEX
  8
PLAN_1
  6
CONTINUOUS
 10
2.391067
 20
-3.793587
  0
VERTEX
  8
PLAN_1
  6
CONTINUOUS
 10
2.390102
 20
-3.796969
  0
VERTEX
  8
PLAN_1
  6
CONTINUOUS
 10
2.388650
 20
-3.800354
  0
VERTEX
  8
PLAN_1
  6
CONTINUOUS
 10
2.387201
 20
-3.803736
  0
VERTEX
  8
PLAN_1
  6
CONTINUOUS
 10
2.385752
 20
-3.806634
  0
VERTEX
  8
PLAN_1
  6
CONTINUOUS
 10
2.381886
 20
-3.812433
  0
VERTEX
  8
PLAN_1
  6
CONTINUOUS
 10
2.377535
 20
-3.817268
  0
VERTEX
  8
PLAN_1
  6
CONTINUOUS
 10
2.372220
 20
-3.821618
  0
VERTEX
  8
PLAN_1
  6
CONTINUOUS
 10
2.366906
 20
-3.825000
  0
VERTEX
  8
PLAN_1
  6
CONTINUOUS
 10
2.361106
 20
-3.828382
  0
VERTEX
  8
PLAN_1
  6
CONTINUOUS
 10
2.354823
 20
-3.830799
  0
VERTEX
  8
PLAN_1
  6
CONTINUOUS
 10
2.348059
 20
-3.833213
  0
VERTEX
  8
PLAN_1
  6
CONTINUOUS
 10
2.341776
 20
-3.834665
  0
VERTEX
  8
PLAN_1
  6
CONTINUOUS
 10
2.335008
 20
-3.836114
  0
VERTEX
  8
PLAN_1
  6
CONTINUOUS
 10
2.328244
 20
-3.837079
  0
VERTEX
  8
PLAN_1
  6
CONTINUOUS
 10
2.321480
 20
-3.837563
  0
VERTEX
  8
PLAN_1
  6
CONTINUOUS
 10
2.315197
 20
-3.837563
  0
VERTEX
  8
PLAN_1
  6
CONTINUOUS
 10
2.308429
 20
-3.837563
  0
VERTEX
  8
PLAN_1
  6
CONTINUOUS
 10
2.302150
 20
-3.837079
  0
VERTEX
  8
PLAN_1
  6
CONTINUOUS
 10
2.296350
 20
-3.836598
  0
VERTEX
  8
PLAN_1
  6
CONTINUOUS
 10
2.291035
 20
-3.835630
  0
VERTEX
  8
PLAN_1
  6
CONTINUOUS
 10
2.281850
 20
-3.833697
  0
VERTEX
  8
PLAN_1
  6
CONTINUOUS
 10
2.274602
 20
-3.831280
  0
VERTEX
  8
PLAN_1
  6
CONTINUOUS
 10
2.267839
 20
-3.827898
  0
VERTEX
  8
PLAN_1
  6
CONTINUOUS
 10
2.262524
 20
-3.825000
  0
VERTEX
  8
PLAN_1
  6
CONTINUOUS
 10
2.258173
 20
-3.821618
  0
VERTEX
  8
PLAN_1
  6
CONTINUOUS
 10
2.254791
 20
-3.818232
  0
VERTEX
  8
PLAN_1
  6
CONTINUOUS
 10
2.248992
 20
-3.812917
  0
VERTEX
  8
PLAN_1
  6
CONTINUOUS
 10
2.244642
 20
-3.806634
  0
VERTEX
  8
PLAN_1
  6
CONTINUOUS
 10
2.240776
 20
-3.800835
  0
VERTEX
  8
PLAN_1
  6
CONTINUOUS
 10
2.238358
 20
-3.794555
  0
VERTEX
  8
PLAN_1
  6
CONTINUOUS
 10
2.236425
 20
-3.788272
  0
VERTEX
  8
PLAN_1
  6
CONTINUOUS
 10
2.235461
 20
-3.781508
  0
VERTEX
  8
PLAN_1
  6
CONTINUOUS
 10
2.234492
 20
-3.774740
  0
VERTEX
  8
PLAN_1
  6
CONTINUOUS
 10
2.234492
 20
-3.767976
  0
VERTEX
  8
PLAN_1
  6
CONTINUOUS
 10
2.259622
 20
-3.767976
  0
VERTEX
  8
PLAN_1
  6
CONTINUOUS
 10
2.260106
 20
-3.774256
  0
VERTEX
  8
PLAN_1
  6
CONTINUOUS
 10
2.261071
 20
-3.780539
  0
VERTEX
  8
PLAN_1
  6
CONTINUOUS
 10
2.262524
 20
-3.785854
  0
VERTEX
  8
PLAN_1
  6
CONTINUOUS
 10
2.264937
 20
-3.790689
  0
VERTEX
  8
PLAN_1
  6
CONTINUOUS
 10
2.267354
 20
-3.794555
  0
VERTEX
  8
PLAN_1
  6
CONTINUOUS
 10
2.270252
 20
-3.798421
  0
VERTEX
  8
PLAN_1
  6
CONTINUOUS
 10
2.273638
 20
-3.801803
  0
VERTEX
  8
PLAN_1
  6
CONTINUOUS
 10
2.277504
 20
-3.804701
  0
VERTEX
  8
PLAN_1
  6
CONTINUOUS
 10
2.281850
 20
-3.807118
  0
VERTEX
  8
PLAN_1
  6
CONTINUOUS
 10
2.286201
 20
-3.809535
  0
VERTEX
  8
PLAN_1
  6
CONTINUOUS
 10
2.290551
 20
-3.810984
  0
VERTEX
  8
PLAN_1
  6
CONTINUOUS
 10
2.295382
 20
-3.812433
  0
VERTEX
  8
PLAN_1
  6
CONTINUOUS
 10
2.300217
 20
-3.813402
  0
VERTEX
  8
PLAN_1
  6
CONTINUOUS
 10
2.305047
 20
-3.813886
  0
VERTEX
  8
PLAN_1
  6
CONTINUOUS
 10
2.309882
 20
-3.814366
  0
VERTEX
  8
PLAN_1
  6
CONTINUOUS
 10
2.314713
 20
-3.814366
  0
VERTEX
  8
PLAN_1
  6
CONTINUOUS
 10
2.322445
 20
-3.814366
  0
VERTEX
  8
PLAN_1
  6
CONTINUOUS
 10
2.331142
 20
-3.813402
  0
VERTEX
  8
PLAN_1
  6
CONTINUOUS
 10
2.335492
 20
-3.812433
  0
VERTEX
  8
PLAN_1
  6
CONTINUOUS
 10
2.339843
 20
-3.811469
  0
VERTEX
  8
PLAN_1
  6
CONTINUOUS
 10
2.344193
 20
-3.810020
  0
VERTEX
  8
PLAN_1
  6
CONTINUOUS
 10
2.348059
 20
-3.808567
  0
VERTEX
  8
PLAN_1
  6
CONTINUOUS
 10
2.351925
 20
-3.806634
  0
VERTEX
  8
PLAN_1
  6
CONTINUOUS
 10
2.355307
 20
-3.804220
  0
VERTEX
  8
PLAN_1
  6
CONTINUOUS
 10
2.358689
 20
-3.801319
  0
VERTEX
  8
PLAN_1
  6
CONTINUOUS
 10
2.361587
 20
-3.798421
  0
VERTEX
  8
PLAN_1
  6
CONTINUOUS
 10
2.363520
 20
-3.794555
  0
VERTEX
  8
PLAN_1
  6
CONTINUOUS
 10
2.365453
 20
-3.790689
  0
VERTEX
  8
PLAN_1
  6
CONTINUOUS
 10
2.366421
 20
-3.785854
  0
VERTEX
  8
PLAN_1
  6
CONTINUOUS
 10
2.366906
 20
-3.781024
  0
VERTEX
  8
PLAN_1
  6
CONTINUOUS
 10
2.366906
 20
-3.777157
  0
VERTEX
  8
PLAN_1
  6
CONTINUOUS
 10
2.366421
 20
-3.773776
  0
VERTEX
  8
PLAN_1
  6
CONTINUOUS
 10
2.365937
 20
-3.770874
  0
VERTEX
  8
PLAN_1
  6
CONTINUOUS
 10
2.364972
 20
-3.767976
  0
VERTEX
  8
PLAN_1
  6
CONTINUOUS
 10
2.363520
 20
-3.765075
  0
VERTEX
  8
PLAN_1
  6
CONTINUOUS
 10
2.362071
 20
-3.762657
  0
VERTEX
  8
PLAN_1
  6
CONTINUOUS
 10
2.360138
 20
-3.760728
  0
VERTEX
  8
PLAN_1
  6
CONTINUOUS
 10
2.357724
 20
-3.758311
  0
VERTEX
  8
PLAN_1
  6
CONTINUOUS
 10
2.355307
 20
-3.756378
  0
VERTEX
  8
PLAN_1
  6
CONTINUOUS
 10
2.352406
 20
-3.754929
  0
VERTEX
  8
PLAN_1
  6
CONTINUOUS
 10
2.349024
 20
-3.752996
  0
VERTEX
  8
PLAN_1
  6
CONTINUOUS
 10
2.344673
 20
-3.751543
  0
VERTEX
  8
PLAN_1
  6
CONTINUOUS
 10
2.335492
 20
-3.748646
  0
VERTEX
  8
PLAN_1
  6
CONTINUOUS
 10
2.324378
 20
-3.745744
  0
VERTEX
  8
PLAN_1
  6
CONTINUOUS
 10
2.283783
 20
-3.736079
  0
VERTEX
  8
PLAN_1
  6
CONTINUOUS
 10
2.277984
 20
-3.734630
  0
VERTEX
  8
PLAN_1
  6
CONTINUOUS
 10
2.271705
 20
-3.732697
  0
VERTEX
  8
PLAN_1
  6
CONTINUOUS
 10
2.267839
 20
-3.731248
  0
VERTEX
  8
PLAN_1
  6
CONTINUOUS
 10
2.264457
 20
-3.729315
  0
VERTEX
  8
PLAN_1
  6
CONTINUOUS
 10
2.261071
 20
-3.727382
  0
VERTEX
  8
PLAN_1
  6
CONTINUOUS
 10
2.257689
 20
-3.724484
  0
VERTEX
  8
PLAN_1
  6
CONTINUOUS
 10
2.254307
 20
-3.722067
  0
VERTEX
  8
PLAN_1
  6
CONTINUOUS
 10
2.250925
 20
-3.718685
  0
VERTEX
  8
PLAN_1
  6
CONTINUOUS
 10
2.248508
 20
-3.714819
  0
VERTEX
  8
PLAN_1
  6
CONTINUOUS
 10
2.246091
 20
-3.710953
  0
VERTEX
  8
PLAN_1
  6
CONTINUOUS
 10
2.244157
 20
-3.706118
  0
VERTEX
  8
PLAN_1
  6
CONTINUOUS
 10
2.242224
 20
-3.701287
  0
VERTEX
  8
PLAN_1
  6
CONTINUOUS
 10
2.241260
 20
-3.695488
  0
VERTEX
  8
PLAN_1
  6
CONTINUOUS
 10
2.241260
 20
-3.689205
  0
VERTEX
  8
PLAN_1
  6
CONTINUOUS
 10
2.241260
 20
-3.683406
  0
VERTEX
  8
PLAN_1
  6
CONTINUOUS
 10
2.242224
 20
-3.677606
  0
VERTEX
  8
PLAN_1
  6
CONTINUOUS
 10
2.243193
 20
-3.672291
  0
VERTEX
  8
PLAN_1
  6
CONTINUOUS
 10
2.245126
 20
-3.666492
  0
VERTEX
  8
PLAN_1
  6
CONTINUOUS
 10
2.247539
 20
-3.661177
  0
VERTEX
  8
PLAN_1
  6
CONTINUOUS
 10
2.249957
 20
-3.656343
  0
VERTEX
  8
PLAN_1
  6
CONTINUOUS
 10
2.253339
 20
-3.651512
  0
VERTEX
  8
PLAN_1
  6
CONTINUOUS
 10
2.257205
 20
-3.647161
  0
VERTEX
  8
PLAN_1
  6
CONTINUOUS
 10
2.261555
 20
-3.642811
  0
VERTEX
  8
PLAN_1
  6
CONTINUOUS
 10
2.266870
 20
-3.638945
  0
VERTEX
  8
PLAN_1
  6
CONTINUOUS
 10
2.272185
 20
-3.636047
  0
VERTEX
  8
PLAN_1
  6
CONTINUOUS
 10
2.278469
 20
-3.633150
  0
VERTEX
  8
PLAN_1
  6
CONTINUOUS
 10
2.285236
 20
-3.630732
  0
VERTEX
  8
PLAN_1
  6
CONTINUOUS
 10
2.292969
 20
-3.629283
  0
VERTEX
  8
PLAN_1
  6
CONTINUOUS
 10
2.301181
 20
-3.628315
  0
VERTEX
  8
PLAN_1
  6
CONTINUOUS
 10
2.309882
 20
-3.627831
  0
VERTEX
  8
PLAN_1
  6
CONTINUOUS
 10
2.316161
 20
-3.627831
  0
VERTEX
  8
PLAN_1
  6
CONTINUOUS
 10
2.321961
 20
-3.628315
  0
VERTEX
  8
PLAN_1
  6
CONTINUOUS
 10
2.327760
 20
-3.628799
  0
VERTEX
  8
PLAN_1
  6
CONTINUOUS
 10
2.333075
 20
-3.629764
  0
VERTEX
  8
PLAN_1
  6
CONTINUOUS
 10
2.337909
 20
-3.630732
  0
VERTEX
  8
PLAN_1
  6
CONTINUOUS
 10
2.342740
 20
-3.631697
  0
VERTEX
  8
PLAN_1
  6
CONTINUOUS
 10
2.347091
 20
-3.633150
  0
VERTEX
  8
PLAN_1
  6
CONTINUOUS
 10
2.350957
 20
-3.634598
  0
VERTEX
  8
PLAN_1
  6
CONTINUOUS
 10
2.358205
 20
-3.637980
  0
VERTEX
  8
PLAN_1
  6
CONTINUOUS
 10
2.364488
 20
-3.642331
  0
VERTEX
  8
PLAN_1
  6
CONTINUOUS
 10
2.369803
 20
-3.646677
  0
VERTEX
  8
PLAN_1
  6
CONTINUOUS
 10
2.374154
 20
-3.651512
  0
VERTEX
  8
PLAN_1
  6
CONTINUOUS
 10
2.378020
 20
-3.656343
  0
VERTEX
  8
PLAN_1
  6
CONTINUOUS
 10
2.380917
 20
-3.661661
  0
VERTEX
  8
PLAN_1
  6
CONTINUOUS
 10
2.382850
 20
-3.666976
  0
VERTEX
  8
PLAN_1
  6
CONTINUOUS
 10
2.384783
 20
-3.672291
  0
VERTEX
  8
PLAN_1
  6
CONTINUOUS
 10
2.385752
 20
-3.677122
  0
VERTEX
  8
PLAN_1
  6
CONTINUOUS
 10
2.386717
 20
-3.682441
  0
VERTEX
  8
PLAN_1
  6
CONTINUOUS
 10
2.387201
 20
-3.686787
  0
VERTEX
  8
PLAN_1
  6
CONTINUOUS
 10
2.387685
 20
-3.691138
  0
VERTEX
  8
PLAN_1
  6
CONTINUOUS
 10
2.362071
 20
-3.691138
  0
SEQEND
  8
0
  0
POLYLINE
  8
PLAN_1
  6
CONTINUOUS
 66
     1
 40
0.008213
 41
0.008213
  0
VERTEX
  8
PLAN_1
  6
CONTINUOUS
 10
0.490917
 20
0.645087
  0
VERTEX
  8
PLAN_1
  6
CONTINUOUS
 10
0.490917
 20
2.018008
  0
VERTEX
  8
PLAN_1
  6
CONTINUOUS
 10
-1.068055
 20
2.018008
  0
VERTEX
  8
PLAN_1
  6
CONTINUOUS
 10
-1.068055
 20
0.645087
  0
VERTEX
  8
PLAN_1
  6
CONTINUOUS
 10
0.490917
 20
0.645087
  0
SEQEND
  8
0
  0
POLYLINE
  8
PLAN_1
  6
CONTINUOUS
 66
     1
 40
0.008213
 41
0.008213
  0
VERTEX
  8
PLAN_1
  6
CONTINUOUS
 10
-0.204000
 20
-0.089457
  0
VERTEX
  8
PLAN_1
  6
CONTINUOUS
 10
-0.204000
 20
0.046339
  0
VERTEX
  8
PLAN_1
  6
CONTINUOUS
 10
-0.367823
 20
0.046339
  0
VERTEX
  8
PLAN_1
  6
CONTINUOUS
 10
-0.367823
 20
-0.089457
  0
VERTEX
  8
PLAN_1
  6
CONTINUOUS
 10
-0.204000
 20
-0.089457
  0
SEQEND
  8
0
  0
POLYLINE
  8
PLAN_1
  6
CONTINUOUS
 66
     1
 40
0.008213
 41
0.008213
  0
VERTEX
  8
PLAN_1
  6
CONTINUOUS
 10
0.363823
 20
0.615126
  0
VERTEX
  8
PLAN_1
  6
CONTINUOUS
 10
0.363823
 20
0.639772
  0
VERTEX
  8
PLAN_1
  6
CONTINUOUS
 10
-0.915831
 20
0.639772
  0
VERTEX
  8
PLAN_1
  6
CONTINUOUS
 10
-0.915831
 20
0.615126
  0
VERTEX
  8
PLAN_1
  6
CONTINUOUS
 10
0.363823
 20
0.615126
  0
SEQEND
  8
0
  0
POLYLINE
  8
PLAN_1
  6
CONTINUOUS
 66
     1
 40
0.008213
 41
0.008213
  0
VERTEX
  8
PLAN_1
  6
CONTINUOUS
 10
0.043425
 20
0.046339
  0
VERTEX
  8
PLAN_1
  6
CONTINUOUS
 10
0.043425
 20
0.615126
  0
VERTEX
  8
PLAN_1
  6
CONTINUOUS
 10
-0.622496
 20
0.615126
  0
VERTEX
  8
PLAN_1
  6
CONTINUOUS
 10
-0.622496
 20
0.046339
  0
VERTEX
  8
PLAN_1
  6
CONTINUOUS
 10
0.043425
 20
0.046339
  0
SEQEND
  8
0
  0
POLYLINE
  8
PLAN_1
 62
     5
  6
CONTINUOUS
 66
     1
 40
0.003000
 41
0.003000
  0
VERTEX
  8
PLAN_1
 62
     5
  6
CONTINUOUS
 10
-1.266673
 20
-0.189972
  0
VERTEX
  8
PLAN_1
 62
     5
  6
CONTINUOUS
 10
-1.266673
 20
-0.181756
  0
SEQEND
  8
0
  0
POLYLINE
  8
PLAN_1
 62
     5
  6
CONTINUOUS
 66
     1
 40
0.003000
 41
0.003000
  0
VERTEX
  8
PLAN_1
 62
     5
  6
CONTINUOUS
 10
-1.266673
 20
-0.173543
  0
VERTEX
  8
PLAN_1
 62
     5
  6
CONTINUOUS
 10
-1.266673
 20
-0.165327
  0
SEQEND
  8
0
  0
POLYLINE
  8
PLAN_1
 62
     5
  6
CONTINUOUS
 66
     1
 40
0.003000
 41
0.003000
  0
VERTEX
  8
PLAN_1
 62
     5
  6
CONTINUOUS
 10
-1.266673
 20
-0.157110
  0
VERTEX
  8
PLAN_1
 62
     5
  6
CONTINUOUS
 10
-1.266673
 20
-0.148413
  0
SEQEND
  8
0
  0
POLYLINE
  8
PLAN_1
 62
     5
  6
CONTINUOUS
 66
     1
 40
0.003000
 41
0.003000
  0
VERTEX
  8
PLAN_1
 62
     5
  6
CONTINUOUS
 10
-1.266673
 20
-0.140197
  0
VERTEX
  8
PLAN_1
 62
     5
  6
CONTINUOUS
 10
-1.266673
 20
-0.131984
  0
SEQEND
  8
0
  0
POLYLINE
  8
PLAN_1
 62
     5
  6
CONTINUOUS
 66
     1
 40
0.003000
 41
0.003000
  0
VERTEX
  8
PLAN_1
 62
     5
  6
CONTINUOUS
 10
-1.266673
 20
-0.123768
  0
VERTEX
  8
PLAN_1
 62
     5
  6
CONTINUOUS
 10
-1.266673
 20
-0.115067
  0
SEQEND
  8
0
  0
POLYLINE
  8
PLAN_1
 62
     5
  6
CONTINUOUS
 66
     1
 40
0.003000
 41
0.003000
  0
VERTEX
  8
PLAN_1
 62
     5
  6
CONTINUOUS
 10
-1.266673
 20
-0.106854
  0
VERTEX
  8
PLAN_1
 62
     5
  6
CONTINUOUS
 10
-1.266673
 20
-0.098638
  0
SEQEND
  8
0
  0
POLYLINE
  8
PLAN_1
 62
     5
  6
CONTINUOUS
 66
     1
 40
0.003000
 41
0.003000
  0
VERTEX
  8
PLAN_1
 62
     5
  6
CONTINUOUS
 10
-1.266673
 20
-0.090421
  0
VERTEX
  8
PLAN_1
 62
     5
  6
CONTINUOUS
 10
-1.266673
 20
-0.081724
  0
SEQEND
  8
0
  0
POLYLINE
  8
PLAN_1
 62
     5
  6
CONTINUOUS
 66
     1
 40
0.003000
 41
0.003000
  0
VERTEX
  8
PLAN_1
 62
     5
  6
CONTINUOUS
 10
-1.266673
 20
-0.073508
  0
VERTEX
  8
PLAN_1
 62
     5
  6
CONTINUOUS
 10
-1.266673
 20
-0.065295
  0
SEQEND
  8
0
  0
POLYLINE
  8
PLAN_1
 62
     5
  6
CONTINUOUS
 66
     1
 40
0.003000
 41
0.003000
  0
VERTEX
  8
PLAN_1
 62
     5
  6
CONTINUOUS
 10
-1.266673
 20
-0.057079
  0
VERTEX
  8
PLAN_1
 62
     5
  6
CONTINUOUS
 10
-1.266673
 20
-0.048378
  0
SEQEND
  8
0
  0
POLYLINE
  8
PLAN_1
 62
     5
  6
CONTINUOUS
 66
     1
 40
0.003000
 41
0.003000
  0
VERTEX
  8
PLAN_1
 62
     5
  6
CONTINUOUS
 10
-1.266673
 20
-0.040165
  0
VERTEX
  8
PLAN_1
 62
     5
  6
CONTINUOUS
 10
-1.266673
 20
-0.031949
  0
SEQEND
  8
0
  0
POLYLINE
  8
PLAN_1
 62
     5
  6
CONTINUOUS
 66
     1
 40
0.003000
 41
0.003000
  0
VERTEX
  8
PLAN_1
 62
     5
  6
CONTINUOUS
 10
-1.266673
 20
-0.023732
  0
VERTEX
  8
PLAN_1
 62
     5
  6
CONTINUOUS
 10
-1.266673
 20
-0.015520
  0
SEQEND
  8
0
  0
POLYLINE
  8
PLAN_1
 62
     5
  6
CONTINUOUS
 66
     1
 40
0.003000
 41
0.003000
  0
VERTEX
  8
PLAN_1
 62
     5
  6
CONTINUOUS
 10
-1.266673
 20
-0.006819
  0
VERTEX
  8
PLAN_1
 62
     5
  6
CONTINUOUS
 10
-1.266673
 20
0.001394
  0
SEQEND
  8
0
  0
POLYLINE
  8
PLAN_1
 62
     5
  6
CONTINUOUS
 66
     1
 40
0.003000
 41
0.003000
  0
VERTEX
  8
PLAN_1
 62
     5
  6
CONTINUOUS
 10
-1.266673
 20
0.009610
  0
VERTEX
  8
PLAN_1
 62
     5
  6
CONTINUOUS
 10
-1.266673
 20
0.017827
  0
SEQEND
  8
0
  0
POLYLINE
  8
PLAN_1
 62
     5
  6
CONTINUOUS
 66
     1
 40
0.003000
 41
0.003000
  0
VERTEX
  8
PLAN_1
 62
     5
  6
CONTINUOUS
 10
-1.266673
 20
0.026524
  0
VERTEX
  8
PLAN_1
 62
     5
  6
CONTINUOUS
 10
-1.266673
 20
0.034740
  0
SEQEND
  8
0
  0
POLYLINE
  8
PLAN_1
 62
     5
  6
CONTINUOUS
 66
     1
 40
0.003000
 41
0.003000
  0
VERTEX
  8
PLAN_1
 62
     5
  6
CONTINUOUS
 10
-1.266673
 20
0.042957
  0
VERTEX
  8
PLAN_1
 62
     5
  6
CONTINUOUS
 10
-1.266673
 20
0.051169
  0
SEQEND
  8
0
  0
POLYLINE
  8
PLAN_1
 62
     5
  6
CONTINUOUS
 66
     1
 40
0.003000
 41
0.003000
  0
VERTEX
  8
PLAN_1
 62
     5
  6
CONTINUOUS
 10
-1.266673
 20
0.059870
  0
VERTEX
  8
PLAN_1
 62
     5
  6
CONTINUOUS
 10
-1.266673
 20
0.068083
  0
SEQEND
  8
0
  0
POLYLINE
  8
PLAN_1
 62
     5
  6
CONTINUOUS
 66
     1
 40
0.003000
 41
0.003000
  0
VERTEX
  8
PLAN_1
 62
     5
  6
CONTINUOUS
 10
-1.266673
 20
0.076299
  0
VERTEX
  8
PLAN_1
 62
     5
  6
CONTINUOUS
 10
-1.266673
 20
0.084516
  0
SEQEND
  8
0
  0
POLYLINE
  8
PLAN_1
 62
     5
  6
CONTINUOUS
 66
     1
 40
0.003000
 41
0.003000
  0
VERTEX
  8
PLAN_1
 62
     5
  6
CONTINUOUS
 10
-1.266673
 20
0.093213
  0
VERTEX
  8
PLAN_1
 62
     5
  6
CONTINUOUS
 10
-1.266673
 20
0.101429
  0
SEQEND
  8
0
  0
POLYLINE
  8
PLAN_1
 62
     5
  6
CONTINUOUS
 66
     1
 40
0.003000
 41
0.003000
  0
VERTEX
  8
PLAN_1
 62
     5
  6
CONTINUOUS
 10
-1.266673
 20
0.109646
  0
VERTEX
  8
PLAN_1
 62
     5
  6
CONTINUOUS
 10
-1.266673
 20
0.117858
  0
SEQEND
  8
0
  0
POLYLINE
  8
PLAN_1
 62
     5
  6
CONTINUOUS
 66
     1
 40
0.003000
 41
0.003000
  0
VERTEX
  8
PLAN_1
 62
     5
  6
CONTINUOUS
 10
-1.266673
 20
0.126075
  0
VERTEX
  8
PLAN_1
 62
     5
  6
CONTINUOUS
 10
-1.266673
 20
0.134772
  0
SEQEND
  8
0
  0
POLYLINE
  8
PLAN_1
 62
     5
  6
CONTINUOUS
 66
     1
 40
0.003000
 41
0.003000
  0
VERTEX
  8
PLAN_1
 62
     5
  6
CONTINUOUS
 10
-1.266673
 20
0.142988
  0
VERTEX
  8
PLAN_1
 62
     5
  6
CONTINUOUS
 10
-1.266673
 20
0.151205
  0
SEQEND
  8
0
  0
POLYLINE
  8
PLAN_1
 62
     5
  6
CONTINUOUS
 66
     1
 40
0.003000
 41
0.003000
  0
VERTEX
  8
PLAN_1
 62
     5
  6
CONTINUOUS
 10
-1.266673
 20
0.159417
  0
VERTEX
  8
PLAN_1
 62
     5
  6
CONTINUOUS
 10
-1.266673
 20
0.168118
  0
SEQEND
  8
0
  0
POLYLINE
  8
PLAN_1
 62
     5
  6
CONTINUOUS
 66
     1
 40
0.003000
 41
0.003000
  0
VERTEX
  8
PLAN_1
 62
     5
  6
CONTINUOUS
 10
-1.266673
 20
0.176335
  0
VERTEX
  8
PLAN_1
 62
     5
  6
CONTINUOUS
 10
-1.266673
 20
0.184547
  0
SEQEND
  8
0
  0
POLYLINE
  8
PLAN_1
 62
     5
  6
CONTINUOUS
 66
     1
 40
0.003000
 41
0.003000
  0
VERTEX
  8
PLAN_1
 62
     5
  6
CONTINUOUS
 10
-1.266673
 20
0.192764
  0
VERTEX
  8
PLAN_1
 62
     5
  6
CONTINUOUS
 10
-1.266673
 20
0.201461
  0
SEQEND
  8
0
  0
POLYLINE
  8
PLAN_1
 62
     5
  6
CONTINUOUS
 66
     1
 40
0.003000
 41
0.003000
  0
VERTEX
  8
PLAN_1
 62
     5
  6
CONTINUOUS
 10
-1.266673
 20
0.209677
  0
VERTEX
  8
PLAN_1
 62
     5
  6
CONTINUOUS
 10
-1.266673
 20
0.217894
  0
SEQEND
  8
0
  0
POLYLINE
  8
PLAN_1
 62
     5
  6
CONTINUOUS
 66
     1
 40
0.003000
 41
0.003000
  0
VERTEX
  8
PLAN_1
 62
     5
  6
CONTINUOUS
 10
-1.266673
 20
0.226106
  0
VERTEX
  8
PLAN_1
 62
     5
  6
CONTINUOUS
 10
-1.266673
 20
0.234807
  0
SEQEND
  8
0
  0
POLYLINE
  8
PLAN_1
 62
     5
  6
CONTINUOUS
 66
     1
 40
0.003000
 41
0.003000
  0
VERTEX
  8
PLAN_1
 62
     5
  6
CONTINUOUS
 10
-1.266673
 20
0.243020
  0
VERTEX
  8
PLAN_1
 62
     5
  6
CONTINUOUS
 10
-1.266673
 20
0.251236
  0
SEQEND
  8
0
  0
POLYLINE
  8
PLAN_1
 62
     5
  6
CONTINUOUS
 66
     1
 40
0.003000
 41
0.003000
  0
VERTEX
  8
PLAN_1
 62
     5
  6
CONTINUOUS
 10
-1.266673
 20
0.259453
  0
VERTEX
  8
PLAN_1
 62
     5
  6
CONTINUOUS
 10
-1.266673
 20
0.267669
  0
SEQEND
  8
0
  0
POLYLINE
  8
PLAN_1
 62
     5
  6
CONTINUOUS
 66
     1
 40
0.003000
 41
0.003000
  0
VERTEX
  8
PLAN_1
 62
     5
  6
CONTINUOUS
 10
-1.266673
 20
0.276366
  0
VERTEX
  8
PLAN_1
 62
     5
  6
CONTINUOUS
 10
-1.266673
 20
0.284583
  0
SEQEND
  8
0
  0
POLYLINE
  8
PLAN_1
 62
     5
  6
CONTINUOUS
 66
     1
 40
0.003000
 41
0.003000
  0
VERTEX
  8
PLAN_1
 62
     5
  6
CONTINUOUS
 10
-1.266673
 20
0.292795
  0
VERTEX
  8
PLAN_1
 62
     5
  6
CONTINUOUS
 10
-1.266673
 20
0.301012
  0
SEQEND
  8
0
  0
POLYLINE
  8
PLAN_1
 62
     5
  6
CONTINUOUS
 66
     1
 40
0.003000
 41
0.003000
  0
VERTEX
  8
PLAN_1
 62
     5
  6
CONTINUOUS
 10
-1.266673
 20
0.309709
  0
VERTEX
  8
PLAN_1
 62
     5
  6
CONTINUOUS
 10
-1.266673
 20
0.317925
  0
SEQEND
  8
0
  0
POLYLINE
  8
PLAN_1
 62
     5
  6
CONTINUOUS
 66
     1
 40
0.003000
 41
0.003000
  0
VERTEX
  8
PLAN_1
 62
     5
  6
CONTINUOUS
 10
-1.266673
 20
0.326142
  0
VERTEX
  8
PLAN_1
 62
     5
  6
CONTINUOUS
 10
-1.266673
 20
0.334358
  0
SEQEND
  8
0
  0
POLYLINE
  8
PLAN_1
 62
     5
  6
CONTINUOUS
 66
     1
 40
0.003000
 41
0.003000
  0
VERTEX
  8
PLAN_1
 62
     5
  6
CONTINUOUS
 10
-1.266673
 20
0.343055
  0
VERTEX
  8
PLAN_1
 62
     5
  6
CONTINUOUS
 10
-1.266673
 20
0.351272
  0
SEQEND
  8
0
  0
POLYLINE
  8
PLAN_1
 62
     5
  6
CONTINUOUS
 66
     1
 40
0.003000
 41
0.003000
  0
VERTEX
  8
PLAN_1
 62
     5
  6
CONTINUOUS
 10
-1.266673
 20
0.359484
  0
VERTEX
  8
PLAN_1
 62
     5
  6
CONTINUOUS
 10
-1.266673
 20
0.367701
  0
SEQEND
  8
0
  0
POLYLINE
  8
PLAN_1
 62
     5
  6
CONTINUOUS
 66
     1
 40
0.003000
 41
0.003000
  0
VERTEX
  8
PLAN_1
 62
     5
  6
CONTINUOUS
 10
-1.266673
 20
0.376398
  0
VERTEX
  8
PLAN_1
 62
     5
  6
CONTINUOUS
 10
-1.266673
 20
0.384614
  0
SEQEND
  8
0
  0
POLYLINE
  8
PLAN_1
 62
     5
  6
CONTINUOUS
 66
     1
 40
0.003000
 41
0.003000
  0
VERTEX
  8
PLAN_1
 62
     5
  6
CONTINUOUS
 10
-1.266673
 20
0.392831
  0
VERTEX
  8
PLAN_1
 62
     5
  6
CONTINUOUS
 10
-1.266673
 20
0.401043
  0
SEQEND
  8
0
  0
POLYLINE
  8
PLAN_1
 62
     5
  6
CONTINUOUS
 66
     1
 40
0.003000
 41
0.003000
  0
VERTEX
  8
PLAN_1
 62
     5
  6
CONTINUOUS
 10
-1.266673
 20
0.409260
  0
VERTEX
  8
PLAN_1
 62
     5
  6
CONTINUOUS
 10
-1.266673
 20
0.417961
  0
SEQEND
  8
0
  0
POLYLINE
  8
PLAN_1
 62
     5
  6
CONTINUOUS
 66
     1
 40
0.003000
 41
0.003000
  0
VERTEX
  8
PLAN_1
 62
     5
  6
CONTINUOUS
 10
-1.266673
 20
0.426173
  0
VERTEX
  8
PLAN_1
 62
     5
  6
CONTINUOUS
 10
-1.266673
 20
0.434390
  0
SEQEND
  8
0
  0
POLYLINE
  8
PLAN_1
 62
     5
  6
CONTINUOUS
 66
     1
 40
0.003000
 41
0.003000
  0
VERTEX
  8
PLAN_1
 62
     5
  6
CONTINUOUS
 10
-1.266673
 20
0.442606
  0
VERTEX
  8
PLAN_1
 62
     5
  6
CONTINUOUS
 10
-1.266673
 20
0.451303
  0
SEQEND
  8
0
  0
POLYLINE
  8
PLAN_1
 62
     5
  6
CONTINUOUS
 66
     1
 40
0.003000
 41
0.003000
  0
VERTEX
  8
PLAN_1
 62
     5
  6
CONTINUOUS
 10
-1.266673
 20
0.459520
  0
VERTEX
  8
PLAN_1
 62
     5
  6
CONTINUOUS
 10
-1.266673
 20
0.467732
  0
SEQEND
  8
0
  0
POLYLINE
  8
PLAN_1
 62
     5
  6
CONTINUOUS
 66
     1
 40
0.003000
 41
0.003000
  0
VERTEX
  8
PLAN_1
 62
     5
  6
CONTINUOUS
 10
-1.266673
 20
0.475949
  0
VERTEX
  8
PLAN_1
 62
     5
  6
CONTINUOUS
 10
-1.266673
 20
0.484650
  0
SEQEND
  8
0
  0
POLYLINE
  8
PLAN_1
 62
     5
  6
CONTINUOUS
 66
     1
 40
0.003000
 41
0.003000
  0
VERTEX
  8
PLAN_1
 62
     5
  6
CONTINUOUS
 10
-1.266673
 20
0.492862
  0
VERTEX
  8
PLAN_1
 62
     5
  6
CONTINUOUS
 10
-1.266673
 20
0.501079
  0
SEQEND
  8
0
  0
POLYLINE
  8
PLAN_1
 62
     5
  6
CONTINUOUS
 66
     1
 40
0.003000
 41
0.003000
  0
VERTEX
  8
PLAN_1
 62
     5
  6
CONTINUOUS
 10
-1.266673
 20
0.509295
  0
VERTEX
  8
PLAN_1
 62
     5
  6
CONTINUOUS
 10
-1.266673
 20
0.517992
  0
SEQEND
  8
0
  0
POLYLINE
  8
PLAN_1
 62
     5
  6
CONTINUOUS
 66
     1
 40
0.003000
 41
0.003000
  0
VERTEX
  8
PLAN_1
 62
     5
  6
CONTINUOUS
 10
-1.266673
 20
0.526209
  0
VERTEX
  8
PLAN_1
 62
     5
  6
CONTINUOUS
 10
-1.266673
 20
0.534421
  0
SEQEND
  8
0
  0
POLYLINE
  8
PLAN_1
 62
     5
  6
CONTINUOUS
 66
     1
 40
0.003000
 41
0.003000
  0
VERTEX
  8
PLAN_1
 62
     5
  6
CONTINUOUS
 10
-1.266673
 20
0.542638
  0
VERTEX
  8
PLAN_1
 62
     5
  6
CONTINUOUS
 10
-1.266673
 20
0.550854
  0
SEQEND
  8
0
  0
POLYLINE
  8
PLAN_1
 62
     5
  6
CONTINUOUS
 66
     1
 40
0.003000
 41
0.003000
  0
VERTEX
  8
PLAN_1
 62
     5
  6
CONTINUOUS
 10
-1.266673
 20
0.559551
  0
VERTEX
  8
PLAN_1
 62
     5
  6
CONTINUOUS
 10
-1.266673
 20
0.567768
  0
SEQEND
  8
0
  0
POLYLINE
  8
PLAN_1
 62
     5
  6
CONTINUOUS
 66
     1
 40
0.003000
 41
0.003000
  0
VERTEX
  8
PLAN_1
 62
     5
  6
CONTINUOUS
 10
-1.266673
 20
0.575984
  0
VERTEX
  8
PLAN_1
 62
     5
  6
CONTINUOUS
 10
-1.266673
 20
0.584197
  0
SEQEND
  8
0
  0
POLYLINE
  8
PLAN_1
 62
     5
  6
CONTINUOUS
 66
     1
 40
0.003000
 41
0.003000
  0
VERTEX
  8
PLAN_1
 62
     5
  6
CONTINUOUS
 10
-1.266673
 20
0.592898
  0
VERTEX
  8
PLAN_1
 62
     5
  6
CONTINUOUS
 10
-1.266673
 20
0.601110
  0
SEQEND
  8
0
  0
POLYLINE
  8
PLAN_1
 62
     5
  6
CONTINUOUS
 66
     1
 40
0.003000
 41
0.003000
  0
VERTEX
  8
PLAN_1
 62
     5
  6
CONTINUOUS
 10
-1.266673
 20
0.609327
  0
VERTEX
  8
PLAN_1
 62
     5
  6
CONTINUOUS
 10
-1.266673
 20
0.617543
  0
SEQEND
  8
0
  0
POLYLINE
  8
PLAN_1
 62
     5
  6
CONTINUOUS
 66
     1
 40
0.003000
 41
0.003000
  0
VERTEX
  8
PLAN_1
 62
     5
  6
CONTINUOUS
 10
-1.266673
 20
0.626240
  0
VERTEX
  8
PLAN_1
 62
     5
  6
CONTINUOUS
 10
-1.266673
 20
0.634457
  0
SEQEND
  8
0
  0
POLYLINE
  8
PLAN_1
 62
     5
  6
CONTINUOUS
 66
     1
 40
0.003000
 41
0.003000
  0
VERTEX
  8
PLAN_1
 62
     5
  6
CONTINUOUS
 10
-1.266673
 20
0.642673
  0
VERTEX
  8
PLAN_1
 62
     5
  6
CONTINUOUS
 10
-1.266673
 20
0.645087
  0
VERTEX
  8
PLAN_1
 62
     5
  6
CONTINUOUS
 10
-1.260874
 20
0.645087
  0
SEQEND
  8
0
  0
POLYLINE
  8
PLAN_1
 62
     5
  6
CONTINUOUS
 66
     1
 40
0.003000
 41
0.003000
  0
VERTEX
  8
PLAN_1
 62
     5
  6
CONTINUOUS
 10
-1.252657
 20
0.645087
  0
VERTEX
  8
PLAN_1
 62
     5
  6
CONTINUOUS
 10
-1.243961
 20
0.645087
  0
SEQEND
  8
0
  0
POLYLINE
  8
PLAN_1
 62
     5
  6
CONTINUOUS
 66
     1
 40
0.003000
 41
0.003000
  0
VERTEX
  8
PLAN_1
 62
     5
  6
CONTINUOUS
 10
-1.235744
 20
0.645087
  0
VERTEX
  8
PLAN_1
 62
     5
  6
CONTINUOUS
 10
-1.227528
 20
0.645087
  0
SEQEND
  8
0
  0
POLYLINE
  8
PLAN_1
 62
     5
  6
CONTINUOUS
 66
     1
 40
0.003000
 41
0.003000
  0
VERTEX
  8
PLAN_1
 62
     5
  6
CONTINUOUS
 10
-1.219315
 20
0.645087
  0
VERTEX
  8
PLAN_1
 62
     5
  6
CONTINUOUS
 10
-1.211098
 20
0.645087
  0
SEQEND
  8
0
  0
POLYLINE
  8
PLAN_1
 62
     5
  6
CONTINUOUS
 66
     1
 40
0.003000
 41
0.003000
  0
VERTEX
  8
PLAN_1
 62
     5
  6
CONTINUOUS
 10
-1.202398
 20
0.645087
  0
VERTEX
  8
PLAN_1
 62
     5
  6
CONTINUOUS
 10
-1.194185
 20
0.645087
  0
SEQEND
  8
0
  0
POLYLINE
  8
PLAN_1
 62
     5
  6
CONTINUOUS
 66
     1
 40
0.003000
 41
0.003000
  0
VERTEX
  8
PLAN_1
 62
     5
  6
CONTINUOUS
 10
-1.185969
 20
0.645087
  0
VERTEX
  8
PLAN_1
 62
     5
  6
CONTINUOUS
 10
-1.177752
 20
0.645087
  0
SEQEND
  8
0
  0
POLYLINE
  8
PLAN_1
 62
     5
  6
CONTINUOUS
 66
     1
 40
0.003000
 41
0.003000
  0
VERTEX
  8
PLAN_1
 62
     5
  6
CONTINUOUS
 10
-1.169055
 20
0.645087
  0
VERTEX
  8
PLAN_1
 62
     5
  6
CONTINUOUS
 10
-1.160839
 20
0.645087
  0
SEQEND
  8
0
  0
POLYLINE
  8
PLAN_1
 62
     5
  6
CONTINUOUS
 66
     1
 40
0.003000
 41
0.003000
  0
VERTEX
  8
PLAN_1
 62
     5
  6
CONTINUOUS
 10
-1.152626
 20
0.645087
  0
VERTEX
  8
PLAN_1
 62
     5
  6
CONTINUOUS
 10
-1.144409
 20
0.645087
  0
SEQEND
  8
0
  0
POLYLINE
  8
PLAN_1
 62
     5
  6
CONTINUOUS
 66
     1
 40
0.003000
 41
0.003000
  0
VERTEX
  8
PLAN_1
 62
     5
  6
CONTINUOUS
 10
-1.135713
 20
0.645087
  0
VERTEX
  8
PLAN_1
 62
     5
  6
CONTINUOUS
 10
-1.127496
 20
0.645087
  0
SEQEND
  8
0
  0
POLYLINE
  8
PLAN_1
 62
     5
  6
CONTINUOUS
 66
     1
 40
0.003000
 41
0.003000
  0
VERTEX
  8
PLAN_1
 62
     5
  6
CONTINUOUS
 10
-1.119280
 20
0.645087
  0
VERTEX
  8
PLAN_1
 62
     5
  6
CONTINUOUS
 10
-1.111063
 20
0.645087
  0
SEQEND
  8
0
  0
POLYLINE
  8
PLAN_1
 62
     5
  6
CONTINUOUS
 66
     1
 40
0.003000
 41
0.003000
  0
VERTEX
  8
PLAN_1
 62
     5
  6
CONTINUOUS
 10
-1.102366
 20
0.645087
  0
VERTEX
  8
PLAN_1
 62
     5
  6
CONTINUOUS
 10
-1.094150
 20
0.645087
  0
SEQEND
  8
0
  0
POLYLINE
  8
PLAN_1
 62
     5
  6
CONTINUOUS
 66
     1
 40
0.003000
 41
0.003000
  0
VERTEX
  8
PLAN_1
 62
     5
  6
CONTINUOUS
 10
-1.085937
 20
0.645087
  0
VERTEX
  8
PLAN_1
 62
     5
  6
CONTINUOUS
 10
-1.077720
 20
0.645087
  0
SEQEND
  8
0
  0
POLYLINE
  8
PLAN_1
 62
     5
  6
CONTINUOUS
 66
     1
 40
0.003000
 41
0.003000
  0
VERTEX
  8
PLAN_1
 62
     5
  6
CONTINUOUS
 10
-1.069504
 20
0.645087
  0
VERTEX
  8
PLAN_1
 62
     5
  6
CONTINUOUS
 10
-1.060807
 20
0.645087
  0
SEQEND
  8
0
  0
POLYLINE
  8
PLAN_1
 62
     5
  6
CONTINUOUS
 66
     1
 40
0.003000
 41
0.003000
  0
VERTEX
  8
PLAN_1
 62
     5
  6
CONTINUOUS
 10
-1.052591
 20
0.645087
  0
VERTEX
  8
PLAN_1
 62
     5
  6
CONTINUOUS
 10
-1.044374
 20
0.645087
  0
SEQEND
  8
0
  0
POLYLINE
  8
PLAN_1
 62
     5
  6
CONTINUOUS
 66
     1
 40
0.003000
 41
0.003000
  0
VERTEX
  8
PLAN_1
 62
     5
  6
CONTINUOUS
 10
-1.036161
 20
0.645087
  0
VERTEX
  8
PLAN_1
 62
     5
  6
CONTINUOUS
 10
-1.027461
 20
0.645087
  0
SEQEND
  8
0
  0
POLYLINE
  8
PLAN_1
 62
     5
  6
CONTINUOUS
 66
     1
 40
0.003000
 41
0.003000
  0
VERTEX
  8
PLAN_1
 62
     5
  6
CONTINUOUS
 10
-1.019248
 20
0.645087
  0
VERTEX
  8
PLAN_1
 62
     5
  6
CONTINUOUS
 10
-1.011031
 20
0.645087
  0
SEQEND
  8
0
  0
POLYLINE
  8
PLAN_1
 62
     5
  6
CONTINUOUS
 66
     1
 40
0.003000
 41
0.003000
  0
VERTEX
  8
PLAN_1
 62
     5
  6
CONTINUOUS
 10
-1.002815
 20
0.645087
  0
VERTEX
  8
PLAN_1
 62
     5
  6
CONTINUOUS
 10
-0.994118
 20
0.645087
  0
SEQEND
  8
0
  0
POLYLINE
  8
PLAN_1
 62
     5
  6
CONTINUOUS
 66
     1
 40
0.003000
 41
0.003000
  0
VERTEX
  8
PLAN_1
 62
     5
  6
CONTINUOUS
 10
-0.985902
 20
0.645087
  0
VERTEX
  8
PLAN_1
 62
     5
  6
CONTINUOUS
 10
-0.977689
 20
0.645087
  0
SEQEND
  8
0
  0
POLYLINE
  8
PLAN_1
 62
     5
  6
CONTINUOUS
 66
     1
 40
0.003000
 41
0.003000
  0
VERTEX
  8
PLAN_1
 62
     5
  6
CONTINUOUS
 10
-0.969472
 20
0.645087
  0
VERTEX
  8
PLAN_1
 62
     5
  6
CONTINUOUS
 10
-0.960772
 20
0.645087
  0
SEQEND
  8
0
  0
POLYLINE
  8
PLAN_1
 62
     5
  6
CONTINUOUS
 66
     1
 40
0.003000
 41
0.003000
  0
VERTEX
  8
PLAN_1
 62
     5
  6
CONTINUOUS
 10
-0.952559
 20
0.645087
  0
VERTEX
  8
PLAN_1
 62
     5
  6
CONTINUOUS
 10
-0.944343
 20
0.645087
  0
SEQEND
  8
0
  0
POLYLINE
  8
PLAN_1
 62
     5
  6
CONTINUOUS
 66
     1
 40
0.003000
 41
0.003000
  0
VERTEX
  8
PLAN_1
 62
     5
  6
CONTINUOUS
 10
-0.936126
 20
0.645087
  0
VERTEX
  8
PLAN_1
 62
     5
  6
CONTINUOUS
 10
-0.927913
 20
0.645087
  0
SEQEND
  8
0
  0
POLYLINE
  8
PLAN_1
 62
     5
  6
CONTINUOUS
 66
     1
 40
0.003000
 41
0.003000
  0
VERTEX
  8
PLAN_1
 62
     5
  6
CONTINUOUS
 10
-0.919213
 20
0.645087
  0
VERTEX
  8
PLAN_1
 62
     5
  6
CONTINUOUS
 10
-0.911000
 20
0.645087
  0
SEQEND
  8
0
  0
POLYLINE
  8
PLAN_1
 62
     5
  6
CONTINUOUS
 66
     1
 40
0.003000
 41
0.003000
  0
VERTEX
  8
PLAN_1
 62
     5
  6
CONTINUOUS
 10
-0.902783
 20
0.645087
  0
VERTEX
  8
PLAN_1
 62
     5
  6
CONTINUOUS
 10
-0.894567
 20
0.645087
  0
SEQEND
  8
0
  0
POLYLINE
  8
PLAN_1
 62
     5
  6
CONTINUOUS
 66
     1
 40
0.003000
 41
0.003000
  0
VERTEX
  8
PLAN_1
 62
     5
  6
CONTINUOUS
 10
-0.885870
 20
0.645087
  0
VERTEX
  8
PLAN_1
 62
     5
  6
CONTINUOUS
 10
-0.877654
 20
0.645087
  0
SEQEND
  8
0
  0
POLYLINE
  8
PLAN_1
 62
     5
  6
CONTINUOUS
 66
     1
 40
0.003000
 41
0.003000
  0
VERTEX
  8
PLAN_1
 62
     5
  6
CONTINUOUS
 10
-0.869437
 20
0.645087
  0
VERTEX
  8
PLAN_1
 62
     5
  6
CONTINUOUS
 10
-0.861224
 20
0.645087
  0
SEQEND
  8
0
  0
POLYLINE
  8
PLAN_1
 62
     5
  6
CONTINUOUS
 66
     1
 40
0.003000
 41
0.003000
  0
VERTEX
  8
PLAN_1
 62
     5
  6
CONTINUOUS
 10
-0.852524
 20
0.645087
  0
VERTEX
  8
PLAN_1
 62
     5
  6
CONTINUOUS
 10
-0.844311
 20
0.645087
  0
SEQEND
  8
0
  0
POLYLINE
  8
PLAN_1
 62
     5
  6
CONTINUOUS
 66
     1
 40
0.003000
 41
0.003000
  0
VERTEX
  8
PLAN_1
 62
     5
  6
CONTINUOUS
 10
-0.836094
 20
0.645087
  0
VERTEX
  8
PLAN_1
 62
     5
  6
CONTINUOUS
 10
-0.827878
 20
0.645087
  0
SEQEND
  8
0
  0
POLYLINE
  8
PLAN_1
 62
     5
  6
CONTINUOUS
 66
     1
 40
0.003000
 41
0.003000
  0
VERTEX
  8
PLAN_1
 62
     5
  6
CONTINUOUS
 10
-0.819181
 20
0.645087
  0
VERTEX
  8
PLAN_1
 62
     5
  6
CONTINUOUS
 10
-0.810965
 20
0.645087
  0
SEQEND
  8
0
  0
POLYLINE
  8
PLAN_1
 62
     5
  6
CONTINUOUS
 66
     1
 40
0.003000
 41
0.003000
  0
VERTEX
  8
PLAN_1
 62
     5
  6
CONTINUOUS
 10
-0.802748
 20
0.645087
  0
VERTEX
  8
PLAN_1
 62
     5
  6
CONTINUOUS
 10
-0.794535
 20
0.645087
  0
SEQEND
  8
0
  0
POLYLINE
  8
PLAN_1
 62
     5
  6
CONTINUOUS
 66
     1
 40
0.003000
 41
0.003000
  0
VERTEX
  8
PLAN_1
 62
     5
  6
CONTINUOUS
 10
-0.786319
 20
0.645087
  0
VERTEX
  8
PLAN_1
 62
     5
  6
CONTINUOUS
 10
-0.777622
 20
0.645087
  0
SEQEND
  8
0
  0
POLYLINE
  8
PLAN_1
 62
     5
  6
CONTINUOUS
 66
     1
 40
0.003000
 41
0.003000
  0
VERTEX
  8
PLAN_1
 62
     5
  6
CONTINUOUS
 10
-0.769406
 20
0.645087
  0
VERTEX
  8
PLAN_1
 62
     5
  6
CONTINUOUS
 10
-0.761189
 20
0.645087
  0
SEQEND
  8
0
  0
POLYLINE
  8
PLAN_1
 62
     5
  6
CONTINUOUS
 66
     1
 40
0.003000
 41
0.003000
  0
VERTEX
  8
PLAN_1
 62
     5
  6
CONTINUOUS
 10
-0.752976
 20
0.645087
  0
VERTEX
  8
PLAN_1
 62
     5
  6
CONTINUOUS
 10
-0.744276
 20
0.645087
  0
SEQEND
  8
0
  0
POLYLINE
  8
PLAN_1
 62
     5
  6
CONTINUOUS
 66
     1
 40
0.003000
 41
0.003000
  0
VERTEX
  8
PLAN_1
 62
     5
  6
CONTINUOUS
 10
-0.736059
 20
0.645087
  0
VERTEX
  8
PLAN_1
 62
     5
  6
CONTINUOUS
 10
-0.727846
 20
0.645087
  0
SEQEND
  8
0
  0
POLYLINE
  8
PLAN_1
 62
     5
  6
CONTINUOUS
 66
     1
 40
0.003000
 41
0.003000
  0
VERTEX
  8
PLAN_1
 62
     5
  6
CONTINUOUS
 10
-0.719630
 20
0.645087
  0
VERTEX
  8
PLAN_1
 62
     5
  6
CONTINUOUS
 10
-0.710933
 20
0.645087
  0
SEQEND
  8
0
  0
POLYLINE
  8
PLAN_1
 62
     5
  6
CONTINUOUS
 66
     1
 40
0.003000
 41
0.003000
  0
VERTEX
  8
PLAN_1
 62
     5
  6
CONTINUOUS
 10
-0.702717
 20
0.645087
  0
VERTEX
  8
PLAN_1
 62
     5
  6
CONTINUOUS
 10
-0.694500
 20
0.645087
  0
SEQEND
  8
0
  0
POLYLINE
  8
PLAN_1
 62
     5
  6
CONTINUOUS
 66
     1
 40
0.003000
 41
0.003000
  0
VERTEX
  8
PLAN_1
 62
     5
  6
CONTINUOUS
 10
-0.686287
 20
0.645087
  0
VERTEX
  8
PLAN_1
 62
     5
  6
CONTINUOUS
 10
-0.677587
 20
0.645087
  0
SEQEND
  8
0
  0
POLYLINE
  8
PLAN_1
 62
     5
  6
CONTINUOUS
 66
     1
 40
0.003000
 41
0.003000
  0
VERTEX
  8
PLAN_1
 62
     5
  6
CONTINUOUS
 10
-0.669370
 20
0.645087
  0
VERTEX
  8
PLAN_1
 62
     5
  6
CONTINUOUS
 10
-0.661157
 20
0.645087
  0
SEQEND
  8
0
  0
POLYLINE
  8
PLAN_1
 62
     5
  6
CONTINUOUS
 66
     1
 40
0.003000
 41
0.003000
  0
VERTEX
  8
PLAN_1
 62
     5
  6
CONTINUOUS
 10
-0.652941
 20
0.645087
  0
VERTEX
  8
PLAN_1
 62
     5
  6
CONTINUOUS
 10
-0.644244
 20
0.645087
  0
SEQEND
  8
0
  0
POLYLINE
  8
PLAN_1
 62
     5
  6
CONTINUOUS
 66
     1
 40
0.003000
 41
0.003000
  0
VERTEX
  8
PLAN_1
 62
     5
  6
CONTINUOUS
 10
-0.636028
 20
0.645087
  0
VERTEX
  8
PLAN_1
 62
     5
  6
CONTINUOUS
 10
-0.627811
 20
0.645087
  0
SEQEND
  8
0
  0
POLYLINE
  8
PLAN_1
 62
     5
  6
CONTINUOUS
 66
     1
 40
0.003000
 41
0.003000
  0
VERTEX
  8
PLAN_1
 62
     5
  6
CONTINUOUS
 10
-0.619598
 20
0.645087
  0
VERTEX
  8
PLAN_1
 62
     5
  6
CONTINUOUS
 10
-0.611382
 20
0.645087
  0
SEQEND
  8
0
  0
POLYLINE
  8
PLAN_1
 62
     5
  6
CONTINUOUS
 66
     1
 40
0.003000
 41
0.003000
  0
VERTEX
  8
PLAN_1
 62
     5
  6
CONTINUOUS
 10
-0.602681
 20
0.645087
  0
VERTEX
  8
PLAN_1
 62
     5
  6
CONTINUOUS
 10
-0.594469
 20
0.645087
  0
SEQEND
  8
0
  0
POLYLINE
  8
PLAN_1
 62
     5
  6
CONTINUOUS
 66
     1
 40
0.003000
 41
0.003000
  0
VERTEX
  8
PLAN_1
 62
     5
  6
CONTINUOUS
 10
-0.586252
 20
0.645087
  0
VERTEX
  8
PLAN_1
 62
     5
  6
CONTINUOUS
 10
-0.578035
 20
0.645087
  0
SEQEND
  8
0
  0
POLYLINE
  8
PLAN_1
 62
     5
  6
CONTINUOUS
 66
     1
 40
0.003000
 41
0.003000
  0
VERTEX
  8
PLAN_1
 62
     5
  6
CONTINUOUS
 10
-0.569339
 20
0.645087
  0
VERTEX
  8
PLAN_1
 62
     5
  6
CONTINUOUS
 10
-0.561122
 20
0.645087
  0
SEQEND
  8
0
  0
POLYLINE
  8
PLAN_1
 62
     5
  6
CONTINUOUS
 66
     1
 40
0.003000
 41
0.003000
  0
VERTEX
  8
PLAN_1
 62
     5
  6
CONTINUOUS
 10
-0.552909
 20
0.645087
  0
VERTEX
  8
PLAN_1
 62
     5
  6
CONTINUOUS
 10
-0.544693
 20
0.645087
  0
SEQEND
  8
0
  0
POLYLINE
  8
PLAN_1
 62
     5
  6
CONTINUOUS
 66
     1
 40
0.003000
 41
0.003000
  0
VERTEX
  8
PLAN_1
 62
     5
  6
CONTINUOUS
 10
-0.535996
 20
0.645087
  0
VERTEX
  8
PLAN_1
 62
     5
  6
CONTINUOUS
 10
-0.527780
 20
0.645087
  0
SEQEND
  8
0
  0
POLYLINE
  8
PLAN_1
 62
     5
  6
CONTINUOUS
 66
     1
 40
0.003000
 41
0.003000
  0
VERTEX
  8
PLAN_1
 62
     5
  6
CONTINUOUS
 10
-0.519563
 20
0.645087
  0
VERTEX
  8
PLAN_1
 62
     5
  6
CONTINUOUS
 10
-0.511346
 20
0.645087
  0
SEQEND
  8
0
  0
POLYLINE
  8
PLAN_1
 62
     5
  6
CONTINUOUS
 66
     1
 40
0.003000
 41
0.003000
  0
VERTEX
  8
PLAN_1
 62
     5
  6
CONTINUOUS
 10
-0.502650
 20
0.645087
  0
VERTEX
  8
PLAN_1
 62
     5
  6
CONTINUOUS
 10
-0.494433
 20
0.645087
  0
SEQEND
  8
0
  0
POLYLINE
  8
PLAN_1
 62
     5
  6
CONTINUOUS
 66
     1
 40
0.003000
 41
0.003000
  0
VERTEX
  8
PLAN_1
 62
     5
  6
CONTINUOUS
 10
-0.486220
 20
0.645087
  0
VERTEX
  8
PLAN_1
 62
     5
  6
CONTINUOUS
 10
-0.478004
 20
0.645087
  0
SEQEND
  8
0
  0
POLYLINE
  8
PLAN_1
 62
     5
  6
CONTINUOUS
 66
     1
 40
0.003000
 41
0.003000
  0
VERTEX
  8
PLAN_1
 62
     5
  6
CONTINUOUS
 10
-0.469787
 20
0.645087
  0
VERTEX
  8
PLAN_1
 62
     5
  6
CONTINUOUS
 10
-0.461091
 20
0.645087
  0
SEQEND
  8
0
  0
POLYLINE
  8
PLAN_1
 62
     5
  6
CONTINUOUS
 66
     1
 40
0.003000
 41
0.003000
  0
VERTEX
  8
PLAN_1
 62
     5
  6
CONTINUOUS
 10
-0.452874
 20
0.645087
  0
VERTEX
  8
PLAN_1
 62
     5
  6
CONTINUOUS
 10
-0.444657
 20
0.645087
  0
SEQEND
  8
0
  0
POLYLINE
  8
PLAN_1
 62
     5
  6
CONTINUOUS
 66
     1
 40
0.003000
 41
0.003000
  0
VERTEX
  8
PLAN_1
 62
     5
  6
CONTINUOUS
 10
-0.436445
 20
0.645087
  0
VERTEX
  8
PLAN_1
 62
     5
  6
CONTINUOUS
 10
-0.427744
 20
0.645087
  0
SEQEND
  8
0
  0
POLYLINE
  8
PLAN_1
 62
     5
  6
CONTINUOUS
 66
     1
 40
0.003000
 41
0.003000
  0
VERTEX
  8
PLAN_1
 62
     5
  6
CONTINUOUS
 10
-0.419531
 20
0.645087
  0
VERTEX
  8
PLAN_1
 62
     5
  6
CONTINUOUS
 10
-0.411315
 20
0.645087
  0
SEQEND
  8
0
  0
POLYLINE
  8
PLAN_1
 62
     5
  6
CONTINUOUS
 66
     1
 40
0.003000
 41
0.003000
  0
VERTEX
  8
PLAN_1
 62
     5
  6
CONTINUOUS
 10
-0.403098
 20
0.645087
  0
VERTEX
  8
PLAN_1
 62
     5
  6
CONTINUOUS
 10
-0.394402
 20
0.645087
  0
SEQEND
  8
0
  0
POLYLINE
  8
PLAN_1
 62
     5
  6
CONTINUOUS
 66
     1
 40
0.003000
 41
0.003000
  0
VERTEX
  8
PLAN_1
 62
     5
  6
CONTINUOUS
 10
-0.386185
 20
0.645087
  0
VERTEX
  8
PLAN_1
 62
     5
  6
CONTINUOUS
 10
-0.377972
 20
0.645087
  0
SEQEND
  8
0
  0
POLYLINE
  8
PLAN_1
 62
     5
  6
CONTINUOUS
 66
     1
 40
0.003000
 41
0.003000
  0
VERTEX
  8
PLAN_1
 62
     5
  6
CONTINUOUS
 10
-0.369756
 20
0.645087
  0
VERTEX
  8
PLAN_1
 62
     5
  6
CONTINUOUS
 10
-0.361055
 20
0.645087
  0
SEQEND
  8
0
  0
POLYLINE
  8
PLAN_1
 62
     5
  6
CONTINUOUS
 66
     1
 40
0.003000
 41
0.003000
  0
VERTEX
  8
PLAN_1
 62
     5
  6
CONTINUOUS
 10
-0.352843
 20
0.645087
  0
VERTEX
  8
PLAN_1
 62
     5
  6
CONTINUOUS
 10
-0.344626
 20
0.645087
  0
SEQEND
  8
0
  0
POLYLINE
  8
PLAN_1
 62
     5
  6
CONTINUOUS
 66
     1
 40
0.003000
 41
0.003000
  0
VERTEX
  8
PLAN_1
 62
     5
  6
CONTINUOUS
 10
-0.336409
 20
0.645087
  0
VERTEX
  8
PLAN_1
 62
     5
  6
CONTINUOUS
 10
-0.328197
 20
0.645087
  0
SEQEND
  8
0
  0
POLYLINE
  8
PLAN_1
 62
     5
  6
CONTINUOUS
 66
     1
 40
0.003000
 41
0.003000
  0
VERTEX
  8
PLAN_1
 62
     5
  6
CONTINUOUS
 10
-0.319496
 20
0.645087
  0
VERTEX
  8
PLAN_1
 62
     5
  6
CONTINUOUS
 10
-0.311283
 20
0.645087
  0
SEQEND
  8
0
  0
POLYLINE
  8
PLAN_1
 62
     5
  6
CONTINUOUS
 66
     1
 40
0.003000
 41
0.003000
  0
VERTEX
  8
PLAN_1
 62
     5
  6
CONTINUOUS
 10
-0.303067
 20
0.645087
  0
VERTEX
  8
PLAN_1
 62
     5
  6
CONTINUOUS
 10
-0.294850
 20
0.645087
  0
SEQEND
  8
0
  0
POLYLINE
  8
PLAN_1
 62
     5
  6
CONTINUOUS
 66
     1
 40
0.003000
 41
0.003000
  0
VERTEX
  8
PLAN_1
 62
     5
  6
CONTINUOUS
 10
-0.286154
 20
0.645087
  0
VERTEX
  8
PLAN_1
 62
     5
  6
CONTINUOUS
 10
-0.277937
 20
0.645087
  0
SEQEND
  8
0
  0
POLYLINE
  8
PLAN_1
 62
     5
  6
CONTINUOUS
 66
     1
 40
0.003000
 41
0.003000
  0
VERTEX
  8
PLAN_1
 62
     5
  6
CONTINUOUS
 10
-0.269720
 20
0.645087
  0
VERTEX
  8
PLAN_1
 62
     5
  6
CONTINUOUS
 10
-0.261508
 20
0.645087
  0
SEQEND
  8
0
  0
POLYLINE
  8
PLAN_1
 62
     5
  6
CONTINUOUS
 66
     1
 40
0.003000
 41
0.003000
  0
VERTEX
  8
PLAN_1
 62
     5
  6
CONTINUOUS
 10
-0.252807
 20
0.645087
  0
VERTEX
  8
PLAN_1
 62
     5
  6
CONTINUOUS
 10
-0.244594
 20
0.645087
  0
SEQEND
  8
0
  0
POLYLINE
  8
PLAN_1
 62
     5
  6
CONTINUOUS
 66
     1
 40
0.003000
 41
0.003000
  0
VERTEX
  8
PLAN_1
 62
     5
  6
CONTINUOUS
 10
-0.236378
 20
0.645087
  0
VERTEX
  8
PLAN_1
 62
     5
  6
CONTINUOUS
 10
-0.228161
 20
0.645087
  0
SEQEND
  8
0
  0
POLYLINE
  8
PLAN_1
 62
     5
  6
CONTINUOUS
 66
     1
 40
0.003000
 41
0.003000
  0
VERTEX
  8
PLAN_1
 62
     5
  6
CONTINUOUS
 10
-0.219465
 20
0.645087
  0
VERTEX
  8
PLAN_1
 62
     5
  6
CONTINUOUS
 10
-0.211248
 20
0.645087
  0
SEQEND
  8
0
  0
POLYLINE
  8
PLAN_1
 62
     5
  6
CONTINUOUS
 66
     1
 40
0.003000
 41
0.003000
  0
VERTEX
  8
PLAN_1
 62
     5
  6
CONTINUOUS
 10
-0.203031
 20
0.645087
  0
VERTEX
  8
PLAN_1
 62
     5
  6
CONTINUOUS
 10
-0.194819
 20
0.645087
  0
SEQEND
  8
0
  0
POLYLINE
  8
PLAN_1
 62
     5
  6
CONTINUOUS
 66
     1
 40
0.003000
 41
0.003000
  0
VERTEX
  8
PLAN_1
 62
     5
  6
CONTINUOUS
 10
-0.186602
 20
0.645087
  0
VERTEX
  8
PLAN_1
 62
     5
  6
CONTINUOUS
 10
-0.177906
 20
0.645087
  0
SEQEND
  8
0
  0
POLYLINE
  8
PLAN_1
 62
     5
  6
CONTINUOUS
 66
     1
 40
0.003000
 41
0.003000
  0
VERTEX
  8
PLAN_1
 62
     5
  6
CONTINUOUS
 10
-0.169689
 20
0.645087
  0
VERTEX
  8
PLAN_1
 62
     5
  6
CONTINUOUS
 10
-0.161472
 20
0.645087
  0
SEQEND
  8
0
  0
POLYLINE
  8
PLAN_1
 62
     5
  6
CONTINUOUS
 66
     1
 40
0.003000
 41
0.003000
  0
VERTEX
  8
PLAN_1
 62
     5
  6
CONTINUOUS
 10
-0.153260
 20
0.645087
  0
VERTEX
  8
PLAN_1
 62
     5
  6
CONTINUOUS
 10
-0.144559
 20
0.645087
  0
SEQEND
  8
0
  0
POLYLINE
  8
PLAN_1
 62
     5
  6
CONTINUOUS
 66
     1
 40
0.003000
 41
0.003000
  0
VERTEX
  8
PLAN_1
 62
     5
  6
CONTINUOUS
 10
-0.136343
 20
0.645087
  0
VERTEX
  8
PLAN_1
 62
     5
  6
CONTINUOUS
 10
-0.128130
 20
0.645087
  0
SEQEND
  8
0
  0
POLYLINE
  8
PLAN_1
 62
     5
  6
CONTINUOUS
 66
     1
 40
0.003000
 41
0.003000
  0
VERTEX
  8
PLAN_1
 62
     5
  6
CONTINUOUS
 10
-0.119913
 20
0.645087
  0
VERTEX
  8
PLAN_1
 62
     5
  6
CONTINUOUS
 10
-0.111217
 20
0.645087
  0
SEQEND
  8
0
  0
POLYLINE
  8
PLAN_1
 62
     5
  6
CONTINUOUS
 66
     1
 40
0.003000
 41
0.003000
  0
VERTEX
  8
PLAN_1
 62
     5
  6
CONTINUOUS
 10
-0.103000
 20
0.645087
  0
VERTEX
  8
PLAN_1
 62
     5
  6
CONTINUOUS
 10
-0.094783
 20
0.645087
  0
SEQEND
  8
0
  0
POLYLINE
  8
PLAN_1
 62
     5
  6
CONTINUOUS
 66
     1
 40
0.003000
 41
0.003000
  0
VERTEX
  8
PLAN_1
 62
     5
  6
CONTINUOUS
 10
-0.086571
 20
0.645087
  0
VERTEX
  8
PLAN_1
 62
     5
  6
CONTINUOUS
 10
-0.077870
 20
0.645087
  0
SEQEND
  8
0
  0
POLYLINE
  8
PLAN_1
 62
     5
  6
CONTINUOUS
 66
     1
 40
0.003000
 41
0.003000
  0
VERTEX
  8
PLAN_1
 62
     5
  6
CONTINUOUS
 10
-0.069654
 20
0.645087
  0
VERTEX
  8
PLAN_1
 62
     5
  6
CONTINUOUS
 10
-0.061441
 20
0.645087
  0
SEQEND
  8
0
  0
POLYLINE
  8
PLAN_1
 62
     5
  6
CONTINUOUS
 66
     1
 40
0.003000
 41
0.003000
  0
VERTEX
  8
PLAN_1
 62
     5
  6
CONTINUOUS
 10
-0.053224
 20
0.645087
  0
VERTEX
  8
PLAN_1
 62
     5
  6
CONTINUOUS
 10
-0.044528
 20
0.645087
  0
SEQEND
  8
0
  0
POLYLINE
  8
PLAN_1
 62
     5
  6
CONTINUOUS
 66
     1
 40
0.003000
 41
0.003000
  0
VERTEX
  8
PLAN_1
 62
     5
  6
CONTINUOUS
 10
-0.036311
 20
0.645087
  0
VERTEX
  8
PLAN_1
 62
     5
  6
CONTINUOUS
 10
-0.028094
 20
0.645087
  0
SEQEND
  8
0
  0
POLYLINE
  8
PLAN_1
 62
     5
  6
CONTINUOUS
 66
     1
 40
0.003000
 41
0.003000
  0
VERTEX
  8
PLAN_1
 62
     5
  6
CONTINUOUS
 10
-0.019882
 20
0.645087
  0
VERTEX
  8
PLAN_1
 62
     5
  6
CONTINUOUS
 10
-0.011665
 20
0.645087
  0
SEQEND
  8
0
  0
POLYLINE
  8
PLAN_1
 62
     5
  6
CONTINUOUS
 66
     1
 40
0.003000
 41
0.003000
  0
VERTEX
  8
PLAN_1
 62
     5
  6
CONTINUOUS
 10
-0.002965
 20
0.645087
  0
VERTEX
  8
PLAN_1
 62
     5
  6
CONTINUOUS
 10
0.005248
 20
0.645087
  0
SEQEND
  8
0
  0
POLYLINE
  8
PLAN_1
 62
     5
  6
CONTINUOUS
 66
     1
 40
0.003000
 41
0.003000
  0
VERTEX
  8
PLAN_1
 62
     5
  6
CONTINUOUS
 10
0.013465
 20
0.645087
  0
VERTEX
  8
PLAN_1
 62
     5
  6
CONTINUOUS
 10
0.021681
 20
0.645087
  0
SEQEND
  8
0
  0
POLYLINE
  8
PLAN_1
 62
     5
  6
CONTINUOUS
 66
     1
 40
0.003000
 41
0.003000
  0
VERTEX
  8
PLAN_1
 62
     5
  6
CONTINUOUS
 10
0.030378
 20
0.645087
  0
VERTEX
  8
PLAN_1
 62
     5
  6
CONTINUOUS
 10
0.038594
 20
0.645087
  0
SEQEND
  8
0
  0
POLYLINE
  8
PLAN_1
 62
     5
  6
CONTINUOUS
 66
     1
 40
0.003000
 41
0.003000
  0
VERTEX
  8
PLAN_1
 62
     5
  6
CONTINUOUS
 10
0.046807
 20
0.645087
  0
VERTEX
  8
PLAN_1
 62
     5
  6
CONTINUOUS
 10
0.055024
 20
0.645087
  0
SEQEND
  8
0
  0
POLYLINE
  8
PLAN_1
 62
     5
  6
CONTINUOUS
 66
     1
 40
0.003000
 41
0.003000
  0
VERTEX
  8
PLAN_1
 62
     5
  6
CONTINUOUS
 10
0.063720
 20
0.645087
  0
VERTEX
  8
PLAN_1
 62
     5
  6
CONTINUOUS
 10
0.071937
 20
0.645087
  0
SEQEND
  8
0
  0
POLYLINE
  8
PLAN_1
 62
     5
  6
CONTINUOUS
 66
     1
 40
0.003000
 41
0.003000
  0
VERTEX
  8
PLAN_1
 62
     5
  6
CONTINUOUS
 10
0.080154
 20
0.645087
  0
VERTEX
  8
PLAN_1
 62
     5
  6
CONTINUOUS
 10
0.088370
 20
0.645087
  0
SEQEND
  8
0
  0
POLYLINE
  8
PLAN_1
 62
     5
  6
CONTINUOUS
 66
     1
 40
0.003000
 41
0.003000
  0
VERTEX
  8
PLAN_1
 62
     5
  6
CONTINUOUS
 10
0.097067
 20
0.645087
  0
VERTEX
  8
PLAN_1
 62
     5
  6
CONTINUOUS
 10
0.105283
 20
0.645087
  0
SEQEND
  8
0
  0
POLYLINE
  8
PLAN_1
 62
     5
  6
CONTINUOUS
 66
     1
 40
0.003000
 41
0.003000
  0
VERTEX
  8
PLAN_1
 62
     5
  6
CONTINUOUS
 10
0.113496
 20
0.645087
  0
VERTEX
  8
PLAN_1
 62
     5
  6
CONTINUOUS
 10
0.121713
 20
0.645087
  0
SEQEND
  8
0
  0
POLYLINE
  8
PLAN_1
 62
     5
  6
CONTINUOUS
 66
     1
 40
0.003000
 41
0.003000
  0
VERTEX
  8
PLAN_1
 62
     5
  6
CONTINUOUS
 10
0.129929
 20
0.645087
  0
VERTEX
  8
PLAN_1
 62
     5
  6
CONTINUOUS
 10
0.138626
 20
0.645087
  0
SEQEND
  8
0
  0
POLYLINE
  8
PLAN_1
 62
     5
  6
CONTINUOUS
 66
     1
 40
0.003000
 41
0.003000
  0
VERTEX
  8
PLAN_1
 62
     5
  6
CONTINUOUS
 10
0.146843
 20
0.645087
  0
VERTEX
  8
PLAN_1
 62
     5
  6
CONTINUOUS
 10
0.155059
 20
0.645087
  0
SEQEND
  8
0
  0
POLYLINE
  8
PLAN_1
 62
     5
  6
CONTINUOUS
 66
     1
 40
0.003000
 41
0.003000
  0
VERTEX
  8
PLAN_1
 62
     5
  6
CONTINUOUS
 10
0.163272
 20
0.645087
  0
VERTEX
  8
PLAN_1
 62
     5
  6
CONTINUOUS
 10
0.171972
 20
0.645087
  0
SEQEND
  8
0
  0
POLYLINE
  8
PLAN_1
 62
     5
  6
CONTINUOUS
 66
     1
 40
0.003000
 41
0.003000
  0
VERTEX
  8
PLAN_1
 62
     5
  6
CONTINUOUS
 10
0.180185
 20
0.645087
  0
VERTEX
  8
PLAN_1
 62
     5
  6
CONTINUOUS
 10
0.188402
 20
0.645087
  0
SEQEND
  8
0
  0
POLYLINE
  8
PLAN_1
 62
     5
  6
CONTINUOUS
 66
     1
 40
0.003000
 41
0.003000
  0
VERTEX
  8
PLAN_1
 62
     5
  6
CONTINUOUS
 10
0.196618
 20
0.645087
  0
VERTEX
  8
PLAN_1
 62
     5
  6
CONTINUOUS
 10
0.205315
 20
0.645087
  0
SEQEND
  8
0
  0
POLYLINE
  8
PLAN_1
 62
     5
  6
CONTINUOUS
 66
     1
 40
0.003000
 41
0.003000
  0
VERTEX
  8
PLAN_1
 62
     5
  6
CONTINUOUS
 10
0.213531
 20
0.645087
  0
VERTEX
  8
PLAN_1
 62
     5
  6
CONTINUOUS
 10
0.221744
 20
0.645087
  0
SEQEND
  8
0
  0
POLYLINE
  8
PLAN_1
 62
     5
  6
CONTINUOUS
 66
     1
 40
0.003000
 41
0.003000
  0
VERTEX
  8
PLAN_1
 62
     5
  6
CONTINUOUS
 10
0.229961
 20
0.645087
  0
VERTEX
  8
PLAN_1
 62
     5
  6
CONTINUOUS
 10
0.238661
 20
0.645087
  0
SEQEND
  8
0
  0
POLYLINE
  8
PLAN_1
 62
     5
  6
CONTINUOUS
 66
     1
 40
0.003000
 41
0.003000
  0
VERTEX
  8
PLAN_1
 62
     5
  6
CONTINUOUS
 10
0.246874
 20
0.645087
  0
VERTEX
  8
PLAN_1
 62
     5
  6
CONTINUOUS
 10
0.255091
 20
0.645087
  0
SEQEND
  8
0
  0
POLYLINE
  8
PLAN_1
 62
     5
  6
CONTINUOUS
 66
     1
 40
0.003000
 41
0.003000
  0
VERTEX
  8
PLAN_1
 62
     5
  6
CONTINUOUS
 10
0.263307
 20
0.645087
  0
VERTEX
  8
PLAN_1
 62
     5
  6
CONTINUOUS
 10
0.271520
 20
0.645087
  0
SEQEND
  8
0
  0
POLYLINE
  8
PLAN_1
 62
     5
  6
CONTINUOUS
 66
     1
 40
0.003000
 41
0.003000
  0
VERTEX
  8
PLAN_1
 62
     5
  6
CONTINUOUS
 10
0.280220
 20
0.645087
  0
VERTEX
  8
PLAN_1
 62
     5
  6
CONTINUOUS
 10
0.288433
 20
0.645087
  0
SEQEND
  8
0
  0
POLYLINE
  8
PLAN_1
 62
     5
  6
CONTINUOUS
 66
     1
 40
0.003000
 41
0.003000
  0
VERTEX
  8
PLAN_1
 62
     5
  6
CONTINUOUS
 10
0.296650
 20
0.645087
  0
VERTEX
  8
PLAN_1
 62
     5
  6
CONTINUOUS
 10
0.304866
 20
0.645087
  0
SEQEND
  8
0
  0
POLYLINE
  8
PLAN_1
 62
     5
  6
CONTINUOUS
 66
     1
 40
0.003000
 41
0.003000
  0
VERTEX
  8
PLAN_1
 62
     5
  6
CONTINUOUS
 10
0.313563
 20
0.645087
  0
VERTEX
  8
PLAN_1
 62
     5
  6
CONTINUOUS
 10
0.321780
 20
0.645087
  0
SEQEND
  8
0
  0
POLYLINE
  8
PLAN_1
 62
     5
  6
CONTINUOUS
 66
     1
 40
0.003000
 41
0.003000
  0
VERTEX
  8
PLAN_1
 62
     5
  6
CONTINUOUS
 10
0.329996
 20
0.645087
  0
VERTEX
  8
PLAN_1
 62
     5
  6
CONTINUOUS
 10
0.338209
 20
0.645087
  0
SEQEND
  8
0
  0
POLYLINE
  8
PLAN_1
 62
     5
  6
CONTINUOUS
 66
     1
 40
0.003000
 41
0.003000
  0
VERTEX
  8
PLAN_1
 62
     5
  6
CONTINUOUS
 10
0.346909
 20
0.645087
  0
VERTEX
  8
PLAN_1
 62
     5
  6
CONTINUOUS
 10
0.355122
 20
0.645087
  0
SEQEND
  8
0
  0
POLYLINE
  8
PLAN_1
 62
     5
  6
CONTINUOUS
 66
     1
 40
0.003000
 41
0.003000
  0
VERTEX
  8
PLAN_1
 62
     5
  6
CONTINUOUS
 10
0.363339
 20
0.645087
  0
VERTEX
  8
PLAN_1
 62
     5
  6
CONTINUOUS
 10
0.371555
 20
0.645087
  0
SEQEND
  8
0
  0
POLYLINE
  8
PLAN_1
 62
     5
  6
CONTINUOUS
 66
     1
 40
0.003000
 41
0.003000
  0
VERTEX
  8
PLAN_1
 62
     5
  6
CONTINUOUS
 10
0.380252
 20
0.645087
  0
VERTEX
  8
PLAN_1
 62
     5
  6
CONTINUOUS
 10
0.388469
 20
0.645087
  0
SEQEND
  8
0
  0
POLYLINE
  8
PLAN_1
 62
     5
  6
CONTINUOUS
 66
     1
 40
0.003000
 41
0.003000
  0
VERTEX
  8
PLAN_1
 62
     5
  6
CONTINUOUS
 10
0.396685
 20
0.645087
  0
VERTEX
  8
PLAN_1
 62
     5
  6
CONTINUOUS
 10
0.404898
 20
0.645087
  0
SEQEND
  8
0
  0
POLYLINE
  8
PLAN_1
 62
     5
  6
CONTINUOUS
 66
     1
 40
0.003000
 41
0.003000
  0
VERTEX
  8
PLAN_1
 62
     5
  6
CONTINUOUS
 10
0.413114
 20
0.645087
  0
VERTEX
  8
PLAN_1
 62
     5
  6
CONTINUOUS
 10
0.421811
 20
0.645087
  0
SEQEND
  8
0
  0
POLYLINE
  8
PLAN_1
 62
     5
  6
CONTINUOUS
 66
     1
 40
0.003000
 41
0.003000
  0
VERTEX
  8
PLAN_1
 62
     5
  6
CONTINUOUS
 10
0.430028
 20
0.645087
  0
VERTEX
  8
PLAN_1
 62
     5
  6
CONTINUOUS
 10
0.438244
 20
0.645087
  0
SEQEND
  8
0
  0
POLYLINE
  8
PLAN_1
 62
     5
  6
CONTINUOUS
 66
     1
 40
0.003000
 41
0.003000
  0
VERTEX
  8
PLAN_1
 62
     5
  6
CONTINUOUS
 10
0.446457
 20
0.645087
  0
VERTEX
  8
PLAN_1
 62
     5
  6
CONTINUOUS
 10
0.455157
 20
0.645087
  0
SEQEND
  8
0
  0
POLYLINE
  8
PLAN_1
 62
     5
  6
CONTINUOUS
 66
     1
 40
0.003000
 41
0.003000
  0
VERTEX
  8
PLAN_1
 62
     5
  6
CONTINUOUS
 10
0.463374
 20
0.645087
  0
VERTEX
  8
PLAN_1
 62
     5
  6
CONTINUOUS
 10
0.471587
 20
0.645087
  0
SEQEND
  8
0
  0
POLYLINE
  8
PLAN_1
 62
     5
  6
CONTINUOUS
 66
     1
 40
0.003000
 41
0.003000
  0
VERTEX
  8
PLAN_1
 62
     5
  6
CONTINUOUS
 10
0.479803
 20
0.645087
  0
VERTEX
  8
PLAN_1
 62
     5
  6
CONTINUOUS
 10
0.488500
 20
0.645087
  0
SEQEND
  8
0
  0
POLYLINE
  8
PLAN_1
 62
     5
  6
CONTINUOUS
 66
     1
 40
0.003000
 41
0.003000
  0
VERTEX
  8
PLAN_1
 62
     5
  6
CONTINUOUS
 10
0.488984
 20
0.637354
  0
VERTEX
  8
PLAN_1
 62
     5
  6
CONTINUOUS
 10
0.488984
 20
0.629142
  0
SEQEND
  8
0
  0
POLYLINE
  8
PLAN_1
 62
     5
  6
CONTINUOUS
 66
     1
 40
0.003000
 41
0.003000
  0
VERTEX
  8
PLAN_1
 62
     5
  6
CONTINUOUS
 10
0.488984
 20
0.620925
  0
VERTEX
  8
PLAN_1
 62
     5
  6
CONTINUOUS
 10
0.488984
 20
0.612228
  0
SEQEND
  8
0
  0
POLYLINE
  8
PLAN_1
 62
     5
  6
CONTINUOUS
 66
     1
 40
0.003000
 41
0.003000
  0
VERTEX
  8
PLAN_1
 62
     5
  6
CONTINUOUS
 10
0.488984
 20
0.604012
  0
VERTEX
  8
PLAN_1
 62
     5
  6
CONTINUOUS
 10
0.488984
 20
0.595795
  0
SEQEND
  8
0
  0
POLYLINE
  8
PLAN_1
 62
     5
  6
CONTINUOUS
 66
     1
 40
0.003000
 41
0.003000
  0
VERTEX
  8
PLAN_1
 62
     5
  6
CONTINUOUS
 10
0.488984
 20
0.587583
  0
VERTEX
  8
PLAN_1
 62
     5
  6
CONTINUOUS
 10
0.488984
 20
0.578882
  0
SEQEND
  8
0
  0
POLYLINE
  8
PLAN_1
 62
     5
  6
CONTINUOUS
 66
     1
 40
0.003000
 41
0.003000
  0
VERTEX
  8
PLAN_1
 62
     5
  6
CONTINUOUS
 10
0.488984
 20
0.570665
  0
VERTEX
  8
PLAN_1
 62
     5
  6
CONTINUOUS
 10
0.488984
 20
0.562453
  0
SEQEND
  8
0
  0
POLYLINE
  8
PLAN_1
 62
     5
  6
CONTINUOUS
 66
     1
 40
0.003000
 41
0.003000
  0
VERTEX
  8
PLAN_1
 62
     5
  6
CONTINUOUS
 10
0.488984
 20
0.554236
  0
VERTEX
  8
PLAN_1
 62
     5
  6
CONTINUOUS
 10
0.488984
 20
0.546020
  0
SEQEND
  8
0
  0
POLYLINE
  8
PLAN_1
 62
     5
  6
CONTINUOUS
 66
     1
 40
0.003000
 41
0.003000
  0
VERTEX
  8
PLAN_1
 62
     5
  6
CONTINUOUS
 10
0.488984
 20
0.537323
  0
VERTEX
  8
PLAN_1
 62
     5
  6
CONTINUOUS
 10
0.488984
 20
0.529106
  0
SEQEND
  8
0
  0
POLYLINE
  8
PLAN_1
 62
     5
  6
CONTINUOUS
 66
     1
 40
0.003000
 41
0.003000
  0
VERTEX
  8
PLAN_1
 62
     5
  6
CONTINUOUS
 10
0.488984
 20
0.520894
  0
VERTEX
  8
PLAN_1
 62
     5
  6
CONTINUOUS
 10
0.488984
 20
0.512677
  0
SEQEND
  8
0
  0
POLYLINE
  8
PLAN_1
 62
     5
  6
CONTINUOUS
 66
     1
 40
0.003000
 41
0.003000
  0
VERTEX
  8
PLAN_1
 62
     5
  6
CONTINUOUS
 10
0.488984
 20
0.503976
  0
VERTEX
  8
PLAN_1
 62
     5
  6
CONTINUOUS
 10
0.488984
 20
0.495764
  0
SEQEND
  8
0
  0
POLYLINE
  8
PLAN_1
 62
     5
  6
CONTINUOUS
 66
     1
 40
0.003000
 41
0.003000
  0
VERTEX
  8
PLAN_1
 62
     5
  6
CONTINUOUS
 10
0.488984
 20
0.487547
  0
VERTEX
  8
PLAN_1
 62
     5
  6
CONTINUOUS
 10
0.488984
 20
0.479331
  0
SEQEND
  8
0
  0
POLYLINE
  8
PLAN_1
 62
     5
  6
CONTINUOUS
 66
     1
 40
0.003000
 41
0.003000
  0
VERTEX
  8
PLAN_1
 62
     5
  6
CONTINUOUS
 10
0.493335
 20
0.474984
  0
VERTEX
  8
PLAN_1
 62
     5
  6
CONTINUOUS
 10
0.501551
 20
0.474984
  0
SEQEND
  8
0
  0
POLYLINE
  8
PLAN_1
 62
     5
  6
CONTINUOUS
 66
     1
 40
0.003000
 41
0.003000
  0
VERTEX
  8
PLAN_1
 62
     5
  6
CONTINUOUS
 10
0.509764
 20
0.474984
  0
VERTEX
  8
PLAN_1
 62
     5
  6
CONTINUOUS
 10
0.517980
 20
0.474984
  0
SEQEND
  8
0
  0
POLYLINE
  8
PLAN_1
 62
     5
  6
CONTINUOUS
 66
     1
 40
0.003000
 41
0.003000
  0
VERTEX
  8
PLAN_1
 62
     5
  6
CONTINUOUS
 10
0.526677
 20
0.474984
  0
VERTEX
  8
PLAN_1
 62
     5
  6
CONTINUOUS
 10
0.534894
 20
0.474984
  0
SEQEND
  8
0
  0
POLYLINE
  8
PLAN_1
 62
     5
  6
CONTINUOUS
 66
     1
 40
0.003000
 41
0.003000
  0
VERTEX
  8
PLAN_1
 62
     5
  6
CONTINUOUS
 10
0.535858
 20
0.467732
  0
VERTEX
  8
PLAN_1
 62
     5
  6
CONTINUOUS
 10
0.535858
 20
0.459520
  0
SEQEND
  8
0
  0
POLYLINE
  8
PLAN_1
 62
     5
  6
CONTINUOUS
 66
     1
 40
0.003000
 41
0.003000
  0
VERTEX
  8
PLAN_1
 62
     5
  6
CONTINUOUS
 10
0.535858
 20
0.450819
  0
VERTEX
  8
PLAN_1
 62
     5
  6
CONTINUOUS
 10
0.535858
 20
0.442606
  0
SEQEND
  8
0
  0
POLYLINE
  8
PLAN_1
 62
     5
  6
CONTINUOUS
 66
     1
 40
0.003000
 41
0.003000
  0
VERTEX
  8
PLAN_1
 62
     5
  6
CONTINUOUS
 10
0.535858
 20
0.434390
  0
VERTEX
  8
PLAN_1
 62
     5
  6
CONTINUOUS
 10
0.535858
 20
0.426173
  0
SEQEND
  8
0
  0
POLYLINE
  8
PLAN_1
 62
     5
  6
CONTINUOUS
 66
     1
 40
0.003000
 41
0.003000
  0
VERTEX
  8
PLAN_1
 62
     5
  6
CONTINUOUS
 10
0.535858
 20
0.417476
  0
VERTEX
  8
PLAN_1
 62
     5
  6
CONTINUOUS
 10
0.535858
 20
0.409260
  0
SEQEND
  8
0
  0
POLYLINE
  8
PLAN_1
 62
     5
  6
CONTINUOUS
 66
     1
 40
0.003000
 41
0.003000
  0
VERTEX
  8
PLAN_1
 62
     5
  6
CONTINUOUS
 10
0.535858
 20
0.401043
  0
VERTEX
  8
PLAN_1
 62
     5
  6
CONTINUOUS
 10
0.535858
 20
0.392831
  0
SEQEND
  8
0
  0
POLYLINE
  8
PLAN_1
 62
     5
  6
CONTINUOUS
 66
     1
 40
0.003000
 41
0.003000
  0
VERTEX
  8
PLAN_1
 62
     5
  6
CONTINUOUS
 10
0.535858
 20
0.384130
  0
VERTEX
  8
PLAN_1
 62
     5
  6
CONTINUOUS
 10
0.535858
 20
0.375917
  0
SEQEND
  8
0
  0
POLYLINE
  8
PLAN_1
 62
     5
  6
CONTINUOUS
 66
     1
 40
0.003000
 41
0.003000
  0
VERTEX
  8
PLAN_1
 62
     5
  6
CONTINUOUS
 10
0.535858
 20
0.367701
  0
VERTEX
  8
PLAN_1
 62
     5
  6
CONTINUOUS
 10
0.535858
 20
0.359484
  0
SEQEND
  8
0
  0
POLYLINE
  8
PLAN_1
 62
     5
  6
CONTINUOUS
 66
     1
 40
0.003000
 41
0.003000
  0
VERTEX
  8
PLAN_1
 62
     5
  6
CONTINUOUS
 10
0.535858
 20
0.350787
  0
VERTEX
  8
PLAN_1
 62
     5
  6
CONTINUOUS
 10
0.535858
 20
0.342571
  0
SEQEND
  8
0
  0
POLYLINE
  8
PLAN_1
 62
     5
  6
CONTINUOUS
 66
     1
 40
0.003000
 41
0.003000
  0
VERTEX
  8
PLAN_1
 62
     5
  6
CONTINUOUS
 10
0.535858
 20
0.334358
  0
VERTEX
  8
PLAN_1
 62
     5
  6
CONTINUOUS
 10
0.535858
 20
0.326142
  0
SEQEND
  8
0
  0
POLYLINE
  8
PLAN_1
 62
     5
  6
CONTINUOUS
 66
     1
 40
0.003000
 41
0.003000
  0
VERTEX
  8
PLAN_1
 62
     5
  6
CONTINUOUS
 10
0.535858
 20
0.317925
  0
VERTEX
  8
PLAN_1
 62
     5
  6
CONTINUOUS
 10
0.535858
 20
0.309228
  0
SEQEND
  8
0
  0
POLYLINE
  8
PLAN_1
 62
     5
  6
CONTINUOUS
 66
     1
 40
0.003000
 41
0.003000
  0
VERTEX
  8
PLAN_1
 62
     5
  6
CONTINUOUS
 10
0.535858
 20
0.301012
  0
VERTEX
  8
PLAN_1
 62
     5
  6
CONTINUOUS
 10
0.535858
 20
0.292795
  0
SEQEND
  8
0
  0
POLYLINE
  8
PLAN_1
 62
     5
  6
CONTINUOUS
 66
     1
 40
0.003000
 41
0.003000
  0
VERTEX
  8
PLAN_1
 62
     5
  6
CONTINUOUS
 10
0.535858
 20
0.284583
  0
VERTEX
  8
PLAN_1
 62
     5
  6
CONTINUOUS
 10
0.535858
 20
0.275882
  0
SEQEND
  8
0
  0
POLYLINE
  8
PLAN_1
 62
     5
  6
CONTINUOUS
 66
     1
 40
0.003000
 41
0.003000
  0
VERTEX
  8
PLAN_1
 62
     5
  6
CONTINUOUS
 10
0.535858
 20
0.267669
  0
VERTEX
  8
PLAN_1
 62
     5
  6
CONTINUOUS
 10
0.535858
 20
0.259453
  0
SEQEND
  8
0
  0
POLYLINE
  8
PLAN_1
 62
     5
  6
CONTINUOUS
 66
     1
 40
0.003000
 41
0.003000
  0
VERTEX
  8
PLAN_1
 62
     5
  6
CONTINUOUS
 10
0.535858
 20
0.251236
  0
VERTEX
  8
PLAN_1
 62
     5
  6
CONTINUOUS
 10
0.535858
 20
0.242539
  0
SEQEND
  8
0
  0
POLYLINE
  8
PLAN_1
 62
     5
  6
CONTINUOUS
 66
     1
 40
0.003000
 41
0.003000
  0
VERTEX
  8
PLAN_1
 62
     5
  6
CONTINUOUS
 10
0.535858
 20
0.234323
  0
VERTEX
  8
PLAN_1
 62
     5
  6
CONTINUOUS
 10
0.535858
 20
0.226106
  0
SEQEND
  8
0
  0
POLYLINE
  8
PLAN_1
 62
     5
  6
CONTINUOUS
 66
     1
 40
0.003000
 41
0.003000
  0
VERTEX
  8
PLAN_1
 62
     5
  6
CONTINUOUS
 10
0.535858
 20
0.217894
  0
VERTEX
  8
PLAN_1
 62
     5
  6
CONTINUOUS
 10
0.535858
 20
0.209193
  0
SEQEND
  8
0
  0
POLYLINE
  8
PLAN_1
 62
     5
  6
CONTINUOUS
 66
     1
 40
0.003000
 41
0.003000
  0
VERTEX
  8
PLAN_1
 62
     5
  6
CONTINUOUS
 10
0.535858
 20
0.200980
  0
VERTEX
  8
PLAN_1
 62
     5
  6
CONTINUOUS
 10
0.535858
 20
0.192764
  0
SEQEND
  8
0
  0
POLYLINE
  8
PLAN_1
 62
     5
  6
CONTINUOUS
 66
     1
 40
0.003000
 41
0.003000
  0
VERTEX
  8
PLAN_1
 62
     5
  6
CONTINUOUS
 10
0.535858
 20
0.184547
  0
VERTEX
  8
PLAN_1
 62
     5
  6
CONTINUOUS
 10
0.535858
 20
0.176335
  0
SEQEND
  8
0
  0
POLYLINE
  8
PLAN_1
 62
     5
  6
CONTINUOUS
 66
     1
 40
0.003000
 41
0.003000
  0
VERTEX
  8
PLAN_1
 62
     5
  6
CONTINUOUS
 10
0.535858
 20
0.167634
  0
VERTEX
  8
PLAN_1
 62
     5
  6
CONTINUOUS
 10
0.535858
 20
0.159417
  0
SEQEND
  8
0
  0
POLYLINE
  8
PLAN_1
 62
     5
  6
CONTINUOUS
 66
     1
 40
0.003000
 41
0.003000
  0
VERTEX
  8
PLAN_1
 62
     5
  6
CONTINUOUS
 10
0.535858
 20
0.151205
  0
VERTEX
  8
PLAN_1
 62
     5
  6
CONTINUOUS
 10
0.535858
 20
0.142988
  0
SEQEND
  8
0
  0
POLYLINE
  8
PLAN_1
 62
     5
  6
CONTINUOUS
 66
     1
 40
0.003000
 41
0.003000
  0
VERTEX
  8
PLAN_1
 62
     5
  6
CONTINUOUS
 10
0.535378
 20
0.134772
  0
VERTEX
  8
PLAN_1
 62
     5
  6
CONTINUOUS
 10
0.526677
 20
0.134772
  0
SEQEND
  8
0
  0
POLYLINE
  8
PLAN_1
 62
     5
  6
CONTINUOUS
 66
     1
 40
0.003000
 41
0.003000
  0
VERTEX
  8
PLAN_1
 62
     5
  6
CONTINUOUS
 10
0.518465
 20
0.134772
  0
VERTEX
  8
PLAN_1
 62
     5
  6
CONTINUOUS
 10
0.510248
 20
0.134772
  0
SEQEND
  8
0
  0
POLYLINE
  8
PLAN_1
 62
     5
  6
CONTINUOUS
 66
     1
 40
0.003000
 41
0.003000
  0
VERTEX
  8
PLAN_1
 62
     5
  6
CONTINUOUS
 10
0.502031
 20
0.134772
  0
VERTEX
  8
PLAN_1
 62
     5
  6
CONTINUOUS
 10
0.493335
 20
0.134772
  0
SEQEND
  8
0
  0
POLYLINE
  8
PLAN_1
 62
     5
  6
CONTINUOUS
 66
     1
 40
0.003000
 41
0.003000
  0
VERTEX
  8
PLAN_1
 62
     5
  6
CONTINUOUS
 10
0.488984
 20
0.131390
  0
VERTEX
  8
PLAN_1
 62
     5
  6
CONTINUOUS
 10
0.488984
 20
0.122693
  0
SEQEND
  8
0
  0
POLYLINE
  8
PLAN_1
 62
     5
  6
CONTINUOUS
 66
     1
 40
0.003000
 41
0.003000
  0
VERTEX
  8
PLAN_1
 62
     5
  6
CONTINUOUS
 10
0.488984
 20
0.114476
  0
VERTEX
  8
PLAN_1
 62
     5
  6
CONTINUOUS
 10
0.488984
 20
0.106260
  0
SEQEND
  8
0
  0
POLYLINE
  8
PLAN_1
 62
     5
  6
CONTINUOUS
 66
     1
 40
0.003000
 41
0.003000
  0
VERTEX
  8
PLAN_1
 62
     5
  6
CONTINUOUS
 10
0.488984
 20
0.098047
  0
VERTEX
  8
PLAN_1
 62
     5
  6
CONTINUOUS
 10
0.488984
 20
0.089831
  0
SEQEND
  8
0
  0
POLYLINE
  8
PLAN_1
 62
     5
  6
CONTINUOUS
 66
     1
 40
0.003000
 41
0.003000
  0
VERTEX
  8
PLAN_1
 62
     5
  6
CONTINUOUS
 10
0.488984
 20
0.081134
  0
VERTEX
  8
PLAN_1
 62
     5
  6
CONTINUOUS
 10
0.488984
 20
0.072917
  0
SEQEND
  8
0
  0
POLYLINE
  8
PLAN_1
 62
     5
  6
CONTINUOUS
 66
     1
 40
0.003000
 41
0.003000
  0
VERTEX
  8
PLAN_1
 62
     5
  6
CONTINUOUS
 10
0.488984
 20
0.064701
  0
VERTEX
  8
PLAN_1
 62
     5
  6
CONTINUOUS
 10
0.488984
 20
0.056484
  0
SEQEND
  8
0
  0
POLYLINE
  8
PLAN_1
 62
     5
  6
CONTINUOUS
 66
     1
 40
0.003000
 41
0.003000
  0
VERTEX
  8
PLAN_1
 62
     5
  6
CONTINUOUS
 10
0.488984
 20
0.047787
  0
VERTEX
  8
PLAN_1
 62
     5
  6
CONTINUOUS
 10
0.488984
 20
0.039571
  0
SEQEND
  8
0
  0
POLYLINE
  8
PLAN_1
 62
     5
  6
CONTINUOUS
 66
     1
 40
0.003000
 41
0.003000
  0
VERTEX
  8
PLAN_1
 62
     5
  6
CONTINUOUS
 10
0.488984
 20
0.031358
  0
VERTEX
  8
PLAN_1
 62
     5
  6
CONTINUOUS
 10
0.488984
 20
0.023142
  0
SEQEND
  8
0
  0
POLYLINE
  8
PLAN_1
 62
     5
  6
CONTINUOUS
 66
     1
 40
0.003000
 41
0.003000
  0
VERTEX
  8
PLAN_1
 62
     5
  6
CONTINUOUS
 10
0.488984
 20
0.014445
  0
VERTEX
  8
PLAN_1
 62
     5
  6
CONTINUOUS
 10
0.488984
 20
0.006228
  0
SEQEND
  8
0
  0
POLYLINE
  8
PLAN_1
 62
     5
  6
CONTINUOUS
 66
     1
 40
0.003000
 41
0.003000
  0
VERTEX
  8
PLAN_1
 62
     5
  6
CONTINUOUS
 10
0.488984
 20
-0.001988
  0
VERTEX
  8
PLAN_1
 62
     5
  6
CONTINUOUS
 10
0.488984
 20
-0.010205
  0
SEQEND
  8
0
  0
POLYLINE
  8
PLAN_1
 62
     5
  6
CONTINUOUS
 66
     1
 40
0.003000
 41
0.003000
  0
VERTEX
  8
PLAN_1
 62
     5
  6
CONTINUOUS
 10
0.488984
 20
-0.018902
  0
VERTEX
  8
PLAN_1
 62
     5
  6
CONTINUOUS
 10
0.488984
 20
-0.027118
  0
SEQEND
  8
0
  0
POLYLINE
  8
PLAN_1
 62
     5
  6
CONTINUOUS
 66
     1
 40
0.003000
 41
0.003000
  0
VERTEX
  8
PLAN_1
 62
     5
  6
CONTINUOUS
 10
0.488984
 20
-0.035331
  0
VERTEX
  8
PLAN_1
 62
     5
  6
CONTINUOUS
 10
0.488984
 20
-0.043547
  0
SEQEND
  8
0
  0
POLYLINE
  8
PLAN_1
 62
     5
  6
CONTINUOUS
 66
     1
 40
0.003000
 41
0.003000
  0
VERTEX
  8
PLAN_1
 62
     5
  6
CONTINUOUS
 10
0.488984
 20
-0.051764
  0
VERTEX
  8
PLAN_1
 62
     5
  6
CONTINUOUS
 10
0.488984
 20
-0.060461
  0
SEQEND
  8
0
  0
POLYLINE
  8
PLAN_1
 62
     5
  6
CONTINUOUS
 66
     1
 40
0.003000
 41
0.003000
  0
VERTEX
  8
PLAN_1
 62
     5
  6
CONTINUOUS
 10
0.488984
 20
-0.068677
  0
VERTEX
  8
PLAN_1
 62
     5
  6
CONTINUOUS
 10
0.488984
 20
-0.076890
  0
SEQEND
  8
0
  0
POLYLINE
  8
PLAN_1
 62
     5
  6
CONTINUOUS
 66
     1
 40
0.003000
 41
0.003000
  0
VERTEX
  8
PLAN_1
 62
     5
  6
CONTINUOUS
 10
0.488984
 20
-0.085106
  0
VERTEX
  8
PLAN_1
 62
     5
  6
CONTINUOUS
 10
0.488984
 20
-0.093807
  0
SEQEND
  8
0
  0
POLYLINE
  8
PLAN_1
 62
     5
  6
CONTINUOUS
 66
     1
 40
0.003000
 41
0.003000
  0
VERTEX
  8
PLAN_1
 62
     5
  6
CONTINUOUS
 10
0.488984
 20
-0.102020
  0
VERTEX
  8
PLAN_1
 62
     5
  6
CONTINUOUS
 10
0.488984
 20
-0.110236
  0
SEQEND
  8
0
  0
POLYLINE
  8
PLAN_1
 62
     5
  6
CONTINUOUS
 66
     1
 40
0.003000
 41
0.003000
  0
VERTEX
  8
PLAN_1
 62
     5
  6
CONTINUOUS
 10
0.488984
 20
-0.118453
  0
VERTEX
  8
PLAN_1
 62
     5
  6
CONTINUOUS
 10
0.488984
 20
-0.127150
  0
SEQEND
  8
0
  0
POLYLINE
  8
PLAN_1
 62
     5
  6
CONTINUOUS
 66
     1
 40
0.003000
 41
0.003000
  0
VERTEX
  8
PLAN_1
 62
     5
  6
CONTINUOUS
 10
0.488984
 20
-0.135366
  0
VERTEX
  8
PLAN_1
 62
     5
  6
CONTINUOUS
 10
0.488984
 20
-0.143579
  0
SEQEND
  8
0
  0
POLYLINE
  8
PLAN_1
 62
     5
  6
CONTINUOUS
 66
     1
 40
0.003000
 41
0.003000
  0
VERTEX
  8
PLAN_1
 62
     5
  6
CONTINUOUS
 10
0.488984
 20
-0.151795
  0
VERTEX
  8
PLAN_1
 62
     5
  6
CONTINUOUS
 10
0.488984
 20
-0.160496
  0
SEQEND
  8
0
  0
POLYLINE
  8
PLAN_1
 62
     5
  6
CONTINUOUS
 66
     1
 40
0.003000
 41
0.003000
  0
VERTEX
  8
PLAN_1
 62
     5
  6
CONTINUOUS
 10
0.488984
 20
-0.168709
  0
VERTEX
  8
PLAN_1
 62
     5
  6
CONTINUOUS
 10
0.488984
 20
-0.176925
  0
SEQEND
  8
0
  0
POLYLINE
  8
PLAN_1
 62
     5
  6
CONTINUOUS
 66
     1
 40
0.003000
 41
0.003000
  0
VERTEX
  8
PLAN_1
 62
     5
  6
CONTINUOUS
 10
0.488984
 20
-0.185142
  0
VERTEX
  8
PLAN_1
 62
     5
  6
CONTINUOUS
 10
0.488984
 20
-0.189972
  0
SEQEND
  8
0
  0
POLYLINE
  8
PLAN_1
 62
     5
  6
CONTINUOUS
 66
     1
 40
0.003000
 41
0.003000
  0
VERTEX
  8
PLAN_1
 62
     5
  6
CONTINUOUS
 10
0.488984
 20
-0.185142
  0
VERTEX
  8
PLAN_1
 62
     5
  6
CONTINUOUS
 10
0.488984
 20
-0.189972
  0
SEQEND
  8
0
  0
POLYLINE
  8
PLAN_1
  6
CONTINUOUS
 66
     1
 40
0.008213
 41
0.008213
  0
VERTEX
  8
PLAN_1
  6
CONTINUOUS
 10
-0.657291
 20
0.647020
  0
VERTEX
  8
PLAN_1
  6
CONTINUOUS
 10
-0.657291
 20
0.866417
  0
VERTEX
  8
PLAN_1
  6
CONTINUOUS
 10
-1.073370
 20
0.866417
  0
SEQEND
  8
0
  0
POLYLINE
  8
PLAN_1
  6
CONTINUOUS
 66
     1
 40
0.008213
 41
0.008213
  0
VERTEX
  8
PLAN_1
  6
CONTINUOUS
 10
0.491886
 20
0.866417
  0
VERTEX
  8
PLAN_1
  6
CONTINUOUS
 10
0.098031
 20
0.866417
  0
VERTEX
  8
PLAN_1
  6
CONTINUOUS
 10
0.098031
 20
0.647020
  0
SEQEND
  8
0
  0
POLYLINE
  8
PLAN_1
  6
CONTINUOUS
 66
     1
 40
0.008213
 41
0.008213
  0
VERTEX
  8
PLAN_1
  6
CONTINUOUS
 10
-0.781969
 20
0.649437
  0
VERTEX
  8
PLAN_1
  6
CONTINUOUS
 10
-0.781969
 20
0.866417
  0
SEQEND
  8
0
  0
POLYLINE
  8
PLAN_1
  6
CONTINUOUS
 66
     1
 40
0.008213
 41
0.008213
  0
VERTEX
  8
PLAN_1
  6
CONTINUOUS
 10
0.204350
 20
0.649437
  0
VERTEX
  8
PLAN_1
  6
CONTINUOUS
 10
0.204350
 20
0.866417
  0
SEQEND
  8
0
  0
POLYLINE
  8
PLAN_1
  6
CONTINUOUS
 66
     1
 40
0.008213
 41
0.008213
  0
VERTEX
  8
PLAN_1
  6
CONTINUOUS
 10
-1.500083
 20
1.079531
  0
VERTEX
  8
PLAN_1
  6
CONTINUOUS
 10
-1.500083
 20
1.970650
  0
SEQEND
  8
0
  0
POLYLINE
  8
PLAN_1
  6
CONTINUOUS
 66
     1
 40
0.006764
 41
0.006764
  0
VERTEX
  8
PLAN_1
  6
CONTINUOUS
 10
-1.195150
 20
1.035071
  0
VERTEX
  8
PLAN_1
  6
CONTINUOUS
 10
-1.195150
 20
2.019941
  0
SEQEND
  8
0
  0
POLYLINE
  8
PLAN_1
  6
CONTINUOUS
 66
     1
 40
0.008213
 41
0.008213
  0
VERTEX
  8
PLAN_1
  6
CONTINUOUS
 10
-2.018130
 20
0.990614
  0
VERTEX
  8
PLAN_1
  6
CONTINUOUS
 10
-2.018130
 20
2.050870
  0
VERTEX
  8
PLAN_1
  6
CONTINUOUS
 10
-2.252992
 20
2.050870
  0
VERTEX
  8
PLAN_1
  6
CONTINUOUS
 10
-2.252992
 20
0.990614
  0
VERTEX
  8
PLAN_1
  6
CONTINUOUS
 10
-2.018130
 20
0.990614
  0
SEQEND
  8
0
  0
POLYLINE
  8
PLAN_1
  6
CONTINUOUS
 66
     1
 40
0.008213
 41
0.008213
  0
VERTEX
  8
PLAN_1
  6
CONTINUOUS
 10
-2.252992
 20
1.222091
  0
VERTEX
  8
PLAN_1
  6
CONTINUOUS
 10
-2.252992
 20
1.810209
  0
VERTEX
  8
PLAN_1
  6
CONTINUOUS
 10
-2.392650
 20
1.810209
  0
VERTEX
  8
PLAN_1
  6
CONTINUOUS
 10
-2.392650
 20
1.222091
  0
VERTEX
  8
PLAN_1
  6
CONTINUOUS
 10
-2.252992
 20
1.222091
  0
SEQEND
  8
0
  0
POLYLINE
  8
PLAN_1
  6
CONTINUOUS
 66
     1
 40
0.008213
 41
0.008213
  0
VERTEX
  8
PLAN_1
  6
CONTINUOUS
 10
-2.391685
 20
1.659917
  0
VERTEX
  8
PLAN_1
  6
CONTINUOUS
 10
-2.256858
 20
1.659917
  0
SEQEND
  8
0
  0
POLYLINE
  8
PLAN_1
  6
CONTINUOUS
 66
     1
 40
0.008213
 41
0.008213
  0
VERTEX
  8
PLAN_1
  6
CONTINUOUS
 10
-2.391685
 20
1.371902
  0
VERTEX
  8
PLAN_1
  6
CONTINUOUS
 10
-2.256858
 20
1.371902
  0
SEQEND
  8
0
  0
POLYLINE
  8
PLAN_1
  6
CONTINUOUS
 66
     1
 40
0.008213
 41
0.008213
  0
VERTEX
  8
PLAN_1
  6
CONTINUOUS
 10
-2.375736
 20
1.809728
  0
VERTEX
  8
PLAN_1
  6
CONTINUOUS
 10
-2.377185
 20
1.806343
  0
VERTEX
  8
PLAN_1
  6
CONTINUOUS
 10
-2.381051
 20
1.796677
  0
VERTEX
  8
PLAN_1
  6
CONTINUOUS
 10
-2.383469
 20
1.789913
  0
VERTEX
  8
PLAN_1
  6
CONTINUOUS
 10
-2.385886
 20
1.781697
  0
VERTEX
  8
PLAN_1
  6
CONTINUOUS
 10
-2.388303
 20
1.772516
  0
VERTEX
  8
PLAN_1
  6
CONTINUOUS
 10
-2.390236
 20
1.762366
  0
VERTEX
  8
PLAN_1
  6
CONTINUOUS
 10
-2.391685
 20
1.751252
  0
VERTEX
  8
PLAN_1
  6
CONTINUOUS
 10
-2.392169
 20
1.739654
  0
VERTEX
  8
PLAN_1
  6
CONTINUOUS
 10
-2.392169
 20
1.733374
  0
VERTEX
  8
PLAN_1
  6
CONTINUOUS
 10
-2.392169
 20
1.727091
  0
VERTEX
  8
PLAN_1
  6
CONTINUOUS
 10
-2.391685
 20
1.720807
  0
VERTEX
  8
PLAN_1
  6
CONTINUOUS
 10
-2.391201
 20
1.714528
  0
VERTEX
  8
PLAN_1
  6
CONTINUOUS
 10
-2.390236
 20
1.707760
  0
VERTEX
  8
PLAN_1
  6
CONTINUOUS
 10
-2.388783
 20
1.700996
  0
VERTEX
  8
PLAN_1
  6
CONTINUOUS
 10
-2.386850
 20
1.694228
  0
VERTEX
  8
PLAN_1
  6
CONTINUOUS
 10
-2.384917
 20
1.687465
  0
VERTEX
  8
PLAN_1
  6
CONTINUOUS
 10
-2.382504
 20
1.680217
  0
VERTEX
  8
PLAN_1
  6
CONTINUOUS
 10
-2.379602
 20
1.673449
  0
VERTEX
  8
PLAN_1
  6
CONTINUOUS
 10
-2.376220
 20
1.666685
  0
VERTEX
  8
PLAN_1
  6
CONTINUOUS
 10
-2.372354
 20
1.659433
  0
VERTEX
  8
PLAN_1
  6
CONTINUOUS
 10
-2.374287
 20
1.654118
  0
VERTEX
  8
PLAN_1
  6
CONTINUOUS
 10
-2.378638
 20
1.638654
  0
VERTEX
  8
PLAN_1
  6
CONTINUOUS
 10
-2.381051
 20
1.627539
  0
VERTEX
  8
PLAN_1
  6
CONTINUOUS
 10
-2.383953
 20
1.614008
  0
VERTEX
  8
PLAN_1
  6
CONTINUOUS
 10
-2.386370
 20
1.598063
  0
VERTEX
  8
PLAN_1
  6
CONTINUOUS
 10
-2.388783
 20
1.580181
  0
VERTEX
  8
PLAN_1
  6
CONTINUOUS
 10
-2.390717
 20
1.560370
  0
VERTEX
  8
PLAN_1
  6
CONTINUOUS
 10
-2.392169
 20
1.538622
  0
VERTEX
  8
PLAN_1
  6
CONTINUOUS
 10
-2.392169
 20
1.526539
  0
VERTEX
  8
PLAN_1
  6
CONTINUOUS
 10
-2.392650
 20
1.514941
  0
VERTEX
  8
PLAN_1
  6
CONTINUOUS
 10
-2.392169
 20
1.502378
  0
VERTEX
  8
PLAN_1
  6
CONTINUOUS
 10
-2.391685
 20
1.489331
  0
VERTEX
  8
PLAN_1
  6
CONTINUOUS
 10
-2.391201
 20
1.475799
  0
VERTEX
  8
PLAN_1
  6
CONTINUOUS
 10
-2.390236
 20
1.462268
  0
VERTEX
  8
PLAN_1
  6
CONTINUOUS
 10
-2.388783
 20
1.447772
  0
VERTEX
  8
PLAN_1
  6
CONTINUOUS
 10
-2.387335
 20
1.433272
  0
VERTEX
  8
PLAN_1
  6
CONTINUOUS
 10
-2.384917
 20
1.418291
  0
VERTEX
  8
PLAN_1
  6
CONTINUOUS
 10
-2.382504
 20
1.403311
  0
VERTEX
  8
PLAN_1
  6
CONTINUOUS
 10
-2.379602
 20
1.387846
  0
VERTEX
  8
PLAN_1
  6
CONTINUOUS
 10
-2.376220
 20
1.371417
  0
VERTEX
  8
PLAN_1
  6
CONTINUOUS
 10
-2.377669
 20
1.368516
  0
VERTEX
  8
PLAN_1
  6
CONTINUOUS
 10
-2.381535
 20
1.358850
  0
VERTEX
  8
PLAN_1
  6
CONTINUOUS
 10
-2.383953
 20
1.352087
  0
VERTEX
  8
PLAN_1
  6
CONTINUOUS
 10
-2.386370
 20
1.344354
  0
VERTEX
  8
PLAN_1
  6
CONTINUOUS
 10
-2.388783
 20
1.335173
  0
VERTEX
  8
PLAN_1
  6
CONTINUOUS
 10
-2.390717
 20
1.325508
  0
VERTEX
  8
PLAN_1
  6
CONTINUOUS
 10
-2.392169
 20
1.314394
  0
VERTEX
  8
PLAN_1
  6
CONTINUOUS
 10
-2.392650
 20
1.302795
  0
VERTEX
  8
PLAN_1
  6
CONTINUOUS
 10
-2.393134
 20
1.296996
  0
VERTEX
  8
PLAN_1
  6
CONTINUOUS
 10
-2.392650
 20
1.290713
  0
VERTEX
  8
PLAN_1
  6
CONTINUOUS
 10
-2.392169
 20
1.284429
  0
VERTEX
  8
PLAN_1
  6
CONTINUOUS
 10
-2.391685
 20
1.277665
  0
VERTEX
  8
PLAN_1
  6
CONTINUOUS
 10
-2.390717
 20
1.271382
  0
VERTEX
  8
PLAN_1
  6
CONTINUOUS
 10
-2.389268
 20
1.264618
  0
VERTEX
  8
PLAN_1
  6
CONTINUOUS
 10
-2.387335
 20
1.257850
  0
VERTEX
  8
PLAN_1
  6
CONTINUOUS
 10
-2.385402
 20
1.251087
  0
VERTEX
  8
PLAN_1
  6
CONTINUOUS
 10
-2.382984
 20
1.244323
  0
VERTEX
  8
PLAN_1
  6
CONTINUOUS
 10
-2.380087
 20
1.237555
  0
VERTEX
  8
PLAN_1
  6
CONTINUOUS
 10
-2.376705
 20
1.230307
  0
VERTEX
  8
PLAN_1
  6
CONTINUOUS
 10
-2.372839
 20
1.223539
  0
SEQEND
  8
0
  0
POLYLINE
  8
PLAN_1
  6
CONTINUOUS
 66
     1
 40
0.008213
 41
0.008213
  0
VERTEX
  8
PLAN_1
  6
CONTINUOUS
 10
-2.018130
 20
2.345169
  0
VERTEX
  8
PLAN_1
  6
CONTINUOUS
 10
-2.018130
 20
3.404945
  0
VERTEX
  8
PLAN_1
  6
CONTINUOUS
 10
-2.252992
 20
3.404945
  0
VERTEX
  8
PLAN_1
  6
CONTINUOUS
 10
-2.252992
 20
2.345169
  0
VERTEX
  8
PLAN_1
  6
CONTINUOUS
 10
-2.018130
 20
2.345169
  0
SEQEND
  8
0
  0
POLYLINE
  8
PLAN_1
  6
CONTINUOUS
 66
     1
 40
0.008213
 41
0.008213
  0
VERTEX
  8
PLAN_1
  6
CONTINUOUS
 10
-2.018130
 20
2.623524
  0
VERTEX
  8
PLAN_1
  6
CONTINUOUS
 10
-2.018130
 20
3.120307
  0
VERTEX
  8
PLAN_1
  6
CONTINUOUS
 10
-1.924862
 20
3.120307
  0
VERTEX
  8
PLAN_1
  6
CONTINUOUS
 10
-1.924862
 20
2.623524
  0
VERTEX
  8
PLAN_1
  6
CONTINUOUS
 10
-2.018130
 20
2.623524
  0
SEQEND
  8
0
  0
POLYLINE
  8
PLAN_1
  6
CONTINUOUS
 66
     1
 40
0.008213
 41
0.008213
  0
VERTEX
  8
PLAN_1
  6
CONTINUOUS
 10
-2.018130
 20
1.255917
  0
VERTEX
  8
PLAN_1
  6
CONTINUOUS
 10
-2.018130
 20
1.785563
  0
VERTEX
  8
PLAN_1
  6
CONTINUOUS
 10
-2.143776
 20
1.785563
  0
VERTEX
  8
PLAN_1
  6
CONTINUOUS
 10
-2.143776
 20
1.255917
  0
VERTEX
  8
PLAN_1
  6
CONTINUOUS
 10
-2.018130
 20
1.255917
  0
SEQEND
  8
0
  0
POLYLINE
  8
PLAN_1
  6
CONTINUOUS
 66
     1
 40
0.008213
 41
0.008213
  0
VERTEX
  8
PLAN_1
  6
CONTINUOUS
 10
-2.142811
 20
1.650252
  0
VERTEX
  8
PLAN_1
  6
CONTINUOUS
 10
-2.021512
 20
1.650252
  0
SEQEND
  8
0
  0
POLYLINE
  8
PLAN_1
  6
CONTINUOUS
 66
     1
 40
0.008213
 41
0.008213
  0
VERTEX
  8
PLAN_1
  6
CONTINUOUS
 10
-2.142811
 20
1.390748
  0
VERTEX
  8
PLAN_1
  6
CONTINUOUS
 10
-2.021512
 20
1.390748
  0
SEQEND
  8
0
  0
POLYLINE
  8
PLAN_1
  6
CONTINUOUS
 66
     1
 40
0.008213
 41
0.008213
  0
VERTEX
  8
PLAN_1
  6
CONTINUOUS
 10
-2.128795
 20
1.785083
  0
VERTEX
  8
PLAN_1
  6
CONTINUOUS
 10
-2.130244
 20
1.781697
  0
VERTEX
  8
PLAN_1
  6
CONTINUOUS
 10
-2.133626
 20
1.773000
  0
VERTEX
  8
PLAN_1
  6
CONTINUOUS
 10
-2.135559
 20
1.767201
  0
VERTEX
  8
PLAN_1
  6
CONTINUOUS
 10
-2.137976
 20
1.759953
  0
VERTEX
  8
PLAN_1
  6
CONTINUOUS
 10
-2.139909
 20
1.751736
  0
VERTEX
  8
PLAN_1
  6
CONTINUOUS
 10
-2.141358
 20
1.742555
  0
VERTEX
  8
PLAN_1
  6
CONTINUOUS
 10
-2.142811
 20
1.732406
  0
VERTEX
  8
PLAN_1
  6
CONTINUOUS
 10
-2.143776
 20
1.721776
  0
VERTEX
  8
PLAN_1
  6
CONTINUOUS
 10
-2.143291
 20
1.710661
  0
VERTEX
  8
PLAN_1
  6
CONTINUOUS
 10
-2.142327
 20
1.699063
  0
VERTEX
  8
PLAN_1
  6
CONTINUOUS
 10
-2.141358
 20
1.693264
  0
VERTEX
  8
PLAN_1
  6
CONTINUOUS
 10
-2.140394
 20
1.686980
  0
VERTEX
  8
PLAN_1
  6
CONTINUOUS
 10
-2.138945
 20
1.680697
  0
VERTEX
  8
PLAN_1
  6
CONTINUOUS
 10
-2.137012
 20
1.674898
  0
VERTEX
  8
PLAN_1
  6
CONTINUOUS
 10
-2.134594
 20
1.668618
  0
VERTEX
  8
PLAN_1
  6
CONTINUOUS
 10
-2.132177
 20
1.662335
  0
VERTEX
  8
PLAN_1
  6
CONTINUOUS
 10
-2.129280
 20
1.656051
  0
VERTEX
  8
PLAN_1
  6
CONTINUOUS
 10
-2.125894
 20
1.649772
  0
VERTEX
  8
PLAN_1
  6
CONTINUOUS
 10
-2.127346
 20
1.644937
  0
VERTEX
  8
PLAN_1
  6
CONTINUOUS
 10
-2.131213
 20
1.630921
  0
VERTEX
  8
PLAN_1
  6
CONTINUOUS
 10
-2.133626
 20
1.620776
  0
VERTEX
  8
PLAN_1
  6
CONTINUOUS
 10
-2.136043
 20
1.608693
  0
VERTEX
  8
PLAN_1
  6
CONTINUOUS
 10
-2.138461
 20
1.594197
  0
VERTEX
  8
PLAN_1
  6
CONTINUOUS
 10
-2.140394
 20
1.578248
  0
VERTEX
  8
PLAN_1
  6
CONTINUOUS
 10
-2.142327
 20
1.560370
  0
VERTEX
  8
PLAN_1
  6
CONTINUOUS
 10
-2.143291
 20
1.540555
  0
VERTEX
  8
PLAN_1
  6
CONTINUOUS
 10
-2.143776
 20
1.519291
  0
VERTEX
  8
PLAN_1
  6
CONTINUOUS
 10
-2.143291
 20
1.496579
  0
VERTEX
  8
PLAN_1
  6
CONTINUOUS
 10
-2.142327
 20
1.484496
  0
VERTEX
  8
PLAN_1
  6
CONTINUOUS
 10
-2.141843
 20
1.471933
  0
VERTEX
  8
PLAN_1
  6
CONTINUOUS
 10
-2.140394
 20
1.459370
  0
VERTEX
  8
PLAN_1
  6
CONTINUOUS
 10
-2.138945
 20
1.446319
  0
VERTEX
  8
PLAN_1
  6
CONTINUOUS
 10
-2.137012
 20
1.432791
  0
VERTEX
  8
PLAN_1
  6
CONTINUOUS
 10
-2.134594
 20
1.419260
  0
VERTEX
  8
PLAN_1
  6
CONTINUOUS
 10
-2.132177
 20
1.404760
  0
VERTEX
  8
PLAN_1
  6
CONTINUOUS
 10
-2.128795
 20
1.390748
  0
VERTEX
  8
PLAN_1
  6
CONTINUOUS
 10
-2.130244
 20
1.387846
  0
VERTEX
  8
PLAN_1
  6
CONTINUOUS
 10
-2.134110
 20
1.379150
  0
VERTEX
  8
PLAN_1
  6
CONTINUOUS
 10
-2.136043
 20
1.372866
  0
VERTEX
  8
PLAN_1
  6
CONTINUOUS
 10
-2.138461
 20
1.366102
  0
VERTEX
  8
PLAN_1
  6
CONTINUOUS
 10
-2.140394
 20
1.357886
  0
VERTEX
  8
PLAN_1
  6
CONTINUOUS
 10
-2.141843
 20
1.348705
  0
VERTEX
  8
PLAN_1
  6
CONTINUOUS
 10
-2.143291
 20
1.339039
  0
VERTEX
  8
PLAN_1
  6
CONTINUOUS
 10
-2.144260
 20
1.328890
  0
VERTEX
  8
PLAN_1
  6
CONTINUOUS
 10
-2.143776
 20
1.317776
  0
VERTEX
  8
PLAN_1
  6
CONTINUOUS
 10
-2.142811
 20
1.306177
  0
VERTEX
  8
PLAN_1
  6
CONTINUOUS
 10
-2.141843
 20
1.300378
  0
VERTEX
  8
PLAN_1
  6
CONTINUOUS
 10
-2.140878
 20
1.294094
  0
VERTEX
  8
PLAN_1
  6
CONTINUOUS
 10
-2.139425
 20
1.288295
  0
VERTEX
  8
PLAN_1
  6
CONTINUOUS
 10
-2.137492
 20
1.282016
  0
VERTEX
  8
PLAN_1
  6
CONTINUOUS
 10
-2.135079
 20
1.275732
  0
VERTEX
  8
PLAN_1
  6
CONTINUOUS
 10
-2.132661
 20
1.269933
  0
VERTEX
  8
PLAN_1
  6
CONTINUOUS
 10
-2.129760
 20
1.263650
  0
VERTEX
  8
PLAN_1
  6
CONTINUOUS
 10
-2.126378
 20
1.257370
  0
SEQEND
  8
0
  0
POLYLINE
  8
PLAN_1
  6
CONTINUOUS
 66
     1
 40
0.008213
 41
0.008213
  0
VERTEX
  8
PLAN_1
  6
CONTINUOUS
 10
-1.900701
 20
1.972583
  0
VERTEX
  8
PLAN_1
  6
CONTINUOUS
 10
-2.019094
 20
1.972583
  0
VERTEX
  8
PLAN_1
  6
CONTINUOUS
 10
-2.019094
 20
1.073732
  0
VERTEX
  8
PLAN_1
  6
CONTINUOUS
 10
-1.498634
 20
1.073732
  0
VERTEX
  8
PLAN_1
  6
CONTINUOUS
 10
-1.195150
 20
1.035071
  0
VERTEX
  8
PLAN_1
  6
CONTINUOUS
 10
-1.069988
 20
1.035071
  0
VERTEX
  8
PLAN_1
  6
CONTINUOUS
 10
-1.069988
 20
2.019941
  0
VERTEX
  8
PLAN_1
  6
CONTINUOUS
 10
-1.195150
 20
2.019941
  0
VERTEX
  8
PLAN_1
  6
CONTINUOUS
 10
-1.498634
 20
1.972583
  0
VERTEX
  8
PLAN_1
  6
CONTINUOUS
 10
-1.616547
 20
1.972583
  0
SEQEND
  8
0
  0
POLYLINE
  8
PLAN_1
  6
CONTINUOUS
 66
     1
 40
0.008213
 41
0.008213
  0
VERTEX
  8
PLAN_1
  6
CONTINUOUS
 10
-1.616547
 20
2.580031
  0
VERTEX
  8
PLAN_1
  6
CONTINUOUS
 10
-1.592866
 20
2.580031
  0
VERTEX
  8
PLAN_1
  6
CONTINUOUS
 10
-1.592866
 20
3.147854
  0
VERTEX
  8
PLAN_1
  6
CONTINUOUS
 10
-1.924378
 20
3.147854
  0
VERTEX
  8
PLAN_1
  6
CONTINUOUS
 10
-1.924378
 20
2.580031
  0
VERTEX
  8
PLAN_1
  6
CONTINUOUS
 10
-1.900701
 20
2.580031
  0
SEQEND
  8
0
  0
POLYLINE
  8
PLAN_1
  6
CONTINUOUS
 66
     1
 40
0.008213
 41
0.008213
  0
VERTEX
  8
PLAN_1
  6
CONTINUOUS
 10
-1.900701
 20
2.719209
  0
VERTEX
  8
PLAN_1
  6
CONTINUOUS
 10
-1.900701
 20
2.580031
  0
SEQEND
  8
0
  0
POLYLINE
  8
PLAN_1
  6
CONTINUOUS
 66
     1
 40
0.008213
 41
0.008213
  0
VERTEX
  8
PLAN_1
  6
CONTINUOUS
 10
-1.900701
 20
1.972583
  0
VERTEX
  8
PLAN_1
  6
CONTINUOUS
 10
-1.900701
 20
2.580031
  0
SEQEND
  8
0
  0
POLYLINE
  8
PLAN_1
  6
CONTINUOUS
 66
     1
 40
0.008213
 41
0.008213
  0
VERTEX
  8
PLAN_1
  6
CONTINUOUS
 10
-1.900701
 20
1.972583
  0
VERTEX
  8
PLAN_1
  6
CONTINUOUS
 10
-1.900701
 20
1.792811
  0
SEQEND
  8
0
  0
POLYLINE
  8
PLAN_1
  6
CONTINUOUS
 66
     1
 40
0.008213
 41
0.008213
  0
VERTEX
  8
PLAN_1
  6
CONTINUOUS
 10
-1.616547
 20
2.580031
  0
VERTEX
  8
PLAN_1
  6
CONTINUOUS
 10
-1.616547
 20
2.719209
  0
SEQEND
  8
0
  0
POLYLINE
  8
PLAN_1
  6
CONTINUOUS
 66
     1
 40
0.008213
 41
0.008213
  0
VERTEX
  8
PLAN_1
  6
CONTINUOUS
 10
-1.616547
 20
1.972583
  0
VERTEX
  8
PLAN_1
  6
CONTINUOUS
 10
-1.616547
 20
2.580031
  0
SEQEND
  8
0
  0
POLYLINE
  8
PLAN_1
  6
CONTINUOUS
 66
     1
 40
0.008213
 41
0.008213
  0
VERTEX
  8
PLAN_1
  6
CONTINUOUS
 10
-1.616547
 20
1.792811
  0
VERTEX
  8
PLAN_1
  6
CONTINUOUS
 10
-1.616547
 20
1.972583
  0
SEQEND
  8
0
  0
POLYLINE
  8
PLAN_1
  6
CONTINUOUS
 66
     1
 40
0.008213
 41
0.008213
  0
VERTEX
  8
PLAN_1
  6
CONTINUOUS
 10
-2.143776
 20
1.369000
  0
VERTEX
  8
PLAN_1
  6
CONTINUOUS
 10
-2.143776
 20
1.669098
  0
VERTEX
  8
PLAN_1
  6
CONTINUOUS
 10
-2.202248
 20
1.669098
  0
VERTEX
  8
PLAN_1
  6
CONTINUOUS
 10
-2.202248
 20
1.369000
  0
VERTEX
  8
PLAN_1
  6
CONTINUOUS
 10
-2.143776
 20
1.369000
  0
SEQEND
  8
0
  0
POLYLINE
  8
PLAN_1
  6
CONTINUOUS
 66
     1
 40
0.008213
 41
0.008213
  0
VERTEX
  8
PLAN_1
  6
CONTINUOUS
 10
-2.202248
 20
1.668134
  0
VERTEX
  8
PLAN_1
  6
CONTINUOUS
 10
-2.212398
 20
1.657984
  0
VERTEX
  8
PLAN_1
  6
CONTINUOUS
 10
-2.212398
 20
1.379150
  0
VERTEX
  8
PLAN_1
  6
CONTINUOUS
 10
-2.202248
 20
1.369000
  0
SEQEND
  8
0
  0
POLYLINE
  8
PLAN_1
  6
CONTINUOUS
 66
     1
 40
0.008213
 41
0.008213
  0
VERTEX
  8
PLAN_1
  6
CONTINUOUS
 10
-2.252992
 20
2.576165
  0
VERTEX
  8
PLAN_1
  6
CONTINUOUS
 10
-2.252992
 20
3.164768
  0
VERTEX
  8
PLAN_1
  6
CONTINUOUS
 10
-2.392650
 20
3.164768
  0
VERTEX
  8
PLAN_1
  6
CONTINUOUS
 10
-2.392650
 20
2.576165
  0
VERTEX
  8
PLAN_1
  6
CONTINUOUS
 10
-2.252992
 20
2.576165
  0
SEQEND
  8
0
  0
POLYLINE
  8
PLAN_1
  6
CONTINUOUS
 66
     1
 40
0.008213
 41
0.008213
  0
VERTEX
  8
PLAN_1
  6
CONTINUOUS
 10
-2.391685
 20
3.014476
  0
VERTEX
  8
PLAN_1
  6
CONTINUOUS
 10
-2.256858
 20
3.014476
  0
SEQEND
  8
0
  0
POLYLINE
  8
PLAN_1
  6
CONTINUOUS
 66
     1
 40
0.008213
 41
0.008213
  0
VERTEX
  8
PLAN_1
  6
CONTINUOUS
 10
-2.391685
 20
2.725972
  0
VERTEX
  8
PLAN_1
  6
CONTINUOUS
 10
-2.256858
 20
2.725972
  0
SEQEND
  8
0
  0
POLYLINE
  8
PLAN_1
  6
CONTINUOUS
 66
     1
 40
0.008213
 41
0.008213
  0
VERTEX
  8
PLAN_1
  6
CONTINUOUS
 10
-2.375736
 20
3.164283
  0
VERTEX
  8
PLAN_1
  6
CONTINUOUS
 10
-2.377185
 20
3.160902
  0
VERTEX
  8
PLAN_1
  6
CONTINUOUS
 10
-2.381051
 20
3.151236
  0
VERTEX
  8
PLAN_1
  6
CONTINUOUS
 10
-2.383469
 20
3.144469
  0
VERTEX
  8
PLAN_1
  6
CONTINUOUS
 10
-2.385886
 20
3.136256
  0
VERTEX
  8
PLAN_1
  6
CONTINUOUS
 10
-2.388303
 20
3.127075
  0
VERTEX
  8
PLAN_1
  6
CONTINUOUS
 10
-2.390236
 20
3.116925
  0
VERTEX
  8
PLAN_1
  6
CONTINUOUS
 10
-2.391685
 20
3.105811
  0
VERTEX
  8
PLAN_1
  6
CONTINUOUS
 10
-2.392169
 20
3.094213
  0
VERTEX
  8
PLAN_1
  6
CONTINUOUS
 10
-2.392169
 20
3.087929
  0
VERTEX
  8
PLAN_1
  6
CONTINUOUS
 10
-2.392169
 20
3.081646
  0
VERTEX
  8
PLAN_1
  6
CONTINUOUS
 10
-2.391685
 20
3.075366
  0
VERTEX
  8
PLAN_1
  6
CONTINUOUS
 10
-2.391201
 20
3.068598
  0
VERTEX
  8
PLAN_1
  6
CONTINUOUS
 10
-2.390236
 20
3.061835
  0
VERTEX
  8
PLAN_1
  6
CONTINUOUS
 10
-2.388783
 20
3.055551
  0
VERTEX
  8
PLAN_1
  6
CONTINUOUS
 10
-2.386850
 20
3.048303
  0
VERTEX
  8
PLAN_1
  6
CONTINUOUS
 10
-2.384917
 20
3.041539
  0
VERTEX
  8
PLAN_1
  6
CONTINUOUS
 10
-2.382504
 20
3.034772
  0
VERTEX
  8
PLAN_1
  6
CONTINUOUS
 10
-2.379602
 20
3.028008
  0
VERTEX
  8
PLAN_1
  6
CONTINUOUS
 10
-2.376220
 20
3.020756
  0
VERTEX
  8
PLAN_1
  6
CONTINUOUS
 10
-2.372354
 20
3.013992
  0
VERTEX
  8
PLAN_1
  6
CONTINUOUS
 10
-2.374287
 20
3.008677
  0
VERTEX
  8
PLAN_1
  6
CONTINUOUS
 10
-2.378638
 20
2.993213
  0
VERTEX
  8
PLAN_1
  6
CONTINUOUS
 10
-2.381051
 20
2.981614
  0
VERTEX
  8
PLAN_1
  6
CONTINUOUS
 10
-2.383953
 20
2.968083
  0
VERTEX
  8
PLAN_1
  6
CONTINUOUS
 10
-2.386370
 20
2.952618
  0
VERTEX
  8
PLAN_1
  6
CONTINUOUS
 10
-2.388783
 20
2.934740
  0
VERTEX
  8
PLAN_1
  6
CONTINUOUS
 10
-2.390717
 20
2.914441
  0
VERTEX
  8
PLAN_1
  6
CONTINUOUS
 10
-2.392169
 20
2.892697
  0
VERTEX
  8
PLAN_1
  6
CONTINUOUS
 10
-2.392169
 20
2.881098
  0
VERTEX
  8
PLAN_1
  6
CONTINUOUS
 10
-2.392650
 20
2.869016
  0
VERTEX
  8
PLAN_1
  6
CONTINUOUS
 10
-2.392169
 20
2.856453
  0
VERTEX
  8
PLAN_1
  6
CONTINUOUS
 10
-2.391685
 20
2.843406
  0
VERTEX
  8
PLAN_1
  6
CONTINUOUS
 10
-2.391201
 20
2.830354
  0
VERTEX
  8
PLAN_1
  6
CONTINUOUS
 10
-2.390236
 20
2.816343
  0
VERTEX
  8
PLAN_1
  6
CONTINUOUS
 10
-2.388783
 20
2.802327
  0
VERTEX
  8
PLAN_1
  6
CONTINUOUS
 10
-2.387335
 20
2.787831
  0
VERTEX
  8
PLAN_1
  6
CONTINUOUS
 10
-2.384917
 20
2.772850
  0
VERTEX
  8
PLAN_1
  6
CONTINUOUS
 10
-2.382504
 20
2.757386
  0
VERTEX
  8
PLAN_1
  6
CONTINUOUS
 10
-2.379602
 20
2.741921
  0
VERTEX
  8
PLAN_1
  6
CONTINUOUS
 10
-2.376220
 20
2.725972
  0
VERTEX
  8
PLAN_1
  6
CONTINUOUS
 10
-2.377669
 20
2.722591
  0
VERTEX
  8
PLAN_1
  6
CONTINUOUS
 10
-2.381535
 20
2.713409
  0
VERTEX
  8
PLAN_1
  6
CONTINUOUS
 10
-2.383953
 20
2.706642
  0
VERTEX
  8
PLAN_1
  6
CONTINUOUS
 10
-2.386370
 20
2.698429
  0
VERTEX
  8
PLAN_1
  6
CONTINUOUS
 10
-2.388783
 20
2.689728
  0
VERTEX
  8
PLAN_1
  6
CONTINUOUS
 10
-2.390717
 20
2.679583
  0
VERTEX
  8
PLAN_1
  6
CONTINUOUS
 10
-2.392169
 20
2.668949
  0
VERTEX
  8
PLAN_1
  6
CONTINUOUS
 10
-2.392650
 20
2.657350
  0
VERTEX
  8
PLAN_1
  6
CONTINUOUS
 10
-2.393134
 20
2.651071
  0
VERTEX
  8
PLAN_1
  6
CONTINUOUS
 10
-2.392650
 20
2.645272
  0
VERTEX
  8
PLAN_1
  6
CONTINUOUS
 10
-2.392169
 20
2.638504
  0
VERTEX
  8
PLAN_1
  6
CONTINUOUS
 10
-2.391685
 20
2.632224
  0
VERTEX
  8
PLAN_1
  6
CONTINUOUS
 10
-2.390717
 20
2.625457
  0
VERTEX
  8
PLAN_1
  6
CONTINUOUS
 10
-2.389268
 20
2.619173
  0
VERTEX
  8
PLAN_1
  6
CONTINUOUS
 10
-2.387335
 20
2.612409
  0
VERTEX
  8
PLAN_1
  6
CONTINUOUS
 10
-2.385402
 20
2.605642
  0
VERTEX
  8
PLAN_1
  6
CONTINUOUS
 10
-2.382984
 20
2.598394
  0
VERTEX
  8
PLAN_1
  6
CONTINUOUS
 10
-2.380087
 20
2.591630
  0
VERTEX
  8
PLAN_1
  6
CONTINUOUS
 10
-2.376705
 20
2.584862
  0
VERTEX
  8
PLAN_1
  6
CONTINUOUS
 10
-2.372839
 20
2.578098
  0
SEQEND
  8
0
  0
POLYLINE
  8
PLAN_1
  6
CONTINUOUS
 66
     1
 40
0.008213
 41
0.008213
  0
VERTEX
  8
PLAN_1
  6
CONTINUOUS
 10
-1.493799
 20
2.672815
  0
VERTEX
  8
PLAN_1
  6
CONTINUOUS
 10
-1.493799
 20
3.084063
  0
VERTEX
  8
PLAN_1
  6
CONTINUOUS
 10
-1.590933
 20
3.084063
  0
VERTEX
  8
PLAN_1
  6
CONTINUOUS
 10
-1.590933
 20
2.672815
  0
VERTEX
  8
PLAN_1
  6
CONTINUOUS
 10
-1.493799
 20
2.672815
  0
SEQEND
  8
0
  0
POLYLINE
  8
PLAN_1
  6
CONTINUOUS
 66
     1
 40
0.008213
 41
0.008213
  0
VERTEX
  8
PLAN_1
  6
CONTINUOUS
 10
-1.590933
 20
2.977264
  0
VERTEX
  8
PLAN_1
  6
CONTINUOUS
 10
-1.493799
 20
2.977264
  0
SEQEND
  8
0
  0
POLYLINE
  8
PLAN_1
  6
CONTINUOUS
 66
     1
 40
0.008213
 41
0.008213
  0
VERTEX
  8
PLAN_1
  6
CONTINUOUS
 10
-1.590933
 20
2.780583
  0
VERTEX
  8
PLAN_1
  6
CONTINUOUS
 10
-1.493799
 20
2.780583
  0
SEQEND
  8
0
  0
POLYLINE
  8
PLAN_1
  6
CONTINUOUS
 66
     1
 40
0.008213
 41
0.008213
  0
VERTEX
  8
PLAN_1
  6
CONTINUOUS
 10
-1.505398
 20
2.673783
  0
VERTEX
  8
PLAN_1
  6
CONTINUOUS
 10
-1.504433
 20
2.676197
  0
VERTEX
  8
PLAN_1
  6
CONTINUOUS
 10
-1.502016
 20
2.682965
  0
VERTEX
  8
PLAN_1
  6
CONTINUOUS
 10
-1.500567
 20
2.687795
  0
VERTEX
  8
PLAN_1
  6
CONTINUOUS
 10
-1.498634
 20
2.693594
  0
VERTEX
  8
PLAN_1
  6
CONTINUOUS
 10
-1.497185
 20
2.699878
  0
VERTEX
  8
PLAN_1
  6
CONTINUOUS
 10
-1.495732
 20
2.707126
  0
VERTEX
  8
PLAN_1
  6
CONTINUOUS
 10
-1.494768
 20
2.714858
  0
VERTEX
  8
PLAN_1
  6
CONTINUOUS
 10
-1.494283
 20
2.723559
  0
VERTEX
  8
PLAN_1
  6
CONTINUOUS
 10
-1.494283
 20
2.732256
  0
VERTEX
  8
PLAN_1
  6
CONTINUOUS
 10
-1.494768
 20
2.741437
  0
VERTEX
  8
PLAN_1
  6
CONTINUOUS
 10
-1.495732
 20
2.750618
  0
VERTEX
  8
PLAN_1
  6
CONTINUOUS
 10
-1.498150
 20
2.760768
  0
VERTEX
  8
PLAN_1
  6
CONTINUOUS
 10
-1.499598
 20
2.765598
  0
VERTEX
  8
PLAN_1
  6
CONTINUOUS
 10
-1.501531
 20
2.770433
  0
VERTEX
  8
PLAN_1
  6
CONTINUOUS
 10
-1.503465
 20
2.775264
  0
VERTEX
  8
PLAN_1
  6
CONTINUOUS
 10
-1.505398
 20
2.780098
  0
SEQEND
  8
0
  0
POLYLINE
  8
PLAN_1
  6
CONTINUOUS
 66
     1
 40
0.008213
 41
0.008213
  0
VERTEX
  8
PLAN_1
  6
CONTINUOUS
 10
-1.504433
 20
2.977264
  0
VERTEX
  8
PLAN_1
  6
CONTINUOUS
 10
-1.503465
 20
2.979681
  0
VERTEX
  8
PLAN_1
  6
CONTINUOUS
 10
-1.501051
 20
2.986445
  0
VERTEX
  8
PLAN_1
  6
CONTINUOUS
 10
-1.499118
 20
2.991280
  0
VERTEX
  8
PLAN_1
  6
CONTINUOUS
 10
-1.497665
 20
2.997079
  0
VERTEX
  8
PLAN_1
  6
CONTINUOUS
 10
-1.496217
 20
3.003843
  0
VERTEX
  8
PLAN_1
  6
CONTINUOUS
 10
-1.494768
 20
3.011094
  0
VERTEX
  8
PLAN_1
  6
CONTINUOUS
 10
-1.493799
 20
3.018823
  0
VERTEX
  8
PLAN_1
  6
CONTINUOUS
 10
-1.493319
 20
3.027039
  0
VERTEX
  8
PLAN_1
  6
CONTINUOUS
 10
-1.492835
 20
3.035740
  0
VERTEX
  8
PLAN_1
  6
CONTINUOUS
 10
-1.493799
 20
3.044921
  0
VERTEX
  8
PLAN_1
  6
CONTINUOUS
 10
-1.494768
 20
3.054587
  0
VERTEX
  8
PLAN_1
  6
CONTINUOUS
 10
-1.497185
 20
3.064252
  0
VERTEX
  8
PLAN_1
  6
CONTINUOUS
 10
-1.498634
 20
3.069083
  0
VERTEX
  8
PLAN_1
  6
CONTINUOUS
 10
-1.500083
 20
3.073917
  0
VERTEX
  8
PLAN_1
  6
CONTINUOUS
 10
-1.502016
 20
3.078748
  0
VERTEX
  8
PLAN_1
  6
CONTINUOUS
 10
-1.504433
 20
3.084063
  0
SEQEND
  8
0
  0
POLYLINE
  8
PLAN_1
  6
CONTINUOUS
 66
     1
 40
0.008213
 41
0.008213
  0
VERTEX
  8
PLAN_1
  6
CONTINUOUS
 10
-1.504917
 20
2.780098
  0
VERTEX
  8
PLAN_1
  6
CONTINUOUS
 10
-1.503949
 20
2.784449
  0
VERTEX
  8
PLAN_1
  6
CONTINUOUS
 10
-1.501531
 20
2.796528
  0
VERTEX
  8
PLAN_1
  6
CONTINUOUS
 10
-1.499598
 20
2.805228
  0
VERTEX
  8
PLAN_1
  6
CONTINUOUS
 10
-1.498150
 20
2.815374
  0
VERTEX
  8
PLAN_1
  6
CONTINUOUS
 10
-1.496701
 20
2.826972
  0
VERTEX
  8
PLAN_1
  6
CONTINUOUS
 10
-1.495252
 20
2.840020
  0
VERTEX
  8
PLAN_1
  6
CONTINUOUS
 10
-1.494283
 20
2.854035
  0
VERTEX
  8
PLAN_1
  6
CONTINUOUS
 10
-1.493799
 20
2.869500
  0
VERTEX
  8
PLAN_1
  6
CONTINUOUS
 10
-1.493799
 20
2.885929
  0
VERTEX
  8
PLAN_1
  6
CONTINUOUS
 10
-1.494283
 20
2.902843
  0
VERTEX
  8
PLAN_1
  6
CONTINUOUS
 10
-1.495732
 20
2.921209
  0
VERTEX
  8
PLAN_1
  6
CONTINUOUS
 10
-1.498150
 20
2.939571
  0
VERTEX
  8
PLAN_1
  6
CONTINUOUS
 10
-1.499598
 20
2.949236
  0
VERTEX
  8
PLAN_1
  6
CONTINUOUS
 10
-1.501051
 20
2.958902
  0
VERTEX
  8
PLAN_1
  6
CONTINUOUS
 10
-1.502984
 20
2.968567
  0
VERTEX
  8
PLAN_1
  6
CONTINUOUS
 10
-1.505398
 20
2.978717
  0
SEQEND
  8
0
  0
POLYLINE
  8
PLAN_1
 62
     2
  6
CONTINUOUS
 66
     1
 40
0.004346
 41
0.004346
  0
VERTEX
  8
PLAN_1
 62
     2
  6
CONTINUOUS
 10
-2.103665
 20
3.768350
  0
VERTEX
  8
PLAN_1
 62
     2
  6
CONTINUOUS
 10
0.506382
 20
3.768350
  0
SEQEND
  8
0
  0
SOLID
  8
PLAN_1
 62
     2
 10
0.535858
 20
3.768350
 11
0.476421
 21
3.783815
 12
0.535858
 22
3.768350
 13
0.476421
 23
3.752402
  0
POLYLINE
  8
PLAN_1
 62
     2
  6
CONTINUOUS
 66
     1
 40
0.003000
 41
0.003000
  0
VERTEX
  8
PLAN_1
 62
     2
  6
CONTINUOUS
 10
0.535858
 20
3.768350
  0
VERTEX
  8
PLAN_1
 62
     2
  6
CONTINUOUS
 10
0.476421
 20
3.783815
  0
VERTEX
  8
PLAN_1
 62
     2
  6
CONTINUOUS
 10
0.476421
 20
3.752402
  0
VERTEX
  8
PLAN_1
 62
     2
  6
CONTINUOUS
 10
0.535858
 20
3.768350
  0
SEQEND
  8
0
  0
SOLID
  8
PLAN_1
 62
     2
 10
-2.133146
 20
3.768350
 11
-2.074189
 21
3.783815
 12
-2.133146
 22
3.768350
 13
-2.074189
 23
3.752402
  0
POLYLINE
  8
PLAN_1
 62
     2
  6
CONTINUOUS
 66
     1
 40
0.003000
 41
0.003000
  0
VERTEX
  8
PLAN_1
 62
     2
  6
CONTINUOUS
 10
-2.133146
 20
3.768350
  0
VERTEX
  8
PLAN_1
 62
     2
  6
CONTINUOUS
 10
-2.074189
 20
3.783815
  0
VERTEX
  8
PLAN_1
 62
     2
  6
CONTINUOUS
 10
-2.074189
 20
3.752402
  0
VERTEX
  8
PLAN_1
 62
     2
  6
CONTINUOUS
 10
-2.133146
 20
3.768350
  0
SEQEND
  8
0
  0
POLYLINE
  8
PLAN_1
 62
     2
  6
CONTINUOUS
 66
     1
 40
0.003000
 41
0.003000
  0
VERTEX
  8
PLAN_1
 62
     2
  6
CONTINUOUS
 10
-0.817248
 20
3.845669
  0
VERTEX
  8
PLAN_1
 62
     2
  6
CONTINUOUS
 10
-0.817732
 20
3.848087
  0
VERTEX
  8
PLAN_1
 62
     2
  6
CONTINUOUS
 10
-0.818697
 20
3.850020
  0
VERTEX
  8
PLAN_1
 62
     2
  6
CONTINUOUS
 10
-0.819665
 20
3.851953
  0
VERTEX
  8
PLAN_1
 62
     2
  6
CONTINUOUS
 10
-0.821114
 20
3.853402
  0
VERTEX
  8
PLAN_1
 62
     2
  6
CONTINUOUS
 10
-0.822563
 20
3.854850
  0
VERTEX
  8
PLAN_1
 62
     2
  6
CONTINUOUS
 10
-0.824496
 20
3.855819
  0
VERTEX
  8
PLAN_1
 62
     2
  6
CONTINUOUS
 10
-0.826913
 20
3.856783
  0
VERTEX
  8
PLAN_1
 62
     2
  6
CONTINUOUS
 10
-0.829811
 20
3.856783
  0
VERTEX
  8
PLAN_1
 62
     2
  6
CONTINUOUS
 10
-0.832228
 20
3.856783
  0
VERTEX
  8
PLAN_1
 62
     2
  6
CONTINUOUS
 10
-0.834646
 20
3.855819
  0
VERTEX
  8
PLAN_1
 62
     2
  6
CONTINUOUS
 10
-0.836579
 20
3.854850
  0
VERTEX
  8
PLAN_1
 62
     2
  6
CONTINUOUS
 10
-0.838512
 20
3.853402
  0
VERTEX
  8
PLAN_1
 62
     2
  6
CONTINUOUS
 10
-0.839961
 20
3.851953
  0
VERTEX
  8
PLAN_1
 62
     2
  6
CONTINUOUS
 10
-0.841409
 20
3.850020
  0
VERTEX
  8
PLAN_1
 62
     2
  6
CONTINUOUS
 10
-0.842858
 20
3.848087
  0
VERTEX
  8
PLAN_1
 62
     2
  6
CONTINUOUS
 10
-0.843827
 20
3.846154
  0
VERTEX
  8
PLAN_1
 62
     2
  6
CONTINUOUS
 10
-0.845276
 20
3.841803
  0
VERTEX
  8
PLAN_1
 62
     2
  6
CONTINUOUS
 10
-0.846244
 20
3.836972
  0
VERTEX
  8
PLAN_1
 62
     2
  6
CONTINUOUS
 10
-0.847209
 20
3.833106
  0
VERTEX
  8
PLAN_1
 62
     2
  6
CONTINUOUS
 10
-0.847209
 20
3.829724
  0
VERTEX
  8
PLAN_1
 62
     2
  6
CONTINUOUS
 10
-0.846724
 20
3.829724
  0
VERTEX
  8
PLAN_1
 62
     2
  6
CONTINUOUS
 10
-0.845760
 20
3.831173
  0
VERTEX
  8
PLAN_1
 62
     2
  6
CONTINUOUS
 10
-0.844791
 20
3.832622
  0
VERTEX
  8
PLAN_1
 62
     2
  6
CONTINUOUS
 10
-0.842858
 20
3.834071
  0
VERTEX
  8
PLAN_1
 62
     2
  6
CONTINUOUS
 10
-0.840925
 20
3.835520
  0
VERTEX
  8
PLAN_1
 62
     2
  6
CONTINUOUS
 10
-0.838992
 20
3.836488
  0
VERTEX
  8
PLAN_1
 62
     2
  6
CONTINUOUS
 10
-0.836094
 20
3.837453
  0
VERTEX
  8
PLAN_1
 62
     2
  6
CONTINUOUS
 10
-0.833193
 20
3.838421
  0
VERTEX
  8
PLAN_1
 62
     2
  6
CONTINUOUS
 10
-0.829327
 20
3.838421
  0
VERTEX
  8
PLAN_1
 62
     2
  6
CONTINUOUS
 10
-0.825945
 20
3.838421
  0
VERTEX
  8
PLAN_1
 62
     2
  6
CONTINUOUS
 10
-0.822079
 20
3.837453
  0
VERTEX
  8
PLAN_1
 62
     2
  6
CONTINUOUS
 10
-0.818213
 20
3.835520
  0
VERTEX
  8
PLAN_1
 62
     2
  6
CONTINUOUS
 10
-0.814831
 20
3.833587
  0
VERTEX
  8
PLAN_1
 62
     2
  6
CONTINUOUS
 10
-0.812898
 20
3.832138
  0
VERTEX
  8
PLAN_1
 62
     2
  6
CONTINUOUS
 10
-0.811449
 20
3.830205
  0
VERTEX
  8
PLAN_1
 62
     2
  6
CONTINUOUS
 10
-0.810000
 20
3.828272
  0
VERTEX
  8
PLAN_1
 62
     2
  6
CONTINUOUS
 10
-0.809031
 20
3.826339
  0
VERTEX
  8
PLAN_1
 62
     2
  6
CONTINUOUS
 10
-0.808067
 20
3.823925
  0
VERTEX
  8
PLAN_1
 62
     2
  6
CONTINUOUS
 10
-0.807098
 20
3.821508
  0
VERTEX
  8
PLAN_1
 62
     2
  6
CONTINUOUS
 10
-0.806614
 20
3.818606
  0
VERTEX
  8
PLAN_1
 62
     2
  6
CONTINUOUS
 10
-0.806614
 20
3.815224
  0
VERTEX
  8
PLAN_1
 62
     2
  6
CONTINUOUS
 10
-0.806614
 20
3.812327
  0
VERTEX
  8
PLAN_1
 62
     2
  6
CONTINUOUS
 10
-0.807098
 20
3.809909
  0
VERTEX
  8
PLAN_1
 62
     2
  6
CONTINUOUS
 10
-0.807583
 20
3.807492
  0
VERTEX
  8
PLAN_1
 62
     2
  6
CONTINUOUS
 10
-0.808067
 20
3.805559
  0
VERTEX
  8
PLAN_1
 62
     2
  6
CONTINUOUS
 10
-0.809031
 20
3.803142
  0
VERTEX
  8
PLAN_1
 62
     2
  6
CONTINUOUS
 10
-0.810480
 20
3.801213
  0
VERTEX
  8
PLAN_1
 62
     2
  6
CONTINUOUS
 10
-0.811933
 20
3.798795
  0
VERTEX
  8
PLAN_1
 62
     2
  6
CONTINUOUS
 10
-0.813866
 20
3.796862
  0
VERTEX
  8
PLAN_1
 62
     2
  6
CONTINUOUS
 10
-0.815315
 20
3.795413
  0
VERTEX
  8
PLAN_1
 62
     2
  6
CONTINUOUS
 10
-0.816764
 20
3.793961
  0
VERTEX
  8
PLAN_1
 62
     2
  6
CONTINUOUS
 10
-0.818697
 20
3.792996
  0
VERTEX
  8
PLAN_1
 62
     2
  6
CONTINUOUS
 10
-0.820630
 20
3.792028
  0
VERTEX
  8
PLAN_1
 62
     2
  6
CONTINUOUS
 10
-0.822563
 20
3.791063
  0
VERTEX
  8
PLAN_1
 62
     2
  6
CONTINUOUS
 10
-0.825461
 20
3.790579
  0
VERTEX
  8
PLAN_1
 62
     2
  6
CONTINUOUS
 10
-0.828362
 20
3.790094
  0
VERTEX
  8
PLAN_1
 62
     2
  6
CONTINUOUS
 10
-0.832228
 20
3.790094
  0
VERTEX
  8
PLAN_1
 62
     2
  6
CONTINUOUS
 10
-0.834161
 20
3.790094
  0
VERTEX
  8
PLAN_1
 62
     2
  6
CONTINUOUS
 10
-0.836579
 20
3.790579
  0
VERTEX
  8
PLAN_1
 62
     2
  6
CONTINUOUS
 10
-0.838992
 20
3.791063
  0
VERTEX
  8
PLAN_1
 62
     2
  6
CONTINUOUS
 10
-0.841894
 20
3.792028
  0
VERTEX
  8
PLAN_1
 62
     2
  6
CONTINUOUS
 10
-0.844311
 20
3.793480
  0
VERTEX
  8
PLAN_1
 62
     2
  6
CONTINUOUS
 10
-0.846724
 20
3.795413
  0
VERTEX
  8
PLAN_1
 62
     2
  6
CONTINUOUS
 10
-0.849142
 20
3.797827
  0
VERTEX
  8
PLAN_1
 62
     2
  6
CONTINUOUS
 10
-0.851075
 20
3.800728
  0
VERTEX
  8
PLAN_1
 62
     2
  6
CONTINUOUS
 10
-0.852524
 20
3.803142
  0
VERTEX
  8
PLAN_1
 62
     2
  6
CONTINUOUS
 10
-0.853492
 20
3.806043
  0
VERTEX
  8
PLAN_1
 62
     2
  6
CONTINUOUS
 10
-0.854457
 20
3.808941
  0
VERTEX
  8
PLAN_1
 62
     2
  6
CONTINUOUS
 10
-0.855425
 20
3.812327
  0
VERTEX
  8
PLAN_1
 62
     2
  6
CONTINUOUS
 10
-0.855906
 20
3.815224
  0
VERTEX
  8
PLAN_1
 62
     2
  6
CONTINUOUS
 10
-0.856390
 20
3.818606
  0
VERTEX
  8
PLAN_1
 62
     2
  6
CONTINUOUS
 10
-0.856390
 20
3.822472
  0
VERTEX
  8
PLAN_1
 62
     2
  6
CONTINUOUS
 10
-0.856390
 20
3.825858
  0
VERTEX
  8
PLAN_1
 62
     2
  6
CONTINUOUS
 10
-0.856390
 20
3.832138
  0
VERTEX
  8
PLAN_1
 62
     2
  6
CONTINUOUS
 10
-0.855425
 20
3.838906
  0
VERTEX
  8
PLAN_1
 62
     2
  6
CONTINUOUS
 10
-0.854941
 20
3.842287
  0
VERTEX
  8
PLAN_1
 62
     2
  6
CONTINUOUS
 10
-0.853972
 20
3.845185
  0
VERTEX
  8
PLAN_1
 62
     2
  6
CONTINUOUS
 10
-0.852524
 20
3.848571
  0
VERTEX
  8
PLAN_1
 62
     2
  6
CONTINUOUS
 10
-0.851075
 20
3.851469
  0
VERTEX
  8
PLAN_1
 62
     2
  6
CONTINUOUS
 10
-0.849626
 20
3.854370
  0
VERTEX
  8
PLAN_1
 62
     2
  6
CONTINUOUS
 10
-0.847693
 20
3.856783
  0
VERTEX
  8
PLAN_1
 62
     2
  6
CONTINUOUS
 10
-0.845276
 20
3.859201
  0
VERTEX
  8
PLAN_1
 62
     2
  6
CONTINUOUS
 10
-0.842858
 20
3.861134
  0
VERTEX
  8
PLAN_1
 62
     2
  6
CONTINUOUS
 10
-0.839961
 20
3.862583
  0
VERTEX
  8
PLAN_1
 62
     2
  6
CONTINUOUS
 10
-0.837059
 20
3.864035
  0
VERTEX
  8
PLAN_1
 62
     2
  6
CONTINUOUS
 10
-0.833677
 20
3.864516
  0
VERTEX
  8
PLAN_1
 62
     2
  6
CONTINUOUS
 10
-0.829327
 20
3.865000
  0
VERTEX
  8
PLAN_1
 62
     2
  6
CONTINUOUS
 10
-0.826429
 20
3.865000
  0
VERTEX
  8
PLAN_1
 62
     2
  6
CONTINUOUS
 10
-0.822563
 20
3.864035
  0
VERTEX
  8
PLAN_1
 62
     2
  6
CONTINUOUS
 10
-0.819181
 20
3.862583
  0
VERTEX
  8
PLAN_1
 62
     2
  6
CONTINUOUS
 10
-0.816280
 20
3.860650
  0
VERTEX
  8
PLAN_1
 62
     2
  6
CONTINUOUS
 10
-0.813382
 20
3.858236
  0
VERTEX
  8
PLAN_1
 62
     2
  6
CONTINUOUS
 10
-0.810965
 20
3.854850
  0
VERTEX
  8
PLAN_1
 62
     2
  6
CONTINUOUS
 10
-0.810000
 20
3.852917
  0
VERTEX
  8
PLAN_1
 62
     2
  6
CONTINUOUS
 10
-0.809031
 20
3.850504
  0
VERTEX
  8
PLAN_1
 62
     2
  6
CONTINUOUS
 10
-0.808547
 20
3.848087
  0
VERTEX
  8
PLAN_1
 62
     2
  6
CONTINUOUS
 10
-0.808067
 20
3.845669
  0
VERTEX
  8
PLAN_1
 62
     2
  6
CONTINUOUS
 10
-0.817248
 20
3.845669
  0
SEQEND
  8
0
  0
POLYLINE
  8
PLAN_1
 62
     2
  6
CONTINUOUS
 66
     1
 40
0.003000
 41
0.003000
  0
VERTEX
  8
PLAN_1
 62
     2
  6
CONTINUOUS
 10
-0.830295
 20
3.798311
  0
VERTEX
  8
PLAN_1
 62
     2
  6
CONTINUOUS
 10
-0.827394
 20
3.798311
  0
VERTEX
  8
PLAN_1
 62
     2
  6
CONTINUOUS
 10
-0.824496
 20
3.799280
  0
VERTEX
  8
PLAN_1
 62
     2
  6
CONTINUOUS
 10
-0.822079
 20
3.800728
  0
VERTEX
  8
PLAN_1
 62
     2
  6
CONTINUOUS
 10
-0.820146
 20
3.802661
  0
VERTEX
  8
PLAN_1
 62
     2
  6
CONTINUOUS
 10
-0.818213
 20
3.805075
  0
VERTEX
  8
PLAN_1
 62
     2
  6
CONTINUOUS
 10
-0.817248
 20
3.807976
  0
VERTEX
  8
PLAN_1
 62
     2
  6
CONTINUOUS
 10
-0.816280
 20
3.811358
  0
VERTEX
  8
PLAN_1
 62
     2
  6
CONTINUOUS
 10
-0.816280
 20
3.814740
  0
VERTEX
  8
PLAN_1
 62
     2
  6
CONTINUOUS
 10
-0.816280
 20
3.817157
  0
VERTEX
  8
PLAN_1
 62
     2
  6
CONTINUOUS
 10
-0.816764
 20
3.820059
  0
VERTEX
  8
PLAN_1
 62
     2
  6
CONTINUOUS
 10
-0.817732
 20
3.822472
  0
VERTEX
  8
PLAN_1
 62
     2
  6
CONTINUOUS
 10
-0.819181
 20
3.824890
  0
VERTEX
  8
PLAN_1
 62
     2
  6
CONTINUOUS
 10
-0.821114
 20
3.827307
  0
VERTEX
  8
PLAN_1
 62
     2
  6
CONTINUOUS
 10
-0.824012
 20
3.828756
  0
VERTEX
  8
PLAN_1
 62
     2
  6
CONTINUOUS
 10
-0.826913
 20
3.829724
  0
VERTEX
  8
PLAN_1
 62
     2
  6
CONTINUOUS
 10
-0.830780
 20
3.830205
  0
VERTEX
  8
PLAN_1
 62
     2
  6
CONTINUOUS
 10
-0.834646
 20
3.829724
  0
VERTEX
  8
PLAN_1
 62
     2
  6
CONTINUOUS
 10
-0.837543
 20
3.828756
  0
VERTEX
  8
PLAN_1
 62
     2
  6
CONTINUOUS
 10
-0.839961
 20
3.827307
  0
VERTEX
  8
PLAN_1
 62
     2
  6
CONTINUOUS
 10
-0.842378
 20
3.825374
  0
VERTEX
  8
PLAN_1
 62
     2
  6
CONTINUOUS
 10
-0.843827
 20
3.822957
  0
VERTEX
  8
PLAN_1
 62
     2
  6
CONTINUOUS
 10
-0.844791
 20
3.820539
  0
VERTEX
  8
PLAN_1
 62
     2
  6
CONTINUOUS
 10
-0.845760
 20
3.817642
  0
VERTEX
  8
PLAN_1
 62
     2
  6
CONTINUOUS
 10
-0.845760
 20
3.814260
  0
VERTEX
  8
PLAN_1
 62
     2
  6
CONTINUOUS
 10
-0.845760
 20
3.811358
  0
VERTEX
  8
PLAN_1
 62
     2
  6
CONTINUOUS
 10
-0.844791
 20
3.808461
  0
VERTEX
  8
PLAN_1
 62
     2
  6
CONTINUOUS
 10
-0.843827
 20
3.805559
  0
VERTEX
  8
PLAN_1
 62
     2
  6
CONTINUOUS
 10
-0.842378
 20
3.803142
  0
VERTEX
  8
PLAN_1
 62
     2
  6
CONTINUOUS
 10
-0.839961
 20
3.801213
  0
VERTEX
  8
PLAN_1
 62
     2
  6
CONTINUOUS
 10
-0.837543
 20
3.799760
  0
VERTEX
  8
PLAN_1
 62
     2
  6
CONTINUOUS
 10
-0.834161
 20
3.798311
  0
VERTEX
  8
PLAN_1
 62
     2
  6
CONTINUOUS
 10
-0.830295
 20
3.798311
  0
SEQEND
  8
0
  0
POLYLINE
  8
PLAN_1
 62
     2
  6
CONTINUOUS
 66
     1
 40
0.003000
 41
0.003000
  0
VERTEX
  8
PLAN_1
 62
     2
  6
CONTINUOUS
 10
-0.760705
 20
3.830689
  0
VERTEX
  8
PLAN_1
 62
     2
  6
CONTINUOUS
 10
-0.757323
 20
3.829240
  0
VERTEX
  8
PLAN_1
 62
     2
  6
CONTINUOUS
 10
-0.754909
 20
3.826823
  0
VERTEX
  8
PLAN_1
 62
     2
  6
CONTINUOUS
 10
-0.752492
 20
3.824890
  0
VERTEX
  8
PLAN_1
 62
     2
  6
CONTINUOUS
 10
-0.751043
 20
3.822472
  0
VERTEX
  8
PLAN_1
 62
     2
  6
CONTINUOUS
 10
-0.750075
 20
3.820059
  0
VERTEX
  8
PLAN_1
 62
     2
  6
CONTINUOUS
 10
-0.749591
 20
3.817642
  0
VERTEX
  8
PLAN_1
 62
     2
  6
CONTINUOUS
 10
-0.749110
 20
3.815224
  0
VERTEX
  8
PLAN_1
 62
     2
  6
CONTINUOUS
 10
-0.749110
 20
3.812807
  0
VERTEX
  8
PLAN_1
 62
     2
  6
CONTINUOUS
 10
-0.749110
 20
3.808461
  0
VERTEX
  8
PLAN_1
 62
     2
  6
CONTINUOUS
 10
-0.750075
 20
3.804594
  0
VERTEX
  8
PLAN_1
 62
     2
  6
CONTINUOUS
 10
-0.752008
 20
3.800728
  0
VERTEX
  8
PLAN_1
 62
     2
  6
CONTINUOUS
 10
-0.754909
 20
3.796862
  0
VERTEX
  8
PLAN_1
 62
     2
  6
CONTINUOUS
 10
-0.756358
 20
3.795413
  0
VERTEX
  8
PLAN_1
 62
     2
  6
CONTINUOUS
 10
-0.758291
 20
3.793961
  0
VERTEX
  8
PLAN_1
 62
     2
  6
CONTINUOUS
 10
-0.760224
 20
3.792996
  0
VERTEX
  8
PLAN_1
 62
     2
  6
CONTINUOUS
 10
-0.762638
 20
3.792028
  0
VERTEX
  8
PLAN_1
 62
     2
  6
CONTINUOUS
 10
-0.765055
 20
3.791063
  0
VERTEX
  8
PLAN_1
 62
     2
  6
CONTINUOUS
 10
-0.767472
 20
3.790579
  0
VERTEX
  8
PLAN_1
 62
     2
  6
CONTINUOUS
 10
-0.770370
 20
3.790094
  0
VERTEX
  8
PLAN_1
 62
     2
  6
CONTINUOUS
 10
-0.773756
 20
3.790094
  0
VERTEX
  8
PLAN_1
 62
     2
  6
CONTINUOUS
 10
-0.775205
 20
3.790094
  0
VERTEX
  8
PLAN_1
 62
     2
  6
CONTINUOUS
 10
-0.777138
 20
3.790094
  0
VERTEX
  8
PLAN_1
 62
     2
  6
CONTINUOUS
 10
-0.779555
 20
3.790579
  0
VERTEX
  8
PLAN_1
 62
     2
  6
CONTINUOUS
 10
-0.781969
 20
3.791063
  0
VERTEX
  8
PLAN_1
 62
     2
  6
CONTINUOUS
 10
-0.784386
 20
3.791547
  0
VERTEX
  8
PLAN_1
 62
     2
  6
CONTINUOUS
 10
-0.786803
 20
3.792512
  0
VERTEX
  8
PLAN_1
 62
     2
  6
CONTINUOUS
 10
-0.788736
 20
3.793961
  0
VERTEX
  8
PLAN_1
 62
     2
  6
CONTINUOUS
 10
-0.791150
 20
3.795413
  0
VERTEX
  8
PLAN_1
 62
     2
  6
CONTINUOUS
 10
-0.793567
 20
3.797827
  0
VERTEX
  8
PLAN_1
 62
     2
  6
CONTINUOUS
 10
-0.795500
 20
3.800244
  0
VERTEX
  8
PLAN_1
 62
     2
  6
CONTINUOUS
 10
-0.796949
 20
3.802661
  0
VERTEX
  8
PLAN_1
 62
     2
  6
CONTINUOUS
 10
-0.797917
 20
3.805075
  0
VERTEX
  8
PLAN_1
 62
     2
  6
CONTINUOUS
 10
-0.798402
 20
3.807492
  0
VERTEX
  8
PLAN_1
 62
     2
  6
CONTINUOUS
 10
-0.798402
 20
3.809425
  0
VERTEX
  8
PLAN_1
 62
     2
  6
CONTINUOUS
 10
-0.798882
 20
3.811358
  0
VERTEX
  8
PLAN_1
 62
     2
  6
CONTINUOUS
 10
-0.798882
 20
3.812807
  0
VERTEX
  8
PLAN_1
 62
     2
  6
CONTINUOUS
 10
-0.798402
 20
3.816193
  0
VERTEX
  8
PLAN_1
 62
     2
  6
CONTINUOUS
 10
-0.797917
 20
3.819091
  0
VERTEX
  8
PLAN_1
 62
     2
  6
CONTINUOUS
 10
-0.796949
 20
3.821508
  0
VERTEX
  8
PLAN_1
 62
     2
  6
CONTINUOUS
 10
-0.795500
 20
3.823925
  0
VERTEX
  8
PLAN_1
 62
     2
  6
CONTINUOUS
 10
-0.793567
 20
3.825858
  0
VERTEX
  8
PLAN_1
 62
     2
  6
CONTINUOUS
 10
-0.791634
 20
3.827791
  0
VERTEX
  8
PLAN_1
 62
     2
  6
CONTINUOUS
 10
-0.789220
 20
3.829240
  0
VERTEX
  8
PLAN_1
 62
     2
  6
CONTINUOUS
 10
-0.786319
 20
3.830689
  0
VERTEX
  8
PLAN_1
 62
     2
  6
CONTINUOUS
 10
-0.788736
 20
3.831657
  0
VERTEX
  8
PLAN_1
 62
     2
  6
CONTINUOUS
 10
-0.790669
 20
3.833106
  0
VERTEX
  8
PLAN_1
 62
     2
  6
CONTINUOUS
 10
-0.792118
 20
3.834555
  0
VERTEX
  8
PLAN_1
 62
     2
  6
CONTINUOUS
 10
-0.793567
 20
3.836004
  0
VERTEX
  8
PLAN_1
 62
     2
  6
CONTINUOUS
 10
-0.794535
 20
3.837937
  0
VERTEX
  8
PLAN_1
 62
     2
  6
CONTINUOUS
 10
-0.795500
 20
3.840354
  0
VERTEX
  8
PLAN_1
 62
     2
  6
CONTINUOUS
 10
-0.795984
 20
3.842287
  0
VERTEX
  8
PLAN_1
 62
     2
  6
CONTINUOUS
 10
-0.795984
 20
3.844705
  0
VERTEX
  8
PLAN_1
 62
     2
  6
CONTINUOUS
 10
-0.795984
 20
3.848087
  0
VERTEX
  8
PLAN_1
 62
     2
  6
CONTINUOUS
 10
-0.795016
 20
3.851469
  0
VERTEX
  8
PLAN_1
 62
     2
  6
CONTINUOUS
 10
-0.793567
 20
3.854370
  0
VERTEX
  8
PLAN_1
 62
     2
  6
CONTINUOUS
 10
-0.791634
 20
3.857752
  0
VERTEX
  8
PLAN_1
 62
     2
  6
CONTINUOUS
 10
-0.790185
 20
3.859201
  0
VERTEX
  8
PLAN_1
 62
     2
  6
CONTINUOUS
 10
-0.788736
 20
3.860650
  0
VERTEX
  8
PLAN_1
 62
     2
  6
CONTINUOUS
 10
-0.786803
 20
3.862102
  0
VERTEX
  8
PLAN_1
 62
     2
  6
CONTINUOUS
 10
-0.784870
 20
3.863067
  0
VERTEX
  8
PLAN_1
 62
     2
  6
CONTINUOUS
 10
-0.782453
 20
3.863551
  0
VERTEX
  8
PLAN_1
 62
     2
  6
CONTINUOUS
 10
-0.780035
 20
3.864516
  0
VERTEX
  8
PLAN_1
 62
     2
  6
CONTINUOUS
 10
-0.777138
 20
3.865000
  0
VERTEX
  8
PLAN_1
 62
     2
  6
CONTINUOUS
 10
-0.774236
 20
3.865000
  0
VERTEX
  8
PLAN_1
 62
     2
  6
CONTINUOUS
 10
-0.768437
 20
3.864516
  0
VERTEX
  8
PLAN_1
 62
     2
  6
CONTINUOUS
 10
-0.763606
 20
3.863067
  0
VERTEX
  8
PLAN_1
 62
     2
  6
CONTINUOUS
 10
-0.759740
 20
3.861134
  0
VERTEX
  8
PLAN_1
 62
     2
  6
CONTINUOUS
 10
-0.756843
 20
3.858717
  0
VERTEX
  8
PLAN_1
 62
     2
  6
CONTINUOUS
 10
-0.754425
 20
3.855819
  0
VERTEX
  8
PLAN_1
 62
     2
  6
CONTINUOUS
 10
-0.752492
 20
3.852917
  0
VERTEX
  8
PLAN_1
 62
     2
  6
CONTINUOUS
 10
-0.752008
 20
3.849535
  0
VERTEX
  8
PLAN_1
 62
     2
  6
CONTINUOUS
 10
-0.751524
 20
3.846154
  0
VERTEX
  8
PLAN_1
 62
     2
  6
CONTINUOUS
 10
-0.751524
 20
3.842772
  0
VERTEX
  8
PLAN_1
 62
     2
  6
CONTINUOUS
 10
-0.752492
 20
3.839386
  0
VERTEX
  8
PLAN_1
 62
     2
  6
CONTINUOUS
 10
-0.753457
 20
3.836972
  0
VERTEX
  8
PLAN_1
 62
     2
  6
CONTINUOUS
 10
-0.754909
 20
3.835039
  0
VERTEX
  8
PLAN_1
 62
     2
  6
CONTINUOUS
 10
-0.756358
 20
3.833587
  0
VERTEX
  8
PLAN_1
 62
     2
  6
CONTINUOUS
 10
-0.757807
 20
3.832622
  0
VERTEX
  8
PLAN_1
 62
     2
  6
CONTINUOUS
 10
-0.759740
 20
3.831657
  0
VERTEX
  8
PLAN_1
 62
     2
  6
CONTINUOUS
 10
-0.760705
 20
3.830689
  0
SEQEND
  8
0
  0
POLYLINE
  8
PLAN_1
 62
     2
  6
CONTINUOUS
 66
     1
 40
0.003000
 41
0.003000
  0
VERTEX
  8
PLAN_1
 62
     2
  6
CONTINUOUS
 10
-0.788736
 20
3.812807
  0
VERTEX
  8
PLAN_1
 62
     2
  6
CONTINUOUS
 10
-0.788736
 20
3.810394
  0
VERTEX
  8
PLAN_1
 62
     2
  6
CONTINUOUS
 10
-0.788252
 20
3.807976
  0
VERTEX
  8
PLAN_1
 62
     2
  6
CONTINUOUS
 10
-0.787287
 20
3.805559
  0
VERTEX
  8
PLAN_1
 62
     2
  6
CONTINUOUS
 10
-0.785835
 20
3.803142
  0
VERTEX
  8
PLAN_1
 62
     2
  6
CONTINUOUS
 10
-0.783902
 20
3.801213
  0
VERTEX
  8
PLAN_1
 62
     2
  6
CONTINUOUS
 10
-0.781004
 20
3.799760
  0
VERTEX
  8
PLAN_1
 62
     2
  6
CONTINUOUS
 10
-0.777622
 20
3.798311
  0
VERTEX
  8
PLAN_1
 62
     2
  6
CONTINUOUS
 10
-0.773272
 20
3.798311
  0
VERTEX
  8
PLAN_1
 62
     2
  6
CONTINUOUS
 10
-0.770854
 20
3.798311
  0
VERTEX
  8
PLAN_1
 62
     2
  6
CONTINUOUS
 10
-0.768437
 20
3.798795
  0
VERTEX
  8
PLAN_1
 62
     2
  6
CONTINUOUS
 10
-0.765539
 20
3.799280
  0
VERTEX
  8
PLAN_1
 62
     2
  6
CONTINUOUS
 10
-0.763606
 20
3.800728
  0
VERTEX
  8
PLAN_1
 62
     2
  6
CONTINUOUS
 10
-0.761673
 20
3.802661
  0
VERTEX
  8
PLAN_1
 62
     2
  6
CONTINUOUS
 10
-0.760224
 20
3.805075
  0
VERTEX
  8
PLAN_1
 62
     2
  6
CONTINUOUS
 10
-0.758772
 20
3.807976
  0
VERTEX
  8
PLAN_1
 62
     2
  6
CONTINUOUS
 10
-0.758772
 20
3.811843
  0
VERTEX
  8
PLAN_1
 62
     2
  6
CONTINUOUS
 10
-0.758772
 20
3.815224
  0
VERTEX
  8
PLAN_1
 62
     2
  6
CONTINUOUS
 10
-0.759740
 20
3.818126
  0
VERTEX
  8
PLAN_1
 62
     2
  6
CONTINUOUS
 10
-0.761189
 20
3.821024
  0
VERTEX
  8
PLAN_1
 62
     2
  6
CONTINUOUS
 10
-0.763122
 20
3.822957
  0
VERTEX
  8
PLAN_1
 62
     2
  6
CONTINUOUS
 10
-0.765539
 20
3.824406
  0
VERTEX
  8
PLAN_1
 62
     2
  6
CONTINUOUS
 10
-0.767957
 20
3.825374
  0
VERTEX
  8
PLAN_1
 62
     2
  6
CONTINUOUS
 10
-0.770854
 20
3.825858
  0
VERTEX
  8
PLAN_1
 62
     2
  6
CONTINUOUS
 10
-0.773756
 20
3.826339
  0
VERTEX
  8
PLAN_1
 62
     2
  6
CONTINUOUS
 10
-0.777622
 20
3.825858
  0
VERTEX
  8
PLAN_1
 62
     2
  6
CONTINUOUS
 10
-0.780520
 20
3.824890
  0
VERTEX
  8
PLAN_1
 62
     2
  6
CONTINUOUS
 10
-0.782937
 20
3.823925
  0
VERTEX
  8
PLAN_1
 62
     2
  6
CONTINUOUS
 10
-0.785354
 20
3.821992
  0
VERTEX
  8
PLAN_1
 62
     2
  6
CONTINUOUS
 10
-0.786803
 20
3.820059
  0
VERTEX
  8
PLAN_1
 62
     2
  6
CONTINUOUS
 10
-0.788252
 20
3.817642
  0
VERTEX
  8
PLAN_1
 62
     2
  6
CONTINUOUS
 10
-0.788736
 20
3.815224
  0
VERTEX
  8
PLAN_1
 62
     2
  6
CONTINUOUS
 10
-0.788736
 20
3.812807
  0
SEQEND
  8
0
  0
POLYLINE
  8
PLAN_1
 62
     2
  6
CONTINUOUS
 66
     1
 40
0.003000
 41
0.003000
  0
VERTEX
  8
PLAN_1
 62
     2
  6
CONTINUOUS
 10
-0.760705
 20
3.845669
  0
VERTEX
  8
PLAN_1
 62
     2
  6
CONTINUOUS
 10
-0.761189
 20
3.847602
  0
VERTEX
  8
PLAN_1
 62
     2
  6
CONTINUOUS
 10
-0.761673
 20
3.849535
  0
VERTEX
  8
PLAN_1
 62
     2
  6
CONTINUOUS
 10
-0.762638
 20
3.851469
  0
VERTEX
  8
PLAN_1
 62
     2
  6
CONTINUOUS
 10
-0.763606
 20
3.852917
  0
VERTEX
  8
PLAN_1
 62
     2
  6
CONTINUOUS
 10
-0.765539
 20
3.854370
  0
VERTEX
  8
PLAN_1
 62
     2
  6
CONTINUOUS
 10
-0.767957
 20
3.855819
  0
VERTEX
  8
PLAN_1
 62
     2
  6
CONTINUOUS
 10
-0.770854
 20
3.856303
  0
VERTEX
  8
PLAN_1
 62
     2
  6
CONTINUOUS
 10
-0.774720
 20
3.856783
  0
VERTEX
  8
PLAN_1
 62
     2
  6
CONTINUOUS
 10
-0.778102
 20
3.856303
  0
VERTEX
  8
PLAN_1
 62
     2
  6
CONTINUOUS
 10
-0.780520
 20
3.855819
  0
VERTEX
  8
PLAN_1
 62
     2
  6
CONTINUOUS
 10
-0.782937
 20
3.854370
  0
VERTEX
  8
PLAN_1
 62
     2
  6
CONTINUOUS
 10
-0.784386
 20
3.852917
  0
VERTEX
  8
PLAN_1
 62
     2
  6
CONTINUOUS
 10
-0.785354
 20
3.850984
  0
VERTEX
  8
PLAN_1
 62
     2
  6
CONTINUOUS
 10
-0.786319
 20
3.849051
  0
VERTEX
  8
PLAN_1
 62
     2
  6
CONTINUOUS
 10
-0.786803
 20
3.847118
  0
VERTEX
  8
PLAN_1
 62
     2
  6
CONTINUOUS
 10
-0.786803
 20
3.845185
  0
VERTEX
  8
PLAN_1
 62
     2
  6
CONTINUOUS
 10
-0.786319
 20
3.842772
  0
VERTEX
  8
PLAN_1
 62
     2
  6
CONTINUOUS
 10
-0.785835
 20
3.840839
  0
VERTEX
  8
PLAN_1
 62
     2
  6
CONTINUOUS
 10
-0.784386
 20
3.838906
  0
VERTEX
  8
PLAN_1
 62
     2
  6
CONTINUOUS
 10
-0.782937
 20
3.836972
  0
VERTEX
  8
PLAN_1
 62
     2
  6
CONTINUOUS
 10
-0.781004
 20
3.836004
  0
VERTEX
  8
PLAN_1
 62
     2
  6
CONTINUOUS
 10
-0.778587
 20
3.835039
  0
VERTEX
  8
PLAN_1
 62
     2
  6
CONTINUOUS
 10
-0.776169
 20
3.834071
  0
VERTEX
  8
PLAN_1
 62
     2
  6
CONTINUOUS
 10
-0.773756
 20
3.834071
  0
VERTEX
  8
PLAN_1
 62
     2
  6
CONTINUOUS
 10
-0.771339
 20
3.834555
  0
VERTEX
  8
PLAN_1
 62
     2
  6
CONTINUOUS
 10
-0.768437
 20
3.835039
  0
VERTEX
  8
PLAN_1
 62
     2
  6
CONTINUOUS
 10
-0.766504
 20
3.836004
  0
VERTEX
  8
PLAN_1
 62
     2
  6
CONTINUOUS
 10
-0.764571
 20
3.837453
  0
VERTEX
  8
PLAN_1
 62
     2
  6
CONTINUOUS
 10
-0.763122
 20
3.839386
  0
VERTEX
  8
PLAN_1
 62
     2
  6
CONTINUOUS
 10
-0.761673
 20
3.841319
  0
VERTEX
  8
PLAN_1
 62
     2
  6
CONTINUOUS
 10
-0.761189
 20
3.843252
  0
VERTEX
  8
PLAN_1
 62
     2
  6
CONTINUOUS
 10
-0.760705
 20
3.845669
  0
SEQEND
  8
0
  0
POLYLINE
  8
PLAN_1
 62
     2
  6
CONTINUOUS
 66
     1
 40
0.004346
 41
0.004346
  0
VERTEX
  8
PLAN_1
 62
     2
  6
CONTINUOUS
 10
-1.988650
 20
3.563449
  0
VERTEX
  8
PLAN_1
 62
     2
  6
CONTINUOUS
 10
-2.282469
 20
3.563449
  0
SEQEND
  8
0
  0
SOLID
  8
PLAN_1
 62
     2
 10
-2.252992
 20
3.563449
 11
-2.311949
 21
3.579398
 12
-2.252992
 22
3.563449
 13
-2.311949
 23
3.547988
  0
POLYLINE
  8
PLAN_1
 62
     2
  6
CONTINUOUS
 66
     1
 40
0.003000
 41
0.003000
  0
VERTEX
  8
PLAN_1
 62
     2
  6
CONTINUOUS
 10
-2.252992
 20
3.563449
  0
VERTEX
  8
PLAN_1
 62
     2
  6
CONTINUOUS
 10
-2.311949
 20
3.579398
  0
VERTEX
  8
PLAN_1
 62
     2
  6
CONTINUOUS
 10
-2.311949
 20
3.547988
  0
VERTEX
  8
PLAN_1
 62
     2
  6
CONTINUOUS
 10
-2.252992
 20
3.563449
  0
SEQEND
  8
0
  0
SOLID
  8
PLAN_1
 62
     2
 10
-2.018130
 20
3.563449
 11
-1.959173
 21
3.579398
 12
-2.018130
 22
3.563449
 13
-1.959173
 23
3.547988
  0
POLYLINE
  8
PLAN_1
 62
     2
  6
CONTINUOUS
 66
     1
 40
0.003000
 41
0.003000
  0
VERTEX
  8
PLAN_1
 62
     2
  6
CONTINUOUS
 10
-2.018130
 20
3.563449
  0
VERTEX
  8
PLAN_1
 62
     2
  6
CONTINUOUS
 10
-1.959173
 20
3.579398
  0
VERTEX
  8
PLAN_1
 62
     2
  6
CONTINUOUS
 10
-1.959173
 20
3.547988
  0
VERTEX
  8
PLAN_1
 62
     2
  6
CONTINUOUS
 10
-2.018130
 20
3.563449
  0
SEQEND
  8
0
  0
POLYLINE
  8
PLAN_1
 62
     2
  6
CONTINUOUS
 66
     1
 40
0.003000
 41
0.003000
  0
VERTEX
  8
PLAN_1
 62
     2
  6
CONTINUOUS
 10
-2.149091
 20
3.629657
  0
VERTEX
  8
PLAN_1
 62
     2
  6
CONTINUOUS
 10
-2.148126
 20
3.630622
  0
VERTEX
  8
PLAN_1
 62
     2
  6
CONTINUOUS
 10
-2.146673
 20
3.631591
  0
VERTEX
  8
PLAN_1
 62
     2
  6
CONTINUOUS
 10
-2.145224
 20
3.632071
  0
VERTEX
  8
PLAN_1
 62
     2
  6
CONTINUOUS
 10
-2.143291
 20
3.633039
  0
VERTEX
  8
PLAN_1
 62
     2
  6
CONTINUOUS
 10
-2.141358
 20
3.633524
  0
VERTEX
  8
PLAN_1
 62
     2
  6
CONTINUOUS
 10
-2.139425
 20
3.634004
  0
VERTEX
  8
PLAN_1
 62
     2
  6
CONTINUOUS
 10
-2.137492
 20
3.634004
  0
VERTEX
  8
PLAN_1
 62
     2
  6
CONTINUOUS
 10
-2.135079
 20
3.634488
  0
VERTEX
  8
PLAN_1
 62
     2
  6
CONTINUOUS
 10
-2.130728
 20
3.634004
  0
VERTEX
  8
PLAN_1
 62
     2
  6
CONTINUOUS
 10
-2.126378
 20
3.632555
  0
VERTEX
  8
PLAN_1
 62
     2
  6
CONTINUOUS
 10
-2.122028
 20
3.631106
  0
VERTEX
  8
PLAN_1
 62
     2
  6
CONTINUOUS
 10
-2.118646
 20
3.628205
  0
VERTEX
  8
PLAN_1
 62
     2
  6
CONTINUOUS
 10
-2.115264
 20
3.624823
  0
VERTEX
  8
PLAN_1
 62
     2
  6
CONTINUOUS
 10
-2.112846
 20
3.620957
  0
VERTEX
  8
PLAN_1
 62
     2
  6
CONTINUOUS
 10
-2.112366
 20
3.618539
  0
VERTEX
  8
PLAN_1
 62
     2
  6
CONTINUOUS
 10
-2.111398
 20
3.616126
  0
VERTEX
  8
PLAN_1
 62
     2
  6
CONTINUOUS
 10
-2.110913
 20
3.613709
  0
VERTEX
  8
PLAN_1
 62
     2
  6
CONTINUOUS
 10
-2.110913
 20
3.610811
  0
VERTEX
  8
PLAN_1
 62
     2
  6
CONTINUOUS
 10
-2.111398
 20
3.607425
  0
VERTEX
  8
PLAN_1
 62
     2
  6
CONTINUOUS
 10
-2.111882
 20
3.603559
  0
VERTEX
  8
PLAN_1
 62
     2
  6
CONTINUOUS
 10
-2.113331
 20
3.599213
  0
VERTEX
  8
PLAN_1
 62
     2
  6
CONTINUOUS
 10
-2.115748
 20
3.594862
  0
VERTEX
  8
PLAN_1
 62
     2
  6
CONTINUOUS
 10
-2.117197
 20
3.592929
  0
VERTEX
  8
PLAN_1
 62
     2
  6
CONTINUOUS
 10
-2.119130
 20
3.590996
  0
VERTEX
  8
PLAN_1
 62
     2
  6
CONTINUOUS
 10
-2.121063
 20
3.589547
  0
VERTEX
  8
PLAN_1
 62
     2
  6
CONTINUOUS
 10
-2.123480
 20
3.588094
  0
VERTEX
  8
PLAN_1
 62
     2
  6
CONTINUOUS
 10
-2.126378
 20
3.586646
  0
VERTEX
  8
PLAN_1
 62
     2
  6
CONTINUOUS
 10
-2.129760
 20
3.586161
  0
VERTEX
  8
PLAN_1
 62
     2
  6
CONTINUOUS
 10
-2.133626
 20
3.585197
  0
VERTEX
  8
PLAN_1
 62
     2
  6
CONTINUOUS
 10
-2.137492
 20
3.585197
  0
VERTEX
  8
PLAN_1
 62
     2
  6
CONTINUOUS
 10
-2.141358
 20
3.585197
  0
VERTEX
  8
PLAN_1
 62
     2
  6
CONTINUOUS
 10
-2.145224
 20
3.586161
  0
VERTEX
  8
PLAN_1
 62
     2
  6
CONTINUOUS
 10
-2.148606
 20
3.587130
  0
VERTEX
  8
PLAN_1
 62
     2
  6
CONTINUOUS
 10
-2.152472
 20
3.589063
  0
VERTEX
  8
PLAN_1
 62
     2
  6
CONTINUOUS
 10
-2.153925
 20
3.590512
  0
VERTEX
  8
PLAN_1
 62
     2
  6
CONTINUOUS
 10
-2.155374
 20
3.591961
  0
VERTEX
  8
PLAN_1
 62
     2
  6
CONTINUOUS
 10
-2.156823
 20
3.593413
  0
VERTEX
  8
PLAN_1
 62
     2
  6
CONTINUOUS
 10
-2.158272
 20
3.595346
  0
VERTEX
  8
PLAN_1
 62
     2
  6
CONTINUOUS
 10
-2.159240
 20
3.597280
  0
VERTEX
  8
PLAN_1
 62
     2
  6
CONTINUOUS
 10
-2.160205
 20
3.599693
  0
VERTEX
  8
PLAN_1
 62
     2
  6
CONTINUOUS
 10
-2.160689
 20
3.602594
  0
VERTEX
  8
PLAN_1
 62
     2
  6
CONTINUOUS
 10
-2.161173
 20
3.605492
  0
VERTEX
  8
PLAN_1
 62
     2
  6
CONTINUOUS
 10
-2.151508
 20
3.605492
  0
VERTEX
  8
PLAN_1
 62
     2
  6
CONTINUOUS
 10
-2.151024
 20
3.602594
  0
VERTEX
  8
PLAN_1
 62
     2
  6
CONTINUOUS
 10
-2.150059
 20
3.599693
  0
VERTEX
  8
PLAN_1
 62
     2
  6
CONTINUOUS
 10
-2.148606
 20
3.597760
  0
VERTEX
  8
PLAN_1
 62
     2
  6
CONTINUOUS
 10
-2.146673
 20
3.595827
  0
VERTEX
  8
PLAN_1
 62
     2
  6
CONTINUOUS
 10
-2.144260
 20
3.594862
  0
VERTEX
  8
PLAN_1
 62
     2
  6
CONTINUOUS
 10
-2.141843
 20
3.593894
  0
VERTEX
  8
PLAN_1
 62
     2
  6
CONTINUOUS
 10
-2.138945
 20
3.593413
  0
VERTEX
  8
PLAN_1
 62
     2
  6
CONTINUOUS
 10
-2.136043
 20
3.592929
  0
VERTEX
  8
PLAN_1
 62
     2
  6
CONTINUOUS
 10
-2.132661
 20
3.593413
  0
VERTEX
  8
PLAN_1
 62
     2
  6
CONTINUOUS
 10
-2.129760
 20
3.594378
  0
VERTEX
  8
PLAN_1
 62
     2
  6
CONTINUOUS
 10
-2.127346
 20
3.595827
  0
VERTEX
  8
PLAN_1
 62
     2
  6
CONTINUOUS
 10
-2.124929
 20
3.598244
  0
VERTEX
  8
PLAN_1
 62
     2
  6
CONTINUOUS
 10
-2.122996
 20
3.600661
  0
VERTEX
  8
PLAN_1
 62
     2
  6
CONTINUOUS
 10
-2.122028
 20
3.603559
  0
VERTEX
  8
PLAN_1
 62
     2
  6
CONTINUOUS
 10
-2.121063
 20
3.606461
  0
VERTEX
  8
PLAN_1
 62
     2
  6
CONTINUOUS
 10
-2.120579
 20
3.609843
  0
VERTEX
  8
PLAN_1
 62
     2
  6
CONTINUOUS
 10
-2.121063
 20
3.613709
  0
VERTEX
  8
PLAN_1
 62
     2
  6
CONTINUOUS
 10
-2.122028
 20
3.616606
  0
VERTEX
  8
PLAN_1
 62
     2
  6
CONTINUOUS
 10
-2.123480
 20
3.619508
  0
VERTEX
  8
PLAN_1
 62
     2
  6
CONTINUOUS
 10
-2.125413
 20
3.621925
  0
VERTEX
  8
PLAN_1
 62
     2
  6
CONTINUOUS
 10
-2.127827
 20
3.623858
  0
VERTEX
  8
PLAN_1
 62
     2
  6
CONTINUOUS
 10
-2.130728
 20
3.624823
  0
VERTEX
  8
PLAN_1
 62
     2
  6
CONTINUOUS
 10
-2.133626
 20
3.625791
  0
VERTEX
  8
PLAN_1
 62
     2
  6
CONTINUOUS
 10
-2.137012
 20
3.626272
  0
VERTEX
  8
PLAN_1
 62
     2
  6
CONTINUOUS
 10
-2.138945
 20
3.625791
  0
VERTEX
  8
PLAN_1
 62
     2
  6
CONTINUOUS
 10
-2.140878
 20
3.625791
  0
VERTEX
  8
PLAN_1
 62
     2
  6
CONTINUOUS
 10
-2.142811
 20
3.624823
  0
VERTEX
  8
PLAN_1
 62
     2
  6
CONTINUOUS
 10
-2.144260
 20
3.624339
  0
VERTEX
  8
PLAN_1
 62
     2
  6
CONTINUOUS
 10
-2.146193
 20
3.623374
  0
VERTEX
  8
PLAN_1
 62
     2
  6
CONTINUOUS
 10
-2.147642
 20
3.621925
  0
VERTEX
  8
PLAN_1
 62
     2
  6
CONTINUOUS
 10
-2.149091
 20
3.620472
  0
VERTEX
  8
PLAN_1
 62
     2
  6
CONTINUOUS
 10
-2.150539
 20
3.619024
  0
VERTEX
  8
PLAN_1
 62
     2
  6
CONTINUOUS
 10
-2.158272
 20
3.619508
  0
VERTEX
  8
PLAN_1
 62
     2
  6
CONTINUOUS
 10
-2.152957
 20
3.658650
  0
VERTEX
  8
PLAN_1
 62
     2
  6
CONTINUOUS
 10
-2.115264
 20
3.658650
  0
VERTEX
  8
PLAN_1
 62
     2
  6
CONTINUOUS
 10
-2.115264
 20
3.649953
  0
VERTEX
  8
PLAN_1
 62
     2
  6
CONTINUOUS
 10
-2.146193
 20
3.649953
  0
VERTEX
  8
PLAN_1
 62
     2
  6
CONTINUOUS
 10
-2.149091
 20
3.629657
  0
SEQEND
  8
0
  0
POLYLINE
  8
PLAN_1
 62
     2
  6
CONTINUOUS
 66
     1
 40
0.004346
 41
0.004346
  0
VERTEX
  8
PLAN_1
 62
     2
  6
CONTINUOUS
 10
0.535858
 20
0.498661
  0
VERTEX
  8
PLAN_1
 62
     2
  6
CONTINUOUS
 10
0.535858
 20
3.792028
  0
SEQEND
  8
0
  0
POLYLINE
  8
PLAN_1
 62
     2
  6
CONTINUOUS
 66
     1
 40
0.004346
 41
0.004346
  0
VERTEX
  8
PLAN_1
 62
     2
  6
CONTINUOUS
 10
-2.133146
 20
3.526724
  0
VERTEX
  8
PLAN_1
 62
     2
  6
CONTINUOUS
 10
-2.133146
 20
3.337287
  0
SEQEND
  8
0
  0
POLYLINE
  8
PLAN_1
 62
     2
  6
CONTINUOUS
 66
     1
 40
0.004346
 41
0.004346
  0
VERTEX
  8
PLAN_1
 62
     2
  6
CONTINUOUS
 10
-2.133146
 20
3.794445
  0
VERTEX
  8
PLAN_1
 62
     2
  6
CONTINUOUS
 10
-2.133146
 20
3.712291
  0
SEQEND
  8
0
  0
POLYLINE
  8
PLAN_1
 62
     2
  6
CONTINUOUS
 66
     1
 40
0.004346
 41
0.004346
  0
VERTEX
  8
PLAN_1
 62
     2
  6
CONTINUOUS
 10
-2.252992
 20
3.428622
  0
VERTEX
  8
PLAN_1
 62
     2
  6
CONTINUOUS
 10
-2.252992
 20
3.587130
  0
SEQEND
  8
0
  0
POLYLINE
  8
PLAN_1
 62
     2
  6
CONTINUOUS
 66
     1
 40
0.004346
 41
0.004346
  0
VERTEX
  8
PLAN_1
 62
     2
  6
CONTINUOUS
 10
-2.018130
 20
3.428622
  0
VERTEX
  8
PLAN_1
 62
     2
  6
CONTINUOUS
 10
-2.018130
 20
3.587130
  0
SEQEND
  8
0
  0
ENDSEC
  0
EOF
