999
DXF file: C:\Users\sesa63760\Dev\_Creo\CAD\MCADID0004237_3D-CAD\drw0001_7.dxf
999
Pro/ENGINEER 2019471 by Parametric Technology Corporation
  0
SECTION
  2
HEADER
  9
$ACADVER
  1
AC1024
  9
$DWGCODEPAGE
  3
ANSI_1252
  9
$EXTMAX
 10
916.0303030303
 20
1295.5285714286
 30
0.0
  9
$EXTMIN
 10
0.0
 20
0.0
 30
0.0
  9
$LIMMIN
 10
0.0
 20
0.0
  9
$LIMMAX
 10
916.0303030303
 20
1295.5285714286
  9
$VIEWCTR
 10
458.0151515152
 20
647.7642857143
  9
$VIEWSIZE
 40
1295.5285714286
  9
$CLAYER
  8
0
  9
$LTSCALE
 40
84.4492698413
  9
$CELTYPE
  6
BYLAYER
  9
$DIMSCALE
 40
1.0
  9
$DIMASZ
 40
10.9051226551
  9
$DIMEXO
 40
1.0
  9
$DIMDLI
 40
58.346768254
  9
$DIMEXE
 40
1.0
  9
$DIMCEN
 40
13.8189714286
  9
$DIMLFAC
 40
1.0
  9
$DIMBLK
  1
_FILLED
  9
$DIMALT
 70
0
  9
$DIMALTF
 40
0.0393700787
  9
$DIMTXT
 40
15.2671717172
  9
$DIMTOL
 70
1
  9
$DIMLIM
 70
0
  9
$DIMTFAC
 40
1.0
  9
$DIMTP
 40
0.01
  9
$DIMTM
 40
0.01
  9
$DIMGAP
 40
0.625
  9
$DIMDSEP
 70
46
  9
$AUNITS
 70
0
  9
$PDMODE
 70
3
  9
$PDSIZE
 40
0.3125
  9
$HANDSEED
  5
2FA
  9
$TILEMODE
 70
1
  9
$MEASUREMENT
 70
1
  9
$INSUNITS
 70
4
  0
ENDSEC
  0
SECTION
  2
CLASSES
  0
CLASS
  1
ACDBDICTIONARYWDFLT
  2
AcDbDictionaryWithDefault
  3
AutoCAD 2000
 90
0
 91
1
280
0
281
0
  0
CLASS
  1
ACDBPLACEHOLDER
  2
AcDbPlaceHolder
  3
AutoCAD 2000
 90
0
 91
1
280
0
281
0
  0
CLASS
  1
LAYOUT
  2
AcDbLayout
  3
AutoCAD 2000
 90
0
 91
0
280
0
281
0
  0
ENDSEC
  0
SECTION
  2
TABLES
  0
TABLE
  2
VPORT
  5
8
100
AcDbSymbolTable
 70
2
  0
VPORT
  5
1F4
100
AcDbSymbolTableRecord
100
AcDbViewportTableRecord
  2
*ACTIVE
 70
0
 10
0.0
 20
0.0
 11
1.0
 21
1.0
 12
458.0151515152
 22
647.7642857143
 13
0.0
 23
0.0
 14
1.0
 24
1.0
 15
0.0
 25
0.0
 16
0.0
 26
0.0
 36
1.0
 17
0.0
 27
0.0
 37
0.0
 40
1295.5285714286
 41
0.7070707071
 42
50.0
 43
0.0
 44
0.0
 50
0.0
 51
0.0
 71
0
 72
100
 73
1
 74
1
 75
0
 76
0
 77
0
 78
0
  0
ENDTAB
  0
TABLE
  2
LTYPE
  5
5
100
AcDbSymbolTable
 70
6
  0
LTYPE
  5
14
100
AcDbSymbolTableRecord
100
AcDbLinetypeTableRecord
  2
BYBLOCK
 70
0
  3

 72
65
 73
0
 40
0.0
  0
LTYPE
  5
15
100
AcDbSymbolTableRecord
100
AcDbLinetypeTableRecord
  2
BYLAYER
 70
0
  3

 72
65
 73
0
 40
0.0
  0
LTYPE
  5
16
100
AcDbSymbolTableRecord
100
AcDbLinetypeTableRecord
  2
CONTINUOUS
 70
64
  3
Solid line
 72
65
 73
0
 40
0.0
  0
LTYPE
  5
1F5
100
AcDbSymbolTableRecord
100
AcDbLinetypeTableRecord
  2
CENTER
 70
64
  3
____ _ ____ _ ____ _ ____ _ ____ _ ____ _ ____
 72
65
 73
4
 40
0.6
 49
0.375
 74
0
 49
-0.075
 74
0
 49
0.075
 74
0
 49
-0.075
 74
0
  0
LTYPE
  5
1F6
100
AcDbSymbolTableRecord
100
AcDbLinetypeTableRecord
  2
HIDDEN
 70
64
  3
- - - - - - - - - - - - - - - - - - - -
 72
65
 73
2
 40
0.2
 49
0.1
 74
0
 49
-0.1
 74
0
  0
LTYPE
  5
1F7
100
AcDbSymbolTableRecord
100
AcDbLinetypeTableRecord
  2
PHANTOM
 70
64
  3
_____ _ _ _____ _ _ _____ _ _ _____
 72
65
 73
6
 40
0.8
 49
0.45
 74
0
 49
-0.05
 74
0
 49
0.1
 74
0
 49
-0.05
 74
0
 49
0.1
 74
0
 49
-0.05
 74
0
  0
LTYPE
  5
1F8
100
AcDbSymbolTableRecord
100
AcDbLinetypeTableRecord
  2
DOT
 70
64
  3
. . . . . . . . . . . . . . . . . . . .
 72
65
 73
2
 40
0.2
 49
0.1
 74
0
 49
-0.1
 74
0
  0
LTYPE
  5
1F9
100
AcDbSymbolTableRecord
100
AcDbLinetypeTableRecord
  2
DASHED
 70
64
  3
- - - - - - - - - - - - - - - - - - - -
 72
65
 73
2
 40
0.2
 49
0.1
 74
0
 49
-0.1
 74
0
  0
ENDTAB
  0
TABLE
  2
LAYER
  5
2
100
AcDbSymbolTable
 70
36
  0
LAYER
  5
10
100
AcDbSymbolTableRecord
100
AcDbLayerTableRecord
  2
0
 70
0
 62
7
  6
CONTINUOUS
370
-3
390
F
  0
LAYER
  5
1FA
100
AcDbSymbolTableRecord
100
AcDbLayerTableRecord
  2
DEFAULT_1
 70
0
 62
7
  6
CENTER
370
-3
390
F
  0
LAYER
  5
1FB
100
AcDbSymbolTableRecord
100
AcDbLayerTableRecord
  2
DEFAULT_2
 70
0
 62
7
  6
HIDDEN
370
-3
390
F
  0
LAYER
  5
1FC
100
AcDbSymbolTableRecord
100
AcDbLayerTableRecord
  2
DEFAULT_3
 70
0
 62
7
  6
PHANTOM
370
-3
390
F
  0
LAYER
  5
1FD
100
AcDbSymbolTableRecord
100
AcDbLayerTableRecord
  2
00_COMPONENTS
 70
0
 62
7
  6
CONTINUOUS
370
-3
390
F
  0
LAYER
  5
1FE
100
AcDbSymbolTableRecord
100
AcDbLayerTableRecord
  2
01_1_DEFAULT_DATUMS
 70
0
 62
7
  6
CONTINUOUS
370
-3
390
F
  0
LAYER
  5
1FF
100
AcDbSymbolTableRecord
100
AcDbLayerTableRecord
  2
01_PLANES
 70
0
 62
7
  6
CONTINUOUS
370
-3
390
F
  0
LAYER
  5
200
100
AcDbSymbolTableRecord
100
AcDbLayerTableRecord
  2
02_COORD_SYS
 70
0
 62
7
  6
CONTINUOUS
370
-3
390
F
  0
LAYER
  5
201
100
AcDbSymbolTableRecord
100
AcDbLayerTableRecord
  2
03_AXES
 70
0
 62
7
  6
CONTINUOUS
370
-3
390
F
  0
LAYER
  5
202
100
AcDbSymbolTableRecord
100
AcDbLayerTableRecord
  2
04_POINTS
 70
0
 62
7
  6
CONTINUOUS
370
-3
390
F
  0
LAYER
  5
203
100
AcDbSymbolTableRecord
100
AcDbLayerTableRecord
  2
05_CURVES
 70
0
 62
7
  6
CONTINUOUS
370
-3
390
F
  0
LAYER
  5
204
100
AcDbSymbolTableRecord
100
AcDbLayerTableRecord
  2
06_SURFS
 70
0
 62
7
  6
CONTINUOUS
370
-3
390
F
  0
LAYER
  5
205
100
AcDbSymbolTableRecord
100
AcDbLayerTableRecord
  2
07_COSMETICS
 70
0
 62
7
  6
CONTINUOUS
370
-3
390
F
  0
LAYER
  5
206
100
AcDbSymbolTableRecord
100
AcDbLayerTableRecord
  2
10_NOTES
 70
0
 62
7
  6
CONTINUOUS
370
-3
390
F
  0
LAYER
  5
207
100
AcDbSymbolTableRecord
100
AcDbLayerTableRecord
  2
11_NOTES_PUB
 70
0
 62
7
  6
CONTINUOUS
370
-3
390
F
  0
LAYER
  5
208
100
AcDbSymbolTableRecord
100
AcDbLayerTableRecord
  2
13_REF_GTOL
 70
0
 62
7
  6
CONTINUOUS
370
-3
390
F
  0
LAYER
  5
209
100
AcDbSymbolTableRecord
100
AcDbLayerTableRecord
  2
16_MISC
 70
0
 62
7
  6
CONTINUOUS
370
-3
390
F
  0
LAYER
  5
20A
100
AcDbSymbolTableRecord
100
AcDbLayerTableRecord
  2
17_NO_PRINT
 70
0
 62
7
  6
CONTINUOUS
370
-3
390
F
  0
LAYER
  5
20B
100
AcDbSymbolTableRecord
100
AcDbLayerTableRecord
  2
18_DATUM_CAMS_JOINTS
 70
0
 62
7
  6
CONTINUOUS
370
-3
390
F
  0
LAYER
  5
20C
100
AcDbSymbolTableRecord
100
AcDbLayerTableRecord
  2
19_DATUM_FUNCTIONAL
 70
0
 62
7
  6
CONTINUOUS
370
-3
390
F
  0
LAYER
  5
20D
100
AcDbSymbolTableRecord
100
AcDbLayerTableRecord
  2
20_DATUM_KINEMATIC_SCHEME
 70
0
 62
7
  6
CONTINUOUS
370
-3
390
F
  0
LAYER
  5
20E
100
AcDbSymbolTableRecord
100
AcDbLayerTableRecord
  2
4
 70
0
 62
7
  6
CONTINUOUS
370
-3
390
F
  0
LAYER
  5
20F
100
AcDbSymbolTableRecord
100
AcDbLayerTableRecord
  2
7
 70
0
 62
7
  6
CONTINUOUS
370
-3
390
F
  0
ENDTAB
  0
TABLE
  2
STYLE
  5
3
100
AcDbSymbolTable
 70
1
  0
STYLE
  5
11
100
AcDbSymbolTableRecord
100
AcDbTextStyleTableRecord
  2
STANDARD
 70
0
 40
0.0
 41
1.0
 50
0.0
 71
0
 42
0.2
  3
ARIAL.TTF
  4

  0
STYLE
  5
210
100
AcDbSymbolTableRecord
100
AcDbTextStyleTableRecord
  2
TEXTSTYLE_1
 70
0
 40
0.0
 41
0.8
 50
0.0
 71
0
 42
0.2
  3
gdt
  4

  0
ENDTAB
  0
TABLE
  2
VIEW
  5
6
100
AcDbSymbolTable
 70
0
  0
ENDTAB
  0
TABLE
  2
UCS
  5
7
100
AcDbSymbolTable
 70
0
  0
ENDTAB
  0
TABLE
  2
APPID
  5
9
100
AcDbSymbolTable
 70
1
  0
APPID
  5
211
100
AcDbSymbolTableRecord
100
AcDbRegAppTableRecord
  2
ACAD
 70
0
  0
ENDTAB
  0
TABLE
  2
BLOCK_RECORD
  5
1
100
AcDbSymbolTable
 70
0
  0
BLOCK_RECORD
  5
212
100
AcDbSymbolTableRecord
100
AcDbBlockTableRecord
  2
*Model_Space
  0
BLOCK_RECORD
  5
213
100
AcDbSymbolTableRecord
100
AcDbBlockTableRecord
  2
*Paper_Space
  0
BLOCK_RECORD
  5
214
100
AcDbSymbolTableRecord
100
AcDbBlockTableRecord
  2
_FILLED
  0
ENDTAB
  0
TABLE
  2
DIMSTYLE
  5
A
100
AcDbSymbolTable
 70
1
100
AcDbDimStyleTable
 71
0
  0
DIMSTYLE
105
215
100
AcDbSymbolTableRecord
100
AcDbDimStyleTableRecord
  2
STANDARD
 70
0
  3

  4

 40
1.0
 41
10.9051226551
 42
1.0
 43
0.38
 44
1.0
 45
0.0
 46
0.0
 47
0.01
 48
0.01
140
15.2671717172
141
0.09
142
0.0
143
25.4
144
1.0
145
0.0
146
1.0
147
0.625
 71
1
 72
0
 73
0
 74
0
 75
0
 76
0
 77
1
 78
8
 79
2
170
0
171
1
172
0
173
0
174
0
175
0
176
0
177
0
178
0
270
2
179
2
271
2
272
2
273
2
274
2
275
0
280
0
281
0
282
0
283
1
284
8
285
0
286
0
287
3
288
0
340
11
278
46
341
214
342
214
343
214
344
214
  0
ENDTAB
  0
ENDSEC
  0
SECTION
  2
BLOCKS
  0
BLOCK
  5
20
100
AcDbEntity
  8
0
100
AcDbBlockBegin
  2
*Model_Space
 70
0
 10
0.0
 20
0.0
 30
0.0
  3
*Model_Space
  1

  0
ENDBLK
  5
21
100
AcDbEntity
  8
0
100
AcDbBlockEnd
  0
BLOCK
  5
1C
100
AcDbEntity
  8
0
100
AcDbBlockBegin
  2
*Paper_Space
 70
0
 10
0.0
 20
0.0
 30
0.0
  3
*Paper_Space
  1

  0
ENDBLK
  5
1D
100
AcDbEntity
  8
0
100
AcDbBlockEnd
  0
BLOCK
  5
216
100
AcDbEntity
  8
0
100
AcDbBlockBegin
  2
_FILLED
 70
64
 10
0.0
 20
0.0
  3
_FILLED
  1

  0
SOLID
  5
217
100
AcDbEntity
  8
0
  6
BYBLOCK
 62
0
100
AcDbTrace
 10
0.0
 20
0.0
 11
-1.0
 21
0.25
 12
-1.0
 22
-0.25
 13
-1.0
 23
-0.25
  0
ENDBLK
  5
218
100
AcDbEntity
  8
0
  6
BYBLOCK
 62
0
100
AcDbBlockEnd
  0
ENDSEC
  0
SECTION
  2
ENTITIES
  0
LINE
  5
219
100
AcDbEntity
  8
7
100
AcDbLine
 62
7
  6
BYLAYER
 10
491.1342794306
 20
95.9357142857
 11
476.8515373375
 21
95.9357142857
  0
LINE
  5
21A
100
AcDbEntity
  8
7
100
AcDbLine
 62
7
  6
BYLAYER
 10
473.2808231233
 20
97.4357142857
 11
494.7051117855
 21
97.4357177305
  0
LINE
  5
21B
100
AcDbEntity
  8
7
100
AcDbLine
 62
7
  6
BYLAYER
 10
498.9929657661
 20
107.9357142857
 11
468.9929657661
 21
107.9357142857
  0
LINE
  5
21C
100
AcDbEntity
  8
7
100
AcDbLine
 62
7
  6
BYLAYER
 10
499.4929657661
 20
110.9357142857
 11
468.4929657661
 21
110.9357142857
  0
LINE
  5
21D
100
AcDbEntity
  8
7
100
AcDbLine
 62
7
  6
BYLAYER
 10
500.4929657661
 20
111.9357142857
 11
467.4929657661
 21
111.9357142857
  0
LINE
  5
21E
100
AcDbEntity
  8
7
100
AcDbLine
 62
7
  6
BYLAYER
 10
500.4929657661
 20
112.9357142857
 11
467.4929657661
 21
112.9357142857
  0
LINE
  5
21F
100
AcDbEntity
  8
7
100
AcDbLine
 62
7
  6
BYLAYER
 10
500.4929657661
 20
115.9357142857
 11
467.4929657661
 21
115.9357142857
  0
LINE
  5
220
100
AcDbEntity
  8
7
100
AcDbLine
 62
7
  6
BYLAYER
 10
467.4929657661
 20
119.9357142857
 11
500.4929657661
 21
119.9357142857
  0
LINE
  5
221
100
AcDbEntity
  8
7
100
AcDbLine
 62
7
  6
BYLAYER
 10
456.9875730972
 20
120.9357142857
 11
511.9875904121
 21
120.9357142857
  0
LINE
  5
222
100
AcDbEntity
  8
7
100
AcDbLine
 62
7
  6
BYLAYER
 10
456.9875730972
 20
138.4357142857
 11
511.9995811831
 21
138.4357142857
  0
LINE
  5
223
100
AcDbEntity
  8
7
100
AcDbLine
 62
7
  6
BYLAYER
 10
412.1982281225
 20
174.1202502657
 11
456.9875730972
 21
174.1202502657
  0
LINE
  5
224
100
AcDbEntity
  8
7
100
AcDbLine
 62
7
  6
BYLAYER
 10
452.8615134386
 20
177.7677502657
 11
454.1061127004
 21
177.7677502657
  0
LINE
  5
225
100
AcDbEntity
  8
7
100
AcDbLine
 62
7
  6
BYLAYER
 10
456.9875730972
 20
179.1202502657
 11
454.1982281225
 21
179.1202502657
  0
LINE
  5
226
100
AcDbEntity
  8
7
100
AcDbLine
 62
7
  6
BYLAYER
 10
452.7580285046
 20
179.4437130853
 11
449.7580285046
 21
179.4437130853
  0
LINE
  5
227
100
AcDbEntity
  8
7
100
AcDbLine
 62
7
  6
BYLAYER
 10
415.3982281225
 20
180.8702502657
 11
428.8982281225
 21
180.8702502657
  0
LINE
  5
228
100
AcDbEntity
  8
7
100
AcDbLine
 62
7
  6
BYLAYER
 10
445.4875730972
 20
181.1202502657
 11
449.7580285046
 21
181.1202502657
  0
LINE
  5
229
100
AcDbEntity
  8
7
100
AcDbLine
 62
7
  6
BYLAYER
 10
452.7580285046
 20
181.1202502657
 11
452.8615134386
 21
181.1202502657
  0
LINE
  5
22A
100
AcDbEntity
  8
7
100
AcDbLine
 62
7
  6
BYLAYER
 10
454.1061127004
 20
181.1202502657
 11
454.1982281225
 21
181.1202502657
  0
LINE
  5
22B
100
AcDbEntity
  8
7
100
AcDbLine
 62
7
  6
BYLAYER
 10
452.7580285046
 20
184.1202502657
 11
449.7580285046
 21
184.1202502657
  0
LINE
  5
22C
100
AcDbEntity
  8
7
100
AcDbLine
 62
7
  6
BYLAYER
 10
445.4875730972
 20
187.1202502657
 11
449.7580285046
 21
187.1202502657
  0
LINE
  5
22D
100
AcDbEntity
  8
7
100
AcDbLine
 62
7
  6
BYLAYER
 10
452.7580285046
 20
187.1202502657
 11
452.8615134386
 21
187.1202502657
  0
LINE
  5
22E
100
AcDbEntity
  8
7
100
AcDbLine
 62
7
  6
BYLAYER
 10
454.1061127004
 20
187.1202502657
 11
454.1982281225
 21
187.1202502657
  0
LINE
  5
22F
100
AcDbEntity
  8
7
100
AcDbLine
 62
7
  6
BYLAYER
 10
428.8982281225
 20
187.3702502657
 11
415.3982281225
 21
187.3702502657
  0
LINE
  5
230
100
AcDbEntity
  8
7
100
AcDbLine
 62
7
  6
BYLAYER
 10
452.7580285046
 20
188.7967874462
 11
449.7580285046
 21
188.7967874462
  0
LINE
  5
231
100
AcDbEntity
  8
7
100
AcDbLine
 62
7
  6
BYLAYER
 10
452.8615134386
 20
190.4727502657
 11
454.1061127004
 21
190.4727502657
  0
LINE
  5
232
100
AcDbEntity
  8
7
100
AcDbLine
 62
7
  6
BYLAYER
 10
452.8615134386
 20
207.7677502657
 11
454.1061127004
 21
207.7677502657
  0
LINE
  5
233
100
AcDbEntity
  8
7
100
AcDbLine
 62
7
  6
BYLAYER
 10
452.7580285046
 20
209.4437130853
 11
449.7580285046
 21
209.4437130853
  0
LINE
  5
234
100
AcDbEntity
  8
7
100
AcDbLine
 62
7
  6
BYLAYER
 10
415.3982281225
 20
210.8702502657
 11
428.8982281225
 21
210.8702502657
  0
LINE
  5
235
100
AcDbEntity
  8
7
100
AcDbLine
 62
7
  6
BYLAYER
 10
445.4875730972
 20
211.1202502657
 11
449.7580285046
 21
211.1202502657
  0
LINE
  5
236
100
AcDbEntity
  8
7
100
AcDbLine
 62
7
  6
BYLAYER
 10
452.7580285046
 20
211.1202502657
 11
452.8615134386
 21
211.1202502657
  0
LINE
  5
237
100
AcDbEntity
  8
7
100
AcDbLine
 62
7
  6
BYLAYER
 10
454.1061127004
 20
211.1202502657
 11
454.1982281225
 21
211.1202502657
  0
LINE
  5
238
100
AcDbEntity
  8
7
100
AcDbLine
 62
7
  6
BYLAYER
 10
452.7580285046
 20
214.1202502657
 11
449.7580285046
 21
214.1202502657
  0
LINE
  5
239
100
AcDbEntity
  8
7
100
AcDbLine
 62
7
  6
BYLAYER
 10
445.4875730972
 20
217.1202502657
 11
449.7580285046
 21
217.1202502657
  0
LINE
  5
23A
100
AcDbEntity
  8
7
100
AcDbLine
 62
7
  6
BYLAYER
 10
452.7580285046
 20
217.1202502657
 11
452.8615134386
 21
217.1202502657
  0
LINE
  5
23B
100
AcDbEntity
  8
7
100
AcDbLine
 62
7
  6
BYLAYER
 10
454.1061127004
 20
217.1202502657
 11
454.1982281225
 21
217.1202502657
  0
LINE
  5
23C
100
AcDbEntity
  8
7
100
AcDbLine
 62
7
  6
BYLAYER
 10
428.8982281225
 20
217.3702502657
 11
415.3982281225
 21
217.3702502657
  0
LINE
  5
23D
100
AcDbEntity
  8
7
100
AcDbLine
 62
7
  6
BYLAYER
 10
452.7580285046
 20
218.7967874462
 11
449.7580285046
 21
218.7967874462
  0
LINE
  5
23E
100
AcDbEntity
  8
7
100
AcDbLine
 62
7
  6
BYLAYER
 10
454.1982281225
 20
219.1202502657
 11
456.9875730972
 21
219.1202502657
  0
LINE
  5
23F
100
AcDbEntity
  8
7
100
AcDbLine
 62
7
  6
BYLAYER
 10
452.8615134386
 20
220.4727502657
 11
454.1061127004
 21
220.4727502657
  0
LINE
  5
240
100
AcDbEntity
  8
7
100
AcDbLine
 62
7
  6
BYLAYER
 10
412.1982281225
 20
224.1202502657
 11
456.9875730972
 21
224.1202502657
  0
LINE
  5
241
100
AcDbEntity
  8
7
100
AcDbLine
 62
7
  6
BYLAYER
 10
467.4929657661
 20
111.9357142857
 11
468.4929657661
 21
110.9357142857
  0
LINE
  5
242
100
AcDbEntity
  8
7
100
AcDbLine
 62
7
  6
BYLAYER
 10
407.1982281225
 20
1140.5139080625
 11
407.1982281225
 21
1100.5139080625
  0
LINE
  5
243
100
AcDbEntity
  8
7
100
AcDbLine
 62
7
  6
BYLAYER
 10
407.1982281225
 20
696.6775053803
 11
407.1982281225
 21
656.6775053803
  0
LINE
  5
244
100
AcDbEntity
  8
7
100
AcDbLine
 62
7
  6
BYLAYER
 10
407.1982281225
 20
219.1202502657
 11
407.1982281225
 21
179.1202502657
  0
LINE
  5
245
100
AcDbEntity
  8
7
100
AcDbLine
 62
7
  6
BYLAYER
 10
445.4875730972
 20
181.1203732417
 11
445.4875730972
 21
187.1201272898
  0
LINE
  5
246
100
AcDbEntity
  8
7
100
AcDbLine
 62
7
  6
BYLAYER
 10
445.4875730972
 20
211.1203732417
 11
445.4875730972
 21
217.1201272898
  0
LINE
  5
247
100
AcDbEntity
  8
7
100
AcDbLine
 62
7
  6
BYLAYER
 10
445.4875730972
 20
658.6776283562
 11
445.4875730972
 21
664.6773824043
  0
LINE
  5
248
100
AcDbEntity
  8
7
100
AcDbLine
 62
7
  6
BYLAYER
 10
445.4875730972
 20
688.6776283562
 11
445.4875730972
 21
694.6773824043
  0
LINE
  5
249
100
AcDbEntity
  8
7
100
AcDbLine
 62
7
  6
BYLAYER
 10
445.4875730972
 20
1102.5140310384
 11
445.4875730972
 21
1108.5137850865
  0
LINE
  5
24A
100
AcDbEntity
  8
7
100
AcDbLine
 62
7
  6
BYLAYER
 10
445.4875730972
 20
1132.5140310384
 11
445.4875730972
 21
1138.5137850865
  0
LINE
  5
24B
100
AcDbEntity
  8
7
100
AcDbLine
 62
7
  6
BYLAYER
 10
449.7580285046
 20
179.4437130853
 11
449.7580285046
 21
188.7967874462
  0
LINE
  5
24C
100
AcDbEntity
  8
7
100
AcDbLine
 62
7
  6
BYLAYER
 10
449.7580285046
 20
209.4437130853
 11
449.7580285046
 21
218.7967874462
  0
LINE
  5
24D
100
AcDbEntity
  8
7
100
AcDbLine
 62
7
  6
BYLAYER
 10
449.7580285046
 20
657.0009681998
 11
449.7580285046
 21
666.3540425607
  0
LINE
  5
24E
100
AcDbEntity
  8
7
100
AcDbLine
 62
7
  6
BYLAYER
 10
449.7580285046
 20
687.0009681998
 11
449.7580285046
 21
696.3540425607
  0
LINE
  5
24F
100
AcDbEntity
  8
7
100
AcDbLine
 62
7
  6
BYLAYER
 10
449.7580285046
 20
1100.837370882
 11
449.7580285046
 21
1110.1904452429
  0
LINE
  5
250
100
AcDbEntity
  8
7
100
AcDbLine
 62
7
  6
BYLAYER
 10
449.7580285046
 20
1130.837370882
 11
449.7580285046
 21
1140.1904452429
  0
LINE
  5
251
100
AcDbEntity
  8
7
100
AcDbLine
 62
7
  6
BYLAYER
 10
450.1982281225
 20
1145.5139080625
 11
450.1982281225
 21
1140.1904452429
  0
LINE
  5
252
100
AcDbEntity
  8
7
100
AcDbLine
 62
7
  6
BYLAYER
 10
450.1982281225
 20
1130.837370882
 11
450.1982281225
 21
1110.1904452429
  0
LINE
  5
253
100
AcDbEntity
  8
7
100
AcDbLine
 62
7
  6
BYLAYER
 10
450.1982281225
 20
1100.837370882
 11
450.1982281225
 21
1095.5139080625
  0
LINE
  5
254
100
AcDbEntity
  8
7
100
AcDbLine
 62
7
  6
BYLAYER
 10
450.1982281225
 20
701.6775053803
 11
450.1982281225
 21
696.3540425607
  0
LINE
  5
255
100
AcDbEntity
  8
7
100
AcDbLine
 62
7
  6
BYLAYER
 10
450.1982281225
 20
687.0009681998
 11
450.1982281225
 21
666.3540425607
  0
LINE
  5
256
100
AcDbEntity
  8
7
100
AcDbLine
 62
7
  6
BYLAYER
 10
450.1982281225
 20
657.0009681998
 11
450.1982281225
 21
651.6775053803
  0
LINE
  5
257
100
AcDbEntity
  8
7
100
AcDbLine
 62
7
  6
BYLAYER
 10
450.1982281225
 20
224.1202502657
 11
450.1982281225
 21
218.7967874462
  0
LINE
  5
258
100
AcDbEntity
  8
7
100
AcDbLine
 62
7
  6
BYLAYER
 10
450.1982281225
 20
209.4437130853
 11
450.1982281225
 21
188.7967874462
  0
LINE
  5
259
100
AcDbEntity
  8
7
100
AcDbLine
 62
7
  6
BYLAYER
 10
450.1982281225
 20
179.4437130853
 11
450.1982281225
 21
174.1202502657
  0
LINE
  5
25A
100
AcDbEntity
  8
7
100
AcDbLine
 62
7
  6
BYLAYER
 10
452.7580285046
 20
1140.1904452429
 11
452.7580285046
 21
1130.837370882
  0
LINE
  5
25B
100
AcDbEntity
  8
7
100
AcDbLine
 62
7
  6
BYLAYER
 10
452.7580285046
 20
1110.1904452429
 11
452.7580285046
 21
1100.837370882
  0
LINE
  5
25C
100
AcDbEntity
  8
7
100
AcDbLine
 62
7
  6
BYLAYER
 10
452.7580285046
 20
696.3540425607
 11
452.7580285046
 21
687.0009681998
  0
LINE
  5
25D
100
AcDbEntity
  8
7
100
AcDbLine
 62
7
  6
BYLAYER
 10
452.7580285046
 20
666.3540425607
 11
452.7580285046
 21
657.0009681998
  0
LINE
  5
25E
100
AcDbEntity
  8
7
100
AcDbLine
 62
7
  6
BYLAYER
 10
452.7580285046
 20
218.7967874462
 11
452.7580285046
 21
209.4437130853
  0
LINE
  5
25F
100
AcDbEntity
  8
7
100
AcDbLine
 62
7
  6
BYLAYER
 10
452.7580285046
 20
188.7967874462
 11
452.7580285046
 21
179.4437130853
  0
LINE
  5
260
100
AcDbEntity
  8
7
100
AcDbLine
 62
7
  6
BYLAYER
 10
452.8615134386
 20
177.7677502657
 11
452.8615134386
 21
190.4727502657
  0
LINE
  5
261
100
AcDbEntity
  8
7
100
AcDbLine
 62
7
  6
BYLAYER
 10
452.8615134386
 20
207.7677502657
 11
452.8615134386
 21
220.4727502657
  0
LINE
  5
262
100
AcDbEntity
  8
7
100
AcDbLine
 62
7
  6
BYLAYER
 10
452.8615134386
 20
655.3250053803
 11
452.8615134386
 21
668.0300053803
  0
LINE
  5
263
100
AcDbEntity
  8
7
100
AcDbLine
 62
7
  6
BYLAYER
 10
452.8615134386
 20
685.3250053803
 11
452.8615134386
 21
698.0300053803
  0
LINE
  5
264
100
AcDbEntity
  8
7
100
AcDbLine
 62
7
  6
BYLAYER
 10
452.8615134386
 20
1099.1614080625
 11
452.8615134386
 21
1111.8664080625
  0
LINE
  5
265
100
AcDbEntity
  8
7
100
AcDbLine
 62
7
  6
BYLAYER
 10
452.8615134386
 20
1129.1614080625
 11
452.8615134386
 21
1141.8664080625
  0
LINE
  5
266
100
AcDbEntity
  8
7
100
AcDbLine
 62
7
  6
BYLAYER
 10
454.1061127004
 20
1141.8664080625
 11
454.1061127004
 21
1129.1614080625
  0
LINE
  5
267
100
AcDbEntity
  8
7
100
AcDbLine
 62
7
  6
BYLAYER
 10
454.1061127004
 20
1111.8664080625
 11
454.1061127004
 21
1099.1614080625
  0
LINE
  5
268
100
AcDbEntity
  8
7
100
AcDbLine
 62
7
  6
BYLAYER
 10
454.1061127004
 20
698.0300053803
 11
454.1061127004
 21
685.3250053803
  0
LINE
  5
269
100
AcDbEntity
  8
7
100
AcDbLine
 62
7
  6
BYLAYER
 10
454.1061127004
 20
668.0300053803
 11
454.1061127004
 21
655.3250053803
  0
LINE
  5
26A
100
AcDbEntity
  8
7
100
AcDbLine
 62
7
  6
BYLAYER
 10
454.1061127004
 20
220.4727502657
 11
454.1061127004
 21
207.7677502657
  0
LINE
  5
26B
100
AcDbEntity
  8
7
100
AcDbLine
 62
7
  6
BYLAYER
 10
454.1061127004
 20
190.4727502657
 11
454.1061127004
 21
177.7677502657
  0
LINE
  5
26C
100
AcDbEntity
  8
7
100
AcDbLine
 62
7
  6
BYLAYER
 10
454.1982281225
 20
174.1202502657
 11
454.1982281225
 21
224.1202502657
  0
LINE
  5
26D
100
AcDbEntity
  8
7
100
AcDbLine
 62
7
  6
BYLAYER
 10
454.1982281225
 20
651.6775053803
 11
454.1982281225
 21
701.6775053803
  0
LINE
  5
26E
100
AcDbEntity
  8
7
100
AcDbLine
 62
7
  6
BYLAYER
 10
454.1982281225
 20
1095.5139080625
 11
454.1982281225
 21
1145.5139080625
  0
LINE
  5
26F
100
AcDbEntity
  8
7
100
AcDbLine
 62
7
  6
BYLAYER
 10
456.9875730972
 20
1194.4357142857
 11
456.9875730972
 21
120.9357142857
  0
LINE
  5
270
100
AcDbEntity
  8
7
100
AcDbLine
 62
7
  6
BYLAYER
 10
460.9875730972
 20
120.9357142857
 11
460.9875730972
 21
1194.4357142857
  0
LINE
  5
271
100
AcDbEntity
  8
7
100
AcDbLine
 62
7
  6
BYLAYER
 10
412.1982281225
 20
651.6775053803
 11
456.9875730972
 21
651.6775053803
  0
LINE
  5
272
100
AcDbEntity
  8
7
100
AcDbLine
 62
7
  6
BYLAYER
 10
452.8615134386
 20
655.3250053803
 11
454.1061127004
 21
655.3250053803
  0
LINE
  5
273
100
AcDbEntity
  8
7
100
AcDbLine
 62
7
  6
BYLAYER
 10
467.4929657661
 20
111.9357142857
 11
467.4929657661
 21
119.9357142857
  0
LINE
  5
274
100
AcDbEntity
  8
7
100
AcDbLine
 62
7
  6
BYLAYER
 10
467.7347379798
 20
1195.4357142857
 11
467.7347379798
 21
1194.4357142857
  0
LINE
  5
275
100
AcDbEntity
  8
7
100
AcDbLine
 62
7
  6
BYLAYER
 10
467.7375730972
 20
1200.9357142857
 11
467.7375730972
 21
1195.4357142857
  0
LINE
  5
276
100
AcDbEntity
  8
7
100
AcDbLine
 62
7
  6
BYLAYER
 10
468.9929657661
 20
107.9357142857
 11
468.9929657661
 21
110.9357142857
  0
LINE
  5
277
100
AcDbEntity
  8
7
100
AcDbLine
 62
7
  6
BYLAYER
 10
479.9875904121
 20
1194.4357142857
 11
479.9875904121
 21
120.9357142857
  0
LINE
  5
278
100
AcDbEntity
  8
7
100
AcDbLine
 62
7
  6
BYLAYER
 10
480.4875904121
 20
120.9357142857
 11
480.4875904121
 21
1194.4357142857
  0
LINE
  5
279
100
AcDbEntity
  8
7
100
AcDbLine
 62
7
  6
BYLAYER
 10
483.2375730972
 20
1200.9357142857
 11
483.2375730972
 21
1195.4357142857
  0
LINE
  5
27A
100
AcDbEntity
  8
7
100
AcDbLine
 62
7
  6
BYLAYER
 10
483.2404082147
 20
1195.4357142857
 11
483.2404082147
 21
1194.4357142857
  0
LINE
  5
27B
100
AcDbEntity
  8
7
100
AcDbLine
 62
7
  6
BYLAYER
 10
488.4875904121
 20
1194.4357142857
 11
488.4875904121
 21
120.9357142857
  0
LINE
  5
27C
100
AcDbEntity
  8
7
100
AcDbLine
 62
7
  6
BYLAYER
 10
488.9875904121
 20
120.9357142857
 11
488.9875904121
 21
1194.4357142857
  0
LINE
  5
27D
100
AcDbEntity
  8
7
100
AcDbLine
 62
7
  6
BYLAYER
 10
490.2347379798
 20
1197.2357142857
 11
490.2347379798
 21
1196.2357142857
  0
LINE
  5
27E
100
AcDbEntity
  8
7
100
AcDbLine
 62
7
  6
BYLAYER
 10
490.2375730972
 20
1202.7357142857
 11
490.2375730972
 21
1197.2357142857
  0
LINE
  5
27F
100
AcDbEntity
  8
7
100
AcDbLine
 62
7
  6
BYLAYER
 10
490.2375730972
 20
1196.2357142857
 11
490.2375730972
 21
1195.4357142857
  0
LINE
  5
280
100
AcDbEntity
  8
7
100
AcDbLine
 62
7
  6
BYLAYER
 10
491.9875730972
 20
1204.9357142857
 11
491.9875730972
 21
1203.7357142857
  0
LINE
  5
281
100
AcDbEntity
  8
7
100
AcDbLine
 62
7
  6
BYLAYER
 10
498.9929657661
 20
107.9357142857
 11
498.9929657661
 21
110.9357142857
  0
LINE
  5
282
100
AcDbEntity
  8
7
100
AcDbLine
 62
7
  6
BYLAYER
 10
500.4929657661
 20
111.9357142857
 11
500.4929657661
 21
119.9357142857
  0
LINE
  5
283
100
AcDbEntity
  8
7
100
AcDbLine
 62
7
  6
BYLAYER
 10
456.9875730972
 20
656.6775053803
 11
454.1982281225
 21
656.6775053803
  0
LINE
  5
284
100
AcDbEntity
  8
7
100
AcDbLine
 62
7
  6
BYLAYER
 10
452.7580285046
 20
657.0009681998
 11
449.7580285046
 21
657.0009681998
  0
LINE
  5
285
100
AcDbEntity
  8
7
100
AcDbLine
 62
7
  6
BYLAYER
 10
415.3982281225
 20
658.4275053803
 11
428.8982281225
 21
658.4275053803
  0
LINE
  5
286
100
AcDbEntity
  8
7
100
AcDbLine
 62
7
  6
BYLAYER
 10
445.4875730972
 20
658.6775053803
 11
449.7580285046
 21
658.6775053803
  0
LINE
  5
287
100
AcDbEntity
  8
7
100
AcDbLine
 62
7
  6
BYLAYER
 10
452.7580285046
 20
658.6775053803
 11
452.8615134386
 21
658.6775053803
  0
LINE
  5
288
100
AcDbEntity
  8
7
100
AcDbLine
 62
7
  6
BYLAYER
 10
454.1061127004
 20
658.6775053803
 11
454.1982281225
 21
658.6775053803
  0
LINE
  5
289
100
AcDbEntity
  8
7
100
AcDbLine
 62
7
  6
BYLAYER
 10
452.7580285046
 20
661.6775053803
 11
449.7580285046
 21
661.6775053803
  0
LINE
  5
28A
100
AcDbEntity
  8
7
100
AcDbLine
 62
7
  6
BYLAYER
 10
445.4875730972
 20
664.6775053803
 11
449.7580285046
 21
664.6775053803
  0
LINE
  5
28B
100
AcDbEntity
  8
7
100
AcDbLine
 62
7
  6
BYLAYER
 10
452.7580285046
 20
664.6775053803
 11
452.8615134386
 21
664.6775053803
  0
LINE
  5
28C
100
AcDbEntity
  8
7
100
AcDbLine
 62
7
  6
BYLAYER
 10
454.1061127004
 20
664.6775053803
 11
454.1982281225
 21
664.6775053803
  0
LINE
  5
28D
100
AcDbEntity
  8
7
100
AcDbLine
 62
7
  6
BYLAYER
 10
428.8982281225
 20
664.9275053803
 11
415.3982281225
 21
664.9275053803
  0
LINE
  5
28E
100
AcDbEntity
  8
7
100
AcDbLine
 62
7
  6
BYLAYER
 10
452.7580285046
 20
666.3540425607
 11
449.7580285046
 21
666.3540425607
  0
LINE
  5
28F
100
AcDbEntity
  8
7
100
AcDbLine
 62
7
  6
BYLAYER
 10
452.8615134386
 20
668.0300053803
 11
454.1061127004
 21
668.0300053803
  0
LINE
  5
290
100
AcDbEntity
  8
7
100
AcDbLine
 62
7
  6
BYLAYER
 10
452.8615134386
 20
685.3250053803
 11
454.1061127004
 21
685.3250053803
  0
LINE
  5
291
100
AcDbEntity
  8
7
100
AcDbLine
 62
7
  6
BYLAYER
 10
452.7580285046
 20
687.0009681998
 11
449.7580285046
 21
687.0009681998
  0
LINE
  5
292
100
AcDbEntity
  8
7
100
AcDbLine
 62
7
  6
BYLAYER
 10
415.3982281225
 20
688.4275053803
 11
428.8982281225
 21
688.4275053803
  0
LINE
  5
293
100
AcDbEntity
  8
7
100
AcDbLine
 62
7
  6
BYLAYER
 10
445.4875730972
 20
688.6775053803
 11
449.7580285046
 21
688.6775053803
  0
LINE
  5
294
100
AcDbEntity
  8
7
100
AcDbLine
 62
7
  6
BYLAYER
 10
452.7580285046
 20
688.6775053803
 11
452.8615134386
 21
688.6775053803
  0
LINE
  5
295
100
AcDbEntity
  8
7
100
AcDbLine
 62
7
  6
BYLAYER
 10
454.1061127004
 20
688.6775053803
 11
454.1982281225
 21
688.6775053803
  0
LINE
  5
296
100
AcDbEntity
  8
7
100
AcDbLine
 62
7
  6
BYLAYER
 10
452.7580285046
 20
691.6775053803
 11
449.7580285046
 21
691.6775053803
  0
LINE
  5
297
100
AcDbEntity
  8
7
100
AcDbLine
 62
7
  6
BYLAYER
 10
503.5870409657
 20
1194.4357142857
 11
503.5870409657
 21
120.9357142857
  0
LINE
  5
298
100
AcDbEntity
  8
7
100
AcDbLine
 62
7
  6
BYLAYER
 10
503.9875730972
 20
1204.9357142857
 11
503.9875730972
 21
1203.7357142857
  0
LINE
  5
299
100
AcDbEntity
  8
7
100
AcDbLine
 62
7
  6
BYLAYER
 10
505.7375730972
 20
1202.7357142857
 11
505.7375730972
 21
1197.2357142857
  0
LINE
  5
29A
100
AcDbEntity
  8
7
100
AcDbLine
 62
7
  6
BYLAYER
 10
505.7375730972
 20
1196.2357142857
 11
505.7375730972
 21
1195.4357142857
  0
LINE
  5
29B
100
AcDbEntity
  8
7
100
AcDbLine
 62
7
  6
BYLAYER
 10
505.7404082147
 20
1197.2357142857
 11
505.7404082147
 21
1196.2357142857
  0
LINE
  5
29C
100
AcDbEntity
  8
7
100
AcDbLine
 62
7
  6
BYLAYER
 10
506.3342522446
 20
120.9357142857
 11
506.3342522446
 21
1194.4357142857
  0
LINE
  5
29D
100
AcDbEntity
  8
7
100
AcDbLine
 62
7
  6
BYLAYER
 10
510.5370326679
 20
1194.4357142857
 11
510.5370326679
 21
120.9357142857
  0
LINE
  5
29E
100
AcDbEntity
  8
7
100
AcDbLine
 62
7
  6
BYLAYER
 10
511.9875904121
 20
120.9357142857
 11
511.9875904121
 21
1194.4357142857
  0
LINE
  5
29F
100
AcDbEntity
  8
7
100
AcDbLine
 62
7
  6
BYLAYER
 10
512.0035086984
 20
138.4357142857
 11
512.0035086984
 21
828.4357142857
  0
LINE
  5
2A0
100
AcDbEntity
  8
7
100
AcDbLine
 62
7
  6
BYLAYER
 10
445.4875730972
 20
694.6775053803
 11
449.7580285046
 21
694.6775053803
  0
LINE
  5
2A1
100
AcDbEntity
  8
7
100
AcDbLine
 62
7
  6
BYLAYER
 10
452.7580285046
 20
694.6775053803
 11
452.8615134386
 21
694.6775053803
  0
LINE
  5
2A2
100
AcDbEntity
  8
7
100
AcDbLine
 62
7
  6
BYLAYER
 10
454.1061127004
 20
694.6775053803
 11
454.1982281225
 21
694.6775053803
  0
LINE
  5
2A3
100
AcDbEntity
  8
7
100
AcDbLine
 62
7
  6
BYLAYER
 10
428.8982281225
 20
694.9275053803
 11
415.3982281225
 21
694.9275053803
  0
LINE
  5
2A4
100
AcDbEntity
  8
7
100
AcDbLine
 62
7
  6
BYLAYER
 10
452.7580285046
 20
696.3540425607
 11
449.7580285046
 21
696.3540425607
  0
LINE
  5
2A5
100
AcDbEntity
  8
7
100
AcDbLine
 62
7
  6
BYLAYER
 10
454.1982281225
 20
696.6775053803
 11
456.9875730972
 21
696.6775053803
  0
LINE
  5
2A6
100
AcDbEntity
  8
7
100
AcDbLine
 62
7
  6
BYLAYER
 10
452.8615134386
 20
698.0300053803
 11
454.1061127004
 21
698.0300053803
  0
LINE
  5
2A7
100
AcDbEntity
  8
7
100
AcDbLine
 62
7
  6
BYLAYER
 10
412.1982281225
 20
701.6775053803
 11
456.9875730972
 21
701.6775053803
  0
LINE
  5
2A8
100
AcDbEntity
  8
7
100
AcDbLine
 62
7
  6
BYLAYER
 10
510.5370326679
 20
828.4357142857
 11
511.9875904121
 21
828.4357142857
  0
LINE
  5
2A9
100
AcDbEntity
  8
7
100
AcDbLine
 62
7
  6
BYLAYER
 10
500.4929657661
 20
111.9357142857
 11
499.4929657661
 21
110.9357142857
  0
LINE
  5
2AA
100
AcDbEntity
  8
7
100
AcDbLine
 62
7
  6
BYLAYER
 10
412.1982281225
 20
1095.5139080625
 11
456.9875730972
 21
1095.5139080625
  0
LINE
  5
2AB
100
AcDbEntity
  8
7
100
AcDbLine
 62
7
  6
BYLAYER
 10
452.8615134386
 20
1099.1614080625
 11
454.1061127004
 21
1099.1614080625
  0
LINE
  5
2AC
100
AcDbEntity
  8
7
100
AcDbLine
 62
7
  6
BYLAYER
 10
456.9875730972
 20
1100.5139080625
 11
454.1982281225
 21
1100.5139080625
  0
LINE
  5
2AD
100
AcDbEntity
  8
7
100
AcDbLine
 62
7
  6
BYLAYER
 10
452.7580285046
 20
1100.837370882
 11
449.7580285046
 21
1100.837370882
  0
LINE
  5
2AE
100
AcDbEntity
  8
7
100
AcDbLine
 62
7
  6
BYLAYER
 10
415.3982281225
 20
1102.2639080625
 11
428.8982281225
 21
1102.2639080625
  0
LINE
  5
2AF
100
AcDbEntity
  8
7
100
AcDbLine
 62
7
  6
BYLAYER
 10
445.4875730972
 20
1102.5139080625
 11
449.7580285046
 21
1102.5139080625
  0
LINE
  5
2B0
100
AcDbEntity
  8
7
100
AcDbLine
 62
7
  6
BYLAYER
 10
452.7580285046
 20
1102.5139080625
 11
452.8615134386
 21
1102.5139080625
  0
LINE
  5
2B1
100
AcDbEntity
  8
7
100
AcDbLine
 62
7
  6
BYLAYER
 10
454.1061127004
 20
1102.5139080625
 11
454.1982281225
 21
1102.5139080625
  0
LINE
  5
2B2
100
AcDbEntity
  8
7
100
AcDbLine
 62
7
  6
BYLAYER
 10
452.7580285046
 20
1105.5139080625
 11
449.7580285046
 21
1105.5139080625
  0
LINE
  5
2B3
100
AcDbEntity
  8
7
100
AcDbLine
 62
7
  6
BYLAYER
 10
445.4875730972
 20
1108.5139080625
 11
449.7580285046
 21
1108.5139080625
  0
LINE
  5
2B4
100
AcDbEntity
  8
7
100
AcDbLine
 62
7
  6
BYLAYER
 10
452.7580285046
 20
1108.5139080625
 11
452.8615134386
 21
1108.5139080625
  0
LINE
  5
2B5
100
AcDbEntity
  8
7
100
AcDbLine
 62
7
  6
BYLAYER
 10
454.1061127004
 20
1108.5139080625
 11
454.1982281225
 21
1108.5139080625
  0
LINE
  5
2B6
100
AcDbEntity
  8
7
100
AcDbLine
 62
7
  6
BYLAYER
 10
428.8982281225
 20
1108.7639080625
 11
415.3982281225
 21
1108.7639080625
  0
LINE
  5
2B7
100
AcDbEntity
  8
7
100
AcDbLine
 62
7
  6
BYLAYER
 10
452.7580285046
 20
1110.1904452429
 11
449.7580285046
 21
1110.1904452429
  0
LINE
  5
2B8
100
AcDbEntity
  8
7
100
AcDbLine
 62
7
  6
BYLAYER
 10
452.8615134386
 20
1111.8664080625
 11
454.1061127004
 21
1111.8664080625
  0
LINE
  5
2B9
100
AcDbEntity
  8
7
100
AcDbLine
 62
7
  6
BYLAYER
 10
452.8615134386
 20
1129.1614080625
 11
454.1061127004
 21
1129.1614080625
  0
LINE
  5
2BA
100
AcDbEntity
  8
7
100
AcDbLine
 62
7
  6
BYLAYER
 10
452.7580285046
 20
1130.837370882
 11
449.7580285046
 21
1130.837370882
  0
LINE
  5
2BB
100
AcDbEntity
  8
7
100
AcDbLine
 62
7
  6
BYLAYER
 10
415.3982281225
 20
1132.2639080625
 11
428.8982281225
 21
1132.2639080625
  0
LINE
  5
2BC
100
AcDbEntity
  8
7
100
AcDbLine
 62
7
  6
BYLAYER
 10
445.4875730972
 20
1132.5139080625
 11
449.7580285046
 21
1132.5139080625
  0
LINE
  5
2BD
100
AcDbEntity
  8
7
100
AcDbLine
 62
7
  6
BYLAYER
 10
452.7580285046
 20
1132.5139080625
 11
452.8615134386
 21
1132.5139080625
  0
LINE
  5
2BE
100
AcDbEntity
  8
7
100
AcDbLine
 62
7
  6
BYLAYER
 10
454.1061127004
 20
1132.5139080625
 11
454.1982281225
 21
1132.5139080625
  0
LINE
  5
2BF
100
AcDbEntity
  8
7
100
AcDbLine
 62
7
  6
BYLAYER
 10
452.7580285046
 20
1135.5139080625
 11
449.7580285046
 21
1135.5139080625
  0
LINE
  5
2C0
100
AcDbEntity
  8
7
100
AcDbLine
 62
7
  6
BYLAYER
 10
445.4875730972
 20
1138.5139080625
 11
449.7580285046
 21
1138.5139080625
  0
LINE
  5
2C1
100
AcDbEntity
  8
7
100
AcDbLine
 62
7
  6
BYLAYER
 10
452.7580285046
 20
1138.5139080625
 11
452.8615134386
 21
1138.5139080625
  0
LINE
  5
2C2
100
AcDbEntity
  8
7
100
AcDbLine
 62
7
  6
BYLAYER
 10
454.1061127004
 20
1138.5139080625
 11
454.1982281225
 21
1138.5139080625
  0
LINE
  5
2C3
100
AcDbEntity
  8
7
100
AcDbLine
 62
7
  6
BYLAYER
 10
428.8982281225
 20
1138.7639080625
 11
415.3982281225
 21
1138.7639080625
  0
LINE
  5
2C4
100
AcDbEntity
  8
7
100
AcDbLine
 62
7
  6
BYLAYER
 10
452.7580285046
 20
1140.1904452429
 11
449.7580285046
 21
1140.1904452429
  0
LINE
  5
2C5
100
AcDbEntity
  8
7
100
AcDbLine
 62
7
  6
BYLAYER
 10
454.1982281225
 20
1140.5139080625
 11
456.9875730972
 21
1140.5139080625
  0
LINE
  5
2C6
100
AcDbEntity
  8
7
100
AcDbLine
 62
7
  6
BYLAYER
 10
452.8615134386
 20
1141.8664080625
 11
454.1061127004
 21
1141.8664080625
  0
LINE
  5
2C7
100
AcDbEntity
  8
7
100
AcDbLine
 62
7
  6
BYLAYER
 10
412.1982281225
 20
1145.5139080625
 11
456.9875730972
 21
1145.5139080625
  0
LINE
  5
2C8
100
AcDbEntity
  8
7
100
AcDbLine
 62
7
  6
BYLAYER
 10
456.9875730972
 20
1176.9357142857
 11
511.9875904121
 21
1176.9357142857
  0
LINE
  5
2C9
100
AcDbEntity
  8
7
100
AcDbLine
 62
7
  6
BYLAYER
 10
456.9875730972
 20
1194.4357142857
 11
511.9875904121
 21
1194.4357142857
  0
LINE
  5
2CA
100
AcDbEntity
  8
7
100
AcDbLine
 62
7
  6
BYLAYER
 10
505.7375730972
 20
1195.4357142857
 11
490.2375730972
 21
1195.4357142857
  0
LINE
  5
2CB
100
AcDbEntity
  8
7
100
AcDbLine
 62
7
  6
BYLAYER
 10
467.7347379798
 20
1195.4357142857
 11
483.2404082147
 21
1195.4357142857
  0
LINE
  5
2CC
100
AcDbEntity
  8
7
100
AcDbLine
 62
7
  6
BYLAYER
 10
505.7404082147
 20
1196.2357142857
 11
490.2347379798
 21
1196.2357142857
  0
LINE
  5
2CD
100
AcDbEntity
  8
7
100
AcDbLine
 62
7
  6
BYLAYER
 10
490.2347379798
 20
1197.2357142857
 11
505.7404082147
 21
1197.2357142857
  0
LINE
  5
2CE
100
AcDbEntity
  8
7
100
AcDbLine
 62
7
  6
BYLAYER
 10
467.7375730972
 20
1200.9357142857
 11
483.2375730972
 21
1200.9357142857
  0
LINE
  5
2CF
100
AcDbEntity
  8
7
100
AcDbLine
 62
7
  6
BYLAYER
 10
468.7375730972
 20
1201.9357142857
 11
482.2375730972
 21
1201.9357142857
  0
LINE
  5
2D0
100
AcDbEntity
  8
7
100
AcDbLine
 62
7
  6
BYLAYER
 10
472.4875730972
 20
1202.4357142857
 11
478.4875730972
 21
1202.4357142857
  0
LINE
  5
2D1
100
AcDbEntity
  8
7
100
AcDbLine
 62
7
  6
BYLAYER
 10
490.2375730972
 20
1202.7357142857
 11
505.7375730972
 21
1202.7357142857
  0
LINE
  5
2D2
100
AcDbEntity
  8
7
100
AcDbLine
 62
7
  6
BYLAYER
 10
491.2375730972
 20
1203.7357142857
 11
504.7375730972
 21
1203.7357142857
  0
LINE
  5
2D3
100
AcDbEntity
  8
7
100
AcDbLine
 62
7
  6
BYLAYER
 10
494.9875730972
 20
1204.2357142857
 11
500.9875730972
 21
1204.2357142857
  0
LINE
  5
2D4
100
AcDbEntity
  8
7
100
AcDbLine
 62
7
  6
BYLAYER
 10
491.9875730972
 20
1204.9357142857
 11
503.9875730972
 21
1204.9357142857
  0
LINE
  5
2D5
100
AcDbEntity
  8
7
100
AcDbLine
 62
7
  6
BYLAYER
 10
492.9875730972
 20
1205.9357142857
 11
502.9875730972
 21
1205.9357142857
  0
ARC
  5
2D6
100
AcDbEntity
  8
7
100
AcDbCircle
 62
7
  6
BYLAYER
 10
412.1982281225
 20
219.1202502657
 40
5.0
100
AcDbArc
 50
90.0
 51
180.0
  0
ARC
  5
2D7
100
AcDbEntity
  8
7
100
AcDbCircle
 62
7
  6
BYLAYER
 10
412.1982281225
 20
179.1202502657
 40
5.0
100
AcDbArc
 50
180.0
 51
270.0
  0
ARC
  5
2D8
100
AcDbEntity
  8
7
100
AcDbCircle
 62
7
  6
BYLAYER
 10
415.3982281225
 20
184.1202502657
 40
3.25
100
AcDbArc
 50
90.0
 51
270.0
  0
ARC
  5
2D9
100
AcDbEntity
  8
7
100
AcDbCircle
 62
7
  6
BYLAYER
 10
428.8982281225
 20
184.1202502657
 40
3.25
100
AcDbArc
 50
270.0
 51
90.0
  0
ARC
  5
2DA
100
AcDbEntity
  8
7
100
AcDbCircle
 62
7
  6
BYLAYER
 10
415.3982281225
 20
214.1202502657
 40
3.25
100
AcDbArc
 50
90.0
 51
270.0
  0
ARC
  5
2DB
100
AcDbEntity
  8
7
100
AcDbCircle
 62
7
  6
BYLAYER
 10
428.8982281225
 20
214.1202502657
 40
3.25
100
AcDbArc
 50
270.0
 51
90.0
  0
ARC
  5
2DC
100
AcDbEntity
  8
7
100
AcDbCircle
 62
7
  6
BYLAYER
 10
412.1982281225
 20
696.6775053803
 40
5.0
100
AcDbArc
 50
90.0
 51
180.0
  0
ARC
  5
2DD
100
AcDbEntity
  8
7
100
AcDbCircle
 62
7
  6
BYLAYER
 10
412.1982281225
 20
656.6775053803
 40
5.0
100
AcDbArc
 50
180.0
 51
270.0
  0
ARC
  5
2DE
100
AcDbEntity
  8
7
100
AcDbCircle
 62
7
  6
BYLAYER
 10
412.1982281225
 20
1140.5139080625
 40
5.0
100
AcDbArc
 50
90.0
 51
180.0
  0
ARC
  5
2DF
100
AcDbEntity
  8
7
100
AcDbCircle
 62
7
  6
BYLAYER
 10
412.1982281225
 20
1100.5139080625
 40
5.0
100
AcDbArc
 50
180.0
 51
270.0
  0
ARC
  5
2E0
100
AcDbEntity
  8
7
100
AcDbCircle
 62
7
  6
BYLAYER
 10
415.3982281225
 20
661.6775053803
 40
3.25
100
AcDbArc
 50
90.0
 51
270.0
  0
ARC
  5
2E1
100
AcDbEntity
  8
7
100
AcDbCircle
 62
7
  6
BYLAYER
 10
428.8982281225
 20
661.6775053803
 40
3.25
100
AcDbArc
 50
270.0
 51
90.0
  0
ARC
  5
2E2
100
AcDbEntity
  8
7
100
AcDbCircle
 62
7
  6
BYLAYER
 10
415.3982281225
 20
691.6775053803
 40
3.25
100
AcDbArc
 50
90.0
 51
270.0
  0
ARC
  5
2E3
100
AcDbEntity
  8
7
100
AcDbCircle
 62
7
  6
BYLAYER
 10
428.8982281225
 20
691.6775053803
 40
3.25
100
AcDbArc
 50
270.0
 51
90.0
  0
ARC
  5
2E4
100
AcDbEntity
  8
7
100
AcDbCircle
 62
7
  6
BYLAYER
 10
415.3982281225
 20
1105.5139080625
 40
3.25
100
AcDbArc
 50
89.9999999999
 51
270.0
  0
ARC
  5
2E5
100
AcDbEntity
  8
7
100
AcDbCircle
 62
7
  6
BYLAYER
 10
428.8982281225
 20
1105.5139080625
 40
3.25
100
AcDbArc
 50
270.0
 51
90.0000000001
  0
ARC
  5
2E6
100
AcDbEntity
  8
7
100
AcDbCircle
 62
7
  6
BYLAYER
 10
415.3982281225
 20
1135.5139080625
 40
3.25
100
AcDbArc
 50
90.0
 51
270.0
  0
ARC
  5
2E7
100
AcDbEntity
  8
7
100
AcDbCircle
 62
7
  6
BYLAYER
 10
428.8982281225
 20
1135.5139080625
 40
3.25
100
AcDbArc
 50
270.0
 51
90.0
  0
ARC
  5
2E8
100
AcDbEntity
  8
7
100
AcDbCircle
 62
7
  6
BYLAYER
 10
483.9929657661
 20
107.9357142857
 40
15.0
100
AcDbArc
 50
315.5729959992
 51
360.0
  0
ARC
  5
2E9
100
AcDbEntity
  8
7
100
AcDbCircle
 62
7
  6
BYLAYER
 10
483.9929657661
 20
107.9357142857
 40
15.0
100
AcDbArc
 50
180.0
 51
224.4270040008
  0
ARC
  5
2EA
100
AcDbEntity
  8
7
100
AcDbCircle
 62
7
  6
BYLAYER
 10
476.8515373375
 20
100.9357142857
 40
5.0
100
AcDbArc
 50
224.4270040008
 51
270.0
  0
ARC
  5
2EB
100
AcDbEntity
  8
7
100
AcDbCircle
 62
7
  6
BYLAYER
 10
491.1343941946
 20
100.9357142857
 40
5.0
100
AcDbArc
 50
270.0
 51
315.5729959992
  0
ARC
  5
2EC
100
AcDbEntity
  8
7
100
AcDbCircle
 62
7
  6
BYLAYER
 10
466.4929657661
 20
119.9357142857
 40
1.0
100
AcDbArc
 50
0.0
 51
90.0
  0
ARC
  5
2ED
100
AcDbEntity
  8
7
100
AcDbCircle
 62
7
  6
BYLAYER
 10
501.4929657661
 20
119.9357142857
 40
1.0
100
AcDbArc
 50
90.0
 51
180.0
  0
ARC
  5
2EE
100
AcDbEntity
  8
7
100
AcDbCircle
 62
7
  6
BYLAYER
 10
478.4875730972
 20
1201.4357142857
 40
1.0
100
AcDbArc
 50
30.4563864893
 51
90.0
  0
ARC
  5
2EF
100
AcDbEntity
  8
7
100
AcDbCircle
 62
7
  6
BYLAYER
 10
472.4875730972
 20
1201.4357142857
 40
1.0
100
AcDbArc
 50
90.0
 51
149.5436135107
  0
ARC
  5
2F0
100
AcDbEntity
  8
7
100
AcDbCircle
 62
7
  6
BYLAYER
 10
468.7375730972
 20
1200.9357142857
 40
1.0
100
AcDbArc
 50
90.0
 51
180.0
  0
ARC
  5
2F1
100
AcDbEntity
  8
7
100
AcDbCircle
 62
7
  6
BYLAYER
 10
482.2375730972
 20
1200.9357142857
 40
1.0
100
AcDbArc
 50
0.0
 51
90.0
  0
ARC
  5
2F2
100
AcDbEntity
  8
7
100
AcDbCircle
 62
7
  6
BYLAYER
 10
500.9875730972
 20
1203.2357142857
 40
1.0
100
AcDbArc
 50
30.4563864893
 51
90.0
  0
ARC
  5
2F3
100
AcDbEntity
  8
7
100
AcDbCircle
 62
7
  6
BYLAYER
 10
494.9875730972
 20
1203.2357142857
 40
1.0
100
AcDbArc
 50
90.0
 51
149.5436135106
  0
ARC
  5
2F4
100
AcDbEntity
  8
7
100
AcDbCircle
 62
7
  6
BYLAYER
 10
491.2375730972
 20
1202.7357142857
 40
1.0
100
AcDbArc
 50
90.0
 51
180.0
  0
ARC
  5
2F5
100
AcDbEntity
  8
7
100
AcDbCircle
 62
7
  6
BYLAYER
 10
504.7375730972
 20
1202.7357142857
 40
1.0
100
AcDbArc
 50
0.0
 51
90.0
  0
ARC
  5
2F6
100
AcDbEntity
  8
7
100
AcDbCircle
 62
7
  6
BYLAYER
 10
492.9875730972
 20
1204.9357142857
 40
1.0
100
AcDbArc
 50
90.0
 51
180.0
  0
ARC
  5
2F7
100
AcDbEntity
  8
7
100
AcDbCircle
 62
7
  6
BYLAYER
 10
502.9875730972
 20
1204.9357142857
 40
1.0
100
AcDbArc
 50
0.0
 51
90.0
  0
ENDSEC
  0
SECTION
  2
OBJECTS
  0
DICTIONARY
  5
C
100
AcDbDictionary
280
0
281
1
  3
ACAD_GROUP
350
D
  3
ACAD_MLINESTYLE
350
17
  3
ACAD_LAYOUT
350
1A
  3
ACAD_PLOTSETTINGS
350
19
  3
ACAD_PLOTSTYLENAME
350
E
  0
DICTIONARY
  5
D
102
{ACAD_REACTORS
330
C
102
}
100
AcDbDictionary
280
0
281
1
  0
ACDBDICTIONARYWDFLT
  5
E
102
{ACAD_REACTORS
330
C
102
}
100
AcDbDictionary
281
1
  3
Normal
350
F
100
AcDbDictionaryWithDefault
340
F
  0
DICTIONARY
  5
17
102
{ACAD_REACTORS
330
C
102
}
100
AcDbDictionary
280
0
281
1
  3
Standard
350
18
  0
DICTIONARY
  5
19
102
{ACAD_REACTORS
330
C
102
}
100
AcDbDictionary
281
1
  0
DICTIONARY
  5
1A
102
{ACAD_REACTORS
330
C
102
}
100
AcDbDictionary
281
1
  3
Model
350
2F8
  3
Layout1
350
2F9
  0
ACDBPLACEHOLDER
  5
F
102
{ACAD_REACTORS
330
E
102
}
  0
MLINESTYLE
  5
18
102
{ACAD_REACTORS
330
17
102
}
100
AcDbMlineStyle
  2
STANDARD
 70
0
  3

 62
256
 51
90.0
 52
90.0
 71
2
 49
0.5
 62
256
  6
BYLAYER
 49
-0.5
 62
256
  6
BYLAYER
  0
LAYOUT
  5
2F8
102
{ACAD_REACTORS
330
1A
102
}
100
AcDbPlotSettings
  1

  2
none_device
  4

  6

 40
0.0
 41
0.0
 42
0.0
 43
0.0
 44
210.0
 45
297.0
 46
0.0
 47
0.0
 48
0.0
 49
0.0
140
0.0
141
0.0
142
1.0
143
1.0
 70
1024
 72
1
 73
0
 74
0
  7

 75
0
147
1.0
148
0.0
149
0.0
100
AcDbLayout
  1
Model
 70
0
 71
0
 10
0.0
 20
0.0
 11
210.0
 21
297.0
 12
0.0
 22
0.0
 32
0.0
 14
0.0
 24
0.0
 34
0.0
 15
0.0
 25
0.0
 35
0.0
146
0.0
 13
0.0
 23
0.0
 33
0.0
 16
1.0
 26
0.0
 36
0.0
 17
0.0
 27
1.0
 37
0.0
 76
0
330
212
345
0
346
0
  0
LAYOUT
  5
2F9
102
{ACAD_REACTORS
330
1A
102
}
100
AcDbPlotSettings
  1

  2
none_device
  4

  6

 40
0.0
 41
0.0
 42
0.0
 43
0.0
 44
210.0
 45
297.0
 46
0.0
 47
0.0
 48
0.0
 49
0.0
140
0.0
141
0.0
142
1.0
143
1.0
 70
0
 72
1
 73
0
 74
0
  7

 75
0
147
1.0
148
0.0
149
0.0
100
AcDbLayout
  1
Layout1
 70
0
 71
1
 10
0.0
 20
0.0
 11
210.0
 21
297.0
 12
0.0
 22
0.0
 32
0.0
 14
0.0
 24
0.0
 34
0.0
 15
0.0
 25
0.0
 35
0.0
146
0.0
 13
0.0
 23
0.0
 33
0.0
 16
1.0
 26
0.0
 36
0.0
 17
0.0
 27
1.0
 37
0.0
 76
0
330
213
345
0
346
0
  0
ENDSEC
  0
EOF
