999
DXF file: C:\Users\sesa63760\Dev\_Creo\CAD\MCADID0000753_3D-CAD\drw0001_1.dxf
999
Pro/ENGINEER 2019471 by Parametric Technology Corporation
  0
SECTION
  2
HEADER
  9
$ACADVER
  1
AC1024
  9
$DWGCODEPAGE
  3
ANSI_1252
  9
$EXTMAX
 10
92.9657049316
 20
131.4800684033
 30
0.0
  9
$EXTMIN
 10
0.0
 20
0.0
 30
0.0
  9
$LIMMIN
 10
0.0
 20
0.0
  9
$LIMMAX
 10
92.9657049316
 20
131.4800684033
  9
$VIEWCTR
 10
46.4828524658
 20
65.7400342016
  9
$VIEWSIZE
 40
131.4800684033
  9
$CLAYER
  8
0
  9
$LTSCALE
 40
8.570552607
  9
$CELTYPE
  6
BYLAYER
  9
$DIMSCALE
 40
1.0
  9
$DIMASZ
 40
1.1067345825
  9
$DIMEXO
 40
1.0
  9
$DIMDLI
 40
5.9214727103
  9
$DIMEXE
 40
1.0
  9
$DIMCEN
 40
1.402454063
  9
$DIMLFAC
 40
1.0
  9
$DIMBLK
  1
_FILLED
  9
$DIMALT
 70
0
  9
$DIMALTF
 40
0.0393700787
  9
$DIMTXT
 40
1.5494284155
  9
$DIMTOL
 70
1
  9
$DIMLIM
 70
0
  9
$DIMTFAC
 40
1.0
  9
$DIMTP
 40
0.01
  9
$DIMTM
 40
0.01
  9
$DIMGAP
 40
0.625
  9
$DIMDSEP
 70
46
  9
$AUNITS
 70
0
  9
$PDMODE
 70
3
  9
$PDSIZE
 40
0.3125
  9
$HANDSEED
  5
4D0
  9
$TILEMODE
 70
1
  9
$MEASUREMENT
 70
1
  9
$INSUNITS
 70
4
  0
ENDSEC
  0
SECTION
  2
CLASSES
  0
CLASS
  1
ACDBDICTIONARYWDFLT
  2
AcDbDictionaryWithDefault
  3
AutoCAD 2000
 90
0
 91
1
280
0
281
0
  0
CLASS
  1
ACDBPLACEHOLDER
  2
AcDbPlaceHolder
  3
AutoCAD 2000
 90
0
 91
1
280
0
281
0
  0
CLASS
  1
LAYOUT
  2
AcDbLayout
  3
AutoCAD 2000
 90
0
 91
0
280
0
281
0
  0
ENDSEC
  0
SECTION
  2
TABLES
  0
TABLE
  2
VPORT
  5
8
100
AcDbSymbolTable
 70
2
  0
VPORT
  5
1F4
100
AcDbSymbolTableRecord
100
AcDbViewportTableRecord
  2
*ACTIVE
 70
0
 10
0.0
 20
0.0
 11
1.0
 21
1.0
 12
46.4828524658
 22
65.7400342016
 13
0.0
 23
0.0
 14
1.0
 24
1.0
 15
0.0
 25
0.0
 16
0.0
 26
0.0
 36
1.0
 17
0.0
 27
0.0
 37
0.0
 40
131.4800684033
 41
0.7070707071
 42
50.0
 43
0.0
 44
0.0
 50
0.0
 51
0.0
 71
0
 72
100
 73
1
 74
1
 75
0
 76
0
 77
0
 78
0
  0
ENDTAB
  0
TABLE
  2
LTYPE
  5
5
100
AcDbSymbolTable
 70
6
  0
LTYPE
  5
14
100
AcDbSymbolTableRecord
100
AcDbLinetypeTableRecord
  2
BYBLOCK
 70
0
  3

 72
65
 73
0
 40
0.0
  0
LTYPE
  5
15
100
AcDbSymbolTableRecord
100
AcDbLinetypeTableRecord
  2
BYLAYER
 70
0
  3

 72
65
 73
0
 40
0.0
  0
LTYPE
  5
16
100
AcDbSymbolTableRecord
100
AcDbLinetypeTableRecord
  2
CONTINUOUS
 70
64
  3
Solid line
 72
65
 73
0
 40
0.0
  0
LTYPE
  5
1F5
100
AcDbSymbolTableRecord
100
AcDbLinetypeTableRecord
  2
CENTER
 70
64
  3
____ _ ____ _ ____ _ ____ _ ____ _ ____ _ ____
 72
65
 73
4
 40
0.6
 49
0.375
 74
0
 49
-0.075
 74
0
 49
0.075
 74
0
 49
-0.075
 74
0
  0
LTYPE
  5
1F6
100
AcDbSymbolTableRecord
100
AcDbLinetypeTableRecord
  2
HIDDEN
 70
64
  3
- - - - - - - - - - - - - - - - - - - -
 72
65
 73
2
 40
0.2
 49
0.1
 74
0
 49
-0.1
 74
0
  0
LTYPE
  5
1F7
100
AcDbSymbolTableRecord
100
AcDbLinetypeTableRecord
  2
PHANTOM
 70
64
  3
_____ _ _ _____ _ _ _____ _ _ _____
 72
65
 73
6
 40
0.8
 49
0.45
 74
0
 49
-0.05
 74
0
 49
0.1
 74
0
 49
-0.05
 74
0
 49
0.1
 74
0
 49
-0.05
 74
0
  0
LTYPE
  5
1F8
100
AcDbSymbolTableRecord
100
AcDbLinetypeTableRecord
  2
DOT
 70
64
  3
. . . . . . . . . . . . . . . . . . . .
 72
65
 73
2
 40
0.2
 49
0.1
 74
0
 49
-0.1
 74
0
  0
LTYPE
  5
1F9
100
AcDbSymbolTableRecord
100
AcDbLinetypeTableRecord
  2
DASHED
 70
64
  3
- - - - - - - - - - - - - - - - - - - -
 72
65
 73
2
 40
0.2
 49
0.1
 74
0
 49
-0.1
 74
0
  0
ENDTAB
  0
TABLE
  2
LAYER
  5
2
100
AcDbSymbolTable
 70
36
  0
LAYER
  5
10
100
AcDbSymbolTableRecord
100
AcDbLayerTableRecord
  2
0
 70
0
 62
7
  6
CONTINUOUS
370
-3
390
F
  0
LAYER
  5
1FA
100
AcDbSymbolTableRecord
100
AcDbLayerTableRecord
  2
DEFAULT_1
 70
0
 62
7
  6
CENTER
370
-3
390
F
  0
LAYER
  5
1FB
100
AcDbSymbolTableRecord
100
AcDbLayerTableRecord
  2
DEFAULT_2
 70
0
 62
8
  6
HIDDEN
370
-3
390
F
  0
LAYER
  5
1FC
100
AcDbSymbolTableRecord
100
AcDbLayerTableRecord
  2
DEFAULT_3
 70
0
 62
7
  6
PHANTOM
370
-3
390
F
  0
LAYER
  5
1FD
100
AcDbSymbolTableRecord
100
AcDbLayerTableRecord
  2
00_COMPONENTS
 70
0
 62
7
  6
CONTINUOUS
370
-3
390
F
  0
LAYER
  5
1FE
100
AcDbSymbolTableRecord
100
AcDbLayerTableRecord
  2
01_1_DEFAULT_DATUMS
 70
0
 62
7
  6
CONTINUOUS
370
-3
390
F
  0
LAYER
  5
1FF
100
AcDbSymbolTableRecord
100
AcDbLayerTableRecord
  2
01_PLANES
 70
0
 62
7
  6
CONTINUOUS
370
-3
390
F
  0
LAYER
  5
200
100
AcDbSymbolTableRecord
100
AcDbLayerTableRecord
  2
02_COORD_SYS
 70
0
 62
7
  6
CONTINUOUS
370
-3
390
F
  0
LAYER
  5
201
100
AcDbSymbolTableRecord
100
AcDbLayerTableRecord
  2
03_AXES
 70
0
 62
7
  6
CONTINUOUS
370
-3
390
F
  0
LAYER
  5
202
100
AcDbSymbolTableRecord
100
AcDbLayerTableRecord
  2
04_POINTS
 70
0
 62
7
  6
CONTINUOUS
370
-3
390
F
  0
LAYER
  5
203
100
AcDbSymbolTableRecord
100
AcDbLayerTableRecord
  2
05_CURVES
 70
0
 62
7
  6
CONTINUOUS
370
-3
390
F
  0
LAYER
  5
204
100
AcDbSymbolTableRecord
100
AcDbLayerTableRecord
  2
06_SURFS
 70
0
 62
7
  6
CONTINUOUS
370
-3
390
F
  0
LAYER
  5
205
100
AcDbSymbolTableRecord
100
AcDbLayerTableRecord
  2
07_COSMETICS
 70
0
 62
7
  6
CONTINUOUS
370
-3
390
F
  0
LAYER
  5
206
100
AcDbSymbolTableRecord
100
AcDbLayerTableRecord
  2
10_NOTES
 70
0
 62
7
  6
CONTINUOUS
370
-3
390
F
  0
LAYER
  5
207
100
AcDbSymbolTableRecord
100
AcDbLayerTableRecord
  2
11_NOTES_PUB
 70
0
 62
7
  6
CONTINUOUS
370
-3
390
F
  0
LAYER
  5
208
100
AcDbSymbolTableRecord
100
AcDbLayerTableRecord
  2
13_REF_GTOL
 70
0
 62
7
  6
CONTINUOUS
370
-3
390
F
  0
LAYER
  5
209
100
AcDbSymbolTableRecord
100
AcDbLayerTableRecord
  2
16_MISC
 70
0
 62
7
  6
CONTINUOUS
370
-3
390
F
  0
LAYER
  5
20A
100
AcDbSymbolTableRecord
100
AcDbLayerTableRecord
  2
17_NO_PRINT
 70
0
 62
7
  6
CONTINUOUS
370
-3
390
F
  0
LAYER
  5
20B
100
AcDbSymbolTableRecord
100
AcDbLayerTableRecord
  2
18_DATUM_CAMS_JOINTS
 70
0
 62
7
  6
CONTINUOUS
370
-3
390
F
  0
LAYER
  5
20C
100
AcDbSymbolTableRecord
100
AcDbLayerTableRecord
  2
19_DATUM_FUNCTIONAL
 70
0
 62
7
  6
CONTINUOUS
370
-3
390
F
  0
LAYER
  5
20D
100
AcDbSymbolTableRecord
100
AcDbLayerTableRecord
  2
20_DATUM_KINEMATIC_SCHEME
 70
0
 62
7
  6
CONTINUOUS
370
-3
390
F
  0
ENDTAB
  0
TABLE
  2
STYLE
  5
3
100
AcDbSymbolTable
 70
1
  0
STYLE
  5
11
100
AcDbSymbolTableRecord
100
AcDbTextStyleTableRecord
  2
STANDARD
 70
0
 40
0.0
 41
0.8
 50
0.0
 71
0
 42
0.2
  3
txt
  4

  0
STYLE
  5
20E
100
AcDbSymbolTableRecord
100
AcDbTextStyleTableRecord
  2
TEXTSTYLE_1
 70
0
 40
0.0
 41
0.8
 50
0.0
 71
0
 42
0.2
  3
gdt
  4

  0
ENDTAB
  0
TABLE
  2
VIEW
  5
6
100
AcDbSymbolTable
 70
0
  0
ENDTAB
  0
TABLE
  2
UCS
  5
7
100
AcDbSymbolTable
 70
0
  0
ENDTAB
  0
TABLE
  2
APPID
  5
9
100
AcDbSymbolTable
 70
1
  0
APPID
  5
20F
100
AcDbSymbolTableRecord
100
AcDbRegAppTableRecord
  2
ACAD
 70
0
  0
ENDTAB
  0
TABLE
  2
BLOCK_RECORD
  5
1
100
AcDbSymbolTable
 70
0
  0
BLOCK_RECORD
  5
210
100
AcDbSymbolTableRecord
100
AcDbBlockTableRecord
  2
*Model_Space
  0
BLOCK_RECORD
  5
211
100
AcDbSymbolTableRecord
100
AcDbBlockTableRecord
  2
*Paper_Space
  0
BLOCK_RECORD
  5
212
100
AcDbSymbolTableRecord
100
AcDbBlockTableRecord
  2
_FILLED
  0
ENDTAB
  0
TABLE
  2
DIMSTYLE
  5
A
100
AcDbSymbolTable
 70
1
100
AcDbDimStyleTable
 71
0
  0
DIMSTYLE
105
213
100
AcDbSymbolTableRecord
100
AcDbDimStyleTableRecord
  2
STANDARD
 70
0
  3

  4

 40
1.0
 41
1.1067345825
 42
1.0
 43
0.38
 44
1.0
 45
0.0
 46
0.0
 47
0.01
 48
0.01
140
1.5494284155
141
0.09
142
0.0
143
25.4
144
1.0
145
0.0
146
1.0
147
0.625
 71
1
 72
0
 73
0
 74
0
 75
0
 76
0
 77
1
 78
8
 79
2
170
0
171
1
172
0
173
0
174
0
175
0
176
0
177
0
178
0
270
2
179
2
271
2
272
2
273
2
274
2
275
0
280
0
281
0
282
0
283
1
284
8
285
0
286
0
287
3
288
0
340
11
278
46
341
212
342
212
343
212
344
212
  0
ENDTAB
  0
ENDSEC
  0
SECTION
  2
BLOCKS
  0
BLOCK
  5
20
100
AcDbEntity
  8
0
100
AcDbBlockBegin
  2
*Model_Space
 70
0
 10
0.0
 20
0.0
 30
0.0
  3
*Model_Space
  1

  0
ENDBLK
  5
21
100
AcDbEntity
  8
0
100
AcDbBlockEnd
  0
BLOCK
  5
1C
100
AcDbEntity
  8
0
100
AcDbBlockBegin
  2
*Paper_Space
 70
0
 10
0.0
 20
0.0
 30
0.0
  3
*Paper_Space
  1

  0
ENDBLK
  5
1D
100
AcDbEntity
  8
0
100
AcDbBlockEnd
  0
BLOCK
  5
214
100
AcDbEntity
  8
0
100
AcDbBlockBegin
  2
_FILLED
 70
64
 10
0.0
 20
0.0
  3
_FILLED
  1

  0
SOLID
  5
215
100
AcDbEntity
  8
0
  6
BYBLOCK
 62
0
100
AcDbTrace
 10
0.0
 20
0.0
 11
-1.0
 21
0.25
 12
-1.0
 22
-0.25
 13
-1.0
 23
-0.25
  0
ENDBLK
  5
216
100
AcDbEntity
  8
0
  6
BYBLOCK
 62
0
100
AcDbBlockEnd
  0
ENDSEC
  0
SECTION
  2
ENTITIES
  0
LINE
  5
217
100
AcDbEntity
  8
0
100
AcDbLine
 62
7
  6
CONTINUOUS
 10
14.4903186229
 20
15.4717350856
 11
13.3522828424
 21
16.1287654858
  0
LINE
  5
218
100
AcDbEntity
  8
0
100
AcDbLine
 62
7
  6
CONTINUOUS
 10
19.6522108027
 20
13.7163049312
 11
18.3794122178
 21
14.4511389096
  0
LINE
  5
219
100
AcDbEntity
  8
0
100
AcDbLine
 62
7
  6
CONTINUOUS
 10
18.0379902742
 20
14.6482545042
 11
15.9752391545
 21
15.8391574752
  0
LINE
  5
21A
100
AcDbEntity
  8
0
100
AcDbLine
 62
7
  6
CONTINUOUS
 10
13.264413994
 20
17.4042177064
 11
11.3083139073
 21
18.5335470692
  0
LINE
  5
21B
100
AcDbEntity
  8
0
100
AcDbLine
 62
7
  6
CONTINUOUS
 10
18.665005309
 20
15.7827531464
 11
19.0537649864
 21
15.5583089448
  0
LINE
  5
21C
100
AcDbEntity
  8
0
100
AcDbLine
 62
7
  6
CONTINUOUS
 10
33.8125504598
 20
10.1750886259
 11
34.1051338499
 21
10.200592719
  0
LINE
  5
21D
100
AcDbEntity
  8
0
100
AcDbLine
 62
7
  6
CONTINUOUS
 10
19.0539167191
 20
16.4563740027
 11
18.6650046021
 21
16.6809074382
  0
LINE
  5
21E
100
AcDbEntity
  8
0
100
AcDbLine
 62
7
  6
CONTINUOUS
 10
18.665005309
 20
18.8936273556
 11
19.0537649864
 21
18.669183154
  0
LINE
  5
21F
100
AcDbEntity
  8
0
100
AcDbLine
 62
7
  6
CONTINUOUS
 10
33.8125433382
 20
10.1750762797
 11
23.4533454775
 21
16.1558266505
  0
LINE
  5
220
100
AcDbEntity
  8
0
100
AcDbLine
 62
7
  6
CONTINUOUS
 10
21.8340433806
 20
17.2190766643
 11
21.8822562536
 21
17.1912417308
  0
LINE
  5
221
100
AcDbEntity
  8
0
100
AcDbLine
 62
7
  6
CONTINUOUS
 10
33.6882759455
 20
10.4497479685
 11
23.62908839
 21
16.2572912273
  0
LINE
  5
222
100
AcDbEntity
  8
0
100
AcDbLine
 62
7
  6
CONTINUOUS
 10
19.0539167191
 20
19.567248212
 11
18.6650046021
 21
19.7917816475
  0
LINE
  5
223
100
AcDbEntity
  8
0
100
AcDbLine
 62
7
  6
CONTINUOUS
 10
18.0965695067
 20
14.4511382294
 11
18.0379946129
 21
14.5327870609
  0
LINE
  5
224
100
AcDbEntity
  8
0
100
AcDbLine
 62
7
  6
CONTINUOUS
 10
27.3457521876
 20
16.7677144908
 11
25.9294510473
 21
17.5853978369
  0
LINE
  5
225
100
AcDbEntity
  8
0
100
AcDbLine
 62
7
  6
CONTINUOUS
 10
18.665005309
 20
22.0045015649
 11
19.0537649864
 21
21.7800573633
  0
LINE
  5
226
100
AcDbEntity
  8
0
100
AcDbLine
 62
7
  6
CONTINUOUS
 10
21.8340433793
 20
20.3299508733
 11
21.8822562473
 21
20.3021159426
  0
LINE
  5
227
100
AcDbEntity
  8
0
100
AcDbLine
 62
7
  6
CONTINUOUS
 10
19.0539167191
 20
22.6781224212
 11
18.6650046021
 21
22.9026558567
  0
LINE
  5
228
100
AcDbEntity
  8
0
100
AcDbLine
 62
7
  6
CONTINUOUS
 10
18.665005309
 20
25.1153757742
 11
19.0537649864
 21
24.8909315726
  0
LINE
  5
229
100
AcDbEntity
  8
0
100
AcDbLine
 62
7
  6
CONTINUOUS
 10
21.8340433793
 20
23.4408250829
 11
21.8822562497
 21
23.4129901509
  0
LINE
  5
22A
100
AcDbEntity
  8
0
100
AcDbLine
 62
7
  6
CONTINUOUS
 10
19.0539167191
 20
25.7889966305
 11
18.6650046021
 21
26.013530066
  0
LINE
  5
22B
100
AcDbEntity
  8
0
100
AcDbLine
 62
7
  6
CONTINUOUS
 10
18.665005309
 20
28.2262499832
 11
19.0537649866
 21
28.0018057814
  0
LINE
  5
22C
100
AcDbEntity
  8
0
100
AcDbLine
 62
7
  6
CONTINUOUS
 10
21.8340433793
 20
26.5516992926
 11
21.8822562521
 21
26.5238643592
  0
LINE
  5
22D
100
AcDbEntity
  8
0
100
AcDbLine
 62
7
  6
CONTINUOUS
 10
19.0539167185
 20
28.8998708399
 11
18.6650046024
 21
29.124404275
  0
LINE
  5
22E
100
AcDbEntity
  8
0
100
AcDbLine
 62
7
  6
CONTINUOUS
 10
18.665005309
 20
31.3371241924
 11
19.0537649866
 21
31.1126799907
  0
LINE
  5
22F
100
AcDbEntity
  8
0
100
AcDbLine
 62
7
  6
CONTINUOUS
 10
21.8340433793
 20
29.6625735008
 11
21.8822562472
 21
29.6347385702
  0
LINE
  5
230
100
AcDbEntity
  8
0
100
AcDbLine
 62
7
  6
CONTINUOUS
 10
42.0965036183
 20
110.1575736793
 11
48.8970420587
 21
114.0838429419
  0
LINE
  5
231
100
AcDbEntity
  8
0
100
AcDbLine
 62
7
  6
CONTINUOUS
 10
19.0539167185
 20
32.0107450492
 11
18.6650046024
 21
32.2352784843
  0
LINE
  5
232
100
AcDbEntity
  8
0
100
AcDbLine
 62
7
  6
CONTINUOUS
 10
18.665005309
 20
34.447998402
 11
19.0537649864
 21
34.2235542004
  0
LINE
  5
233
100
AcDbEntity
  8
0
100
AcDbLine
 62
7
  6
CONTINUOUS
 10
21.8340433793
 20
32.7734477105
 11
21.8822562496
 21
32.7456127785
  0
LINE
  5
234
100
AcDbEntity
  8
0
100
AcDbLine
 62
7
  6
CONTINUOUS
 10
19.0539167191
 20
35.1216192583
 11
18.6650046021
 21
35.3461526938
  0
LINE
  5
235
100
AcDbEntity
  8
0
100
AcDbLine
 62
7
  6
CONTINUOUS
 10
45.6650160823
 20
19.7592424609
 11
47.0792355326
 21
18.9427609518
  0
LINE
  5
236
100
AcDbEntity
  8
0
100
AcDbLine
 62
7
  6
CONTINUOUS
 10
11.2204461195
 20
18.6560197025
 11
11.2204461195
 21
50.4097999296
  0
LINE
  5
237
100
AcDbEntity
  8
0
100
AcDbLine
 62
7
  6
CONTINUOUS
 10
11.2204461195
 20
51.7243675963
 11
11.2204461195
 21
83.4781478234
  0
LINE
  5
238
100
AcDbEntity
  8
0
100
AcDbLine
 62
7
  6
CONTINUOUS
 10
11.3083139069
 20
18.5335470689
 11
11.3083139069
 21
50.287327296
  0
LINE
  5
239
100
AcDbEntity
  8
0
100
AcDbLine
 62
7
  6
CONTINUOUS
 10
11.3083139069
 20
51.6018949627
 11
11.3083139069
 21
83.3556751898
  0
LINE
  5
23A
100
AcDbEntity
  8
0
100
AcDbLine
 62
7
  6
CONTINUOUS
 10
13.2825052686
 20
81.1326041414
 11
13.2644202703
 21
81.0733668569
  0
LINE
  5
23B
100
AcDbEntity
  8
0
100
AcDbLine
 62
7
  6
CONTINUOUS
 10
13.7359180029
 20
81.8823820994
 11
13.7178324939
 21
81.8231440016
  0
LINE
  5
23C
100
AcDbEntity
  8
0
100
AcDbLine
 62
7
  6
CONTINUOUS
 10
13.7178324939
 20
81.8231440016
 11
13.2825052686
 21
81.1326041414
  0
LINE
  5
23D
100
AcDbEntity
  8
0
100
AcDbLine
 62
7
  6
CONTINUOUS
 10
17.2405669056
 20
93.2111226563
 11
22.4805397008
 21
96.3420191015
  0
LINE
  5
23E
100
AcDbEntity
  8
0
100
AcDbLine
 62
7
  6
CONTINUOUS
 10
50.999858829
 20
112.8484326
 11
44.2363451986
 21
108.9435394939
  0
LINE
  5
23F
100
AcDbEntity
  8
0
100
AcDbLine
 62
7
  6
CONTINUOUS
 10
22.4805397008
 20
96.3420191015
 11
41.0993279547
 21
107.091517346
  0
LINE
  5
240
100
AcDbEntity
  8
0
100
AcDbLine
 62
7
  6
CONTINUOUS
 10
51.4498396865
 20
113.0673524097
 11
66.320977606
 21
121.6531566404
  0
LINE
  5
241
100
AcDbEntity
  8
0
100
AcDbLine
 62
7
  6
CONTINUOUS
 10
50.9998588297
 20
111.1745525574
 11
51.4498396865
 21
111.4343475755
  0
LINE
  5
242
100
AcDbEntity
  8
0
100
AcDbLine
 62
7
  6
CONTINUOUS
 10
66.0381572674
 20
118.5505133087
 11
68.8665726162
 21
120.1834899242
  0
LINE
  5
243
100
AcDbEntity
  8
0
100
AcDbLine
 62
7
  6
CONTINUOUS
 10
54.1941700548
 20
111.4266540138
 11
43.9411644152
 21
105.5071137826
  0
LINE
  5
244
100
AcDbEntity
  8
0
100
AcDbLine
 62
7
  6
CONTINUOUS
 10
35.0161046871
 20
99.6231307372
 11
38.9298608783
 21
101.8827254397
  0
LINE
  5
245
100
AcDbEntity
  8
0
100
AcDbLine
 62
7
  6
CONTINUOUS
 10
60.4718428268
 20
114.3199202765
 11
64.385599018
 21
116.5795149791
  0
LINE
  5
246
100
AcDbEntity
  8
0
100
AcDbLine
 62
7
  6
CONTINUOUS
 10
18.665005309
 20
37.558872611
 11
19.0537649866
 21
37.3344284092
  0
LINE
  5
247
100
AcDbEntity
  8
0
100
AcDbLine
 62
7
  6
CONTINUOUS
 10
21.8340433793
 20
35.8843219201
 11
21.8822562506
 21
35.8564869875
  0
LINE
  5
248
100
AcDbEntity
  8
0
100
AcDbLine
 62
7
  6
CONTINUOUS
 10
19.0539167185
 20
38.2324934677
 11
18.6650046024
 21
38.4570269028
  0
LINE
  5
249
100
AcDbEntity
  8
0
100
AcDbLine
 62
7
  6
CONTINUOUS
 10
36.1749351413
 20
29.035236145
 11
37.5891545919
 21
28.2187546358
  0
LINE
  5
24A
100
AcDbEntity
  8
0
100
AcDbLine
 62
7
  6
CONTINUOUS
 10
18.665005309
 20
40.6697468205
 11
19.0537649864
 21
40.4453026189
  0
LINE
  5
24B
100
AcDbEntity
  8
0
100
AcDbLine
 62
7
  6
CONTINUOUS
 10
21.8340433794
 20
38.9951961284
 11
21.8822562456
 21
38.9673611987
  0
LINE
  5
24C
100
AcDbEntity
  8
0
100
AcDbLine
 62
7
  6
CONTINUOUS
 10
19.0539167191
 20
41.3433676768
 11
18.6650046021
 21
41.5679011123
  0
LINE
  5
24D
100
AcDbEntity
  8
0
100
AcDbLine
 62
7
  6
CONTINUOUS
 10
18.0379946132
 20
46.2865672881
 11
18.096569506
 21
46.2049184572
  0
LINE
  5
24E
100
AcDbEntity
  8
0
100
AcDbLine
 62
7
  6
CONTINUOUS
 10
33.6882759458
 20
10.4497479684
 11
33.8125504598
 21
10.1750886259
  0
LINE
  5
24F
100
AcDbEntity
  8
0
100
AcDbLine
 62
7
  6
CONTINUOUS
 10
13.264413994
 20
16.251238732
 11
13.264413994
 21
48.0050189591
  0
LINE
  5
250
100
AcDbEntity
  8
0
100
AcDbLine
 62
7
  6
CONTINUOUS
 10
13.264413994
 20
49.3195866258
 11
13.264413994
 21
81.0733668529
  0
LINE
  5
251
100
AcDbEntity
  8
0
100
AcDbLine
 62
7
  6
CONTINUOUS
 10
13.3522828429
 20
16.1287654858
 11
13.3522828429
 21
47.8825457129
  0
LINE
  5
252
100
AcDbEntity
  8
0
100
AcDbLine
 62
7
  6
CONTINUOUS
 10
13.3522828429
 20
49.1971133796
 11
13.3522828429
 21
80.9508936067
  0
LINE
  5
253
100
AcDbEntity
  8
0
100
AcDbLine
 62
7
  6
CONTINUOUS
 10
13.6480554327
 20
82.0048553496
 11
13.6480554327
 21
81.7124598099
  0
LINE
  5
254
100
AcDbEntity
  8
0
100
AcDbLine
 62
7
  6
CONTINUOUS
 10
13.6480554327
 20
48.9365074559
 11
13.6480554327
 21
48.6441119161
  0
LINE
  5
255
100
AcDbEntity
  8
0
100
AcDbLine
 62
7
  6
CONTINUOUS
 10
14.4903186231
 20
80.2938632066
 11
14.4903186231
 21
48.5400829796
  0
LINE
  5
256
100
AcDbEntity
  8
0
100
AcDbLine
 62
7
  6
CONTINUOUS
 10
14.4903186231
 20
47.2255153129
 11
14.4903186231
 21
15.4717350858
  0
LINE
  5
257
100
AcDbEntity
  8
0
100
AcDbLine
 62
7
  6
CONTINUOUS
 10
14.9145816326
 20
15.4717367177
 11
14.9145816326
 21
47.2255169449
  0
LINE
  5
258
100
AcDbEntity
  8
0
100
AcDbLine
 62
7
  6
CONTINUOUS
 10
14.9145816326
 20
48.5400846115
 11
14.9145816326
 21
80.2938648386
  0
LINE
  5
259
100
AcDbEntity
  8
0
100
AcDbLine
 62
7
  6
CONTINUOUS
 10
15.5509750851
 20
80.6612845765
 11
15.5509750851
 21
48.9075043494
  0
LINE
  5
25A
100
AcDbEntity
  8
0
100
AcDbLine
 62
7
  6
CONTINUOUS
 10
15.5509750851
 20
47.5929366827
 11
15.5509750851
 21
15.8391564556
  0
LINE
  5
25B
100
AcDbEntity
  8
0
100
AcDbLine
 62
7
  6
CONTINUOUS
 10
15.9752391541
 20
15.8391574763
 11
15.9752391541
 21
47.5929377035
  0
LINE
  5
25C
100
AcDbEntity
  8
0
100
AcDbLine
 62
7
  6
CONTINUOUS
 10
15.9752391541
 20
48.9075053701
 11
15.9752391541
 21
80.6612855972
  0
LINE
  5
25D
100
AcDbEntity
  8
0
100
AcDbLine
 62
7
  6
CONTINUOUS
 10
16.8237090011
 20
89.5794197661
 11
16.8237090011
 21
92.4806242324
  0
LINE
  5
25E
100
AcDbEntity
  8
0
100
AcDbLine
 62
7
  6
CONTINUOUS
 10
18.0965683302
 20
79.4365633339
 11
18.0379946132
 21
79.3549151818
  0
LINE
  5
25F
100
AcDbEntity
  8
0
100
AcDbLine
 62
7
  6
CONTINUOUS
 10
65.2019893368
 20
116.1081824717
 11
61.2882331457
 21
113.8485877691
  0
LINE
  5
260
100
AcDbEntity
  8
0
100
AcDbLine
 62
7
  6
CONTINUOUS
 10
39.7462511971
 20
101.4113929323
 11
35.832495006
 21
99.1517982298
  0
LINE
  5
261
100
AcDbEntity
  8
0
100
AcDbLine
 62
7
  6
CONTINUOUS
 10
11.3083132026
 20
83.6006200503
 11
19.2438545983
 21
88.1821796631
  0
LINE
  5
262
100
AcDbEntity
  8
0
100
AcDbLine
 62
7
  6
CONTINUOUS
 10
37.7647055755
 20
97.8321407969
 11
42.0320136852
 21
100.2958575764
  0
LINE
  5
263
100
AcDbEntity
  8
0
100
AcDbLine
 62
7
  6
CONTINUOUS
 10
63.2204437152
 20
112.5289303363
 11
67.4877518249
 21
114.9926471157
  0
LINE
  5
264
100
AcDbEntity
  8
0
100
AcDbLine
 62
7
  6
CONTINUOUS
 10
39.1912801047
 20
97.0227642347
 11
42.0320136852
 21
98.6628527421
  0
LINE
  5
265
100
AcDbEntity
  8
0
100
AcDbLine
 62
7
  6
CONTINUOUS
 10
64.6470182444
 20
111.7195537741
 11
67.4877518249
 21
113.3596422815
  0
LINE
  5
266
100
AcDbEntity
  8
0
100
AcDbLine
 62
7
  6
CONTINUOUS
 10
68.9266565685
 20
114.1619138684
 11
64.6593484588
 21
111.6981970889
  0
LINE
  5
267
100
AcDbEntity
  8
0
100
AcDbLine
 62
7
  6
CONTINUOUS
 10
43.4709184288
 20
99.465124329
 11
39.2036103191
 21
97.0014075495
  0
LINE
  5
268
100
AcDbEntity
  8
0
100
AcDbLine
 62
7
  6
CONTINUOUS
 10
39.6986467859
 20
31.2731476966
 11
41.1128662365
 21
30.4566661873
  0
LINE
  5
269
100
AcDbEntity
  8
0
100
AcDbLine
 62
7
  6
CONTINUOUS
 10
18.665005309
 20
43.7806210295
 11
19.0537649866
 21
43.5561768277
  0
LINE
  5
26A
100
AcDbEntity
  8
0
100
AcDbLine
 62
7
  6
CONTINUOUS
 10
21.8340433793
 20
42.106070338
 11
21.8822562468
 21
42.0782354076
  0
LINE
  5
26B
100
AcDbEntity
  8
0
100
AcDbLine
 62
7
  6
CONTINUOUS
 10
19.0539167185
 20
44.4542418862
 11
18.6650046024
 21
44.6787753213
  0
LINE
  5
26C
100
AcDbEntity
  8
0
100
AcDbLine
 62
7
  6
CONTINUOUS
 10
13.3522828427
 20
47.8825457127
 11
14.4903186231
 21
47.2255153126
  0
LINE
  5
26D
100
AcDbEntity
  8
0
100
AcDbLine
 62
7
  6
CONTINUOUS
 10
19.6522107858
 20
45.4700851675
 11
18.3794122199
 21
46.2049191379
  0
LINE
  5
26E
100
AcDbEntity
  8
0
100
AcDbLine
 62
7
  6
CONTINUOUS
 10
18.0965683302
 20
46.3682154395
 11
15.9752391541
 21
47.5929377035
  0
LINE
  5
26F
100
AcDbEntity
  8
0
100
AcDbLine
 62
7
  6
CONTINUOUS
 10
13.6480554327
 20
48.9365074559
 11
11.3083139069
 21
50.287327296
  0
LINE
  5
270
100
AcDbEntity
  8
0
100
AcDbLine
 62
7
  6
CONTINUOUS
 10
14.4903186229
 20
48.5400829793
 11
13.3522828424
 21
49.1971133795
  0
LINE
  5
271
100
AcDbEntity
  8
0
100
AcDbLine
 62
7
  6
CONTINUOUS
 10
20.0764702603
 20
45.9599777451
 11
20.5007360956
 21
45.7150332923
  0
LINE
  5
272
100
AcDbEntity
  8
0
100
AcDbLine
 62
7
  6
CONTINUOUS
 10
21.8340433793
 20
45.2169445477
 11
21.8822562505
 21
45.1891096152
  0
LINE
  5
273
100
AcDbEntity
  8
0
100
AcDbLine
 62
7
  6
CONTINUOUS
 10
18.0965695067
 20
47.5194861232
 11
18.0379946129
 21
47.6011349547
  0
LINE
  5
274
100
AcDbEntity
  8
0
100
AcDbLine
 62
7
  6
CONTINUOUS
 10
17.8843647569
 20
87.3972825224
 11
17.8843647569
 21
88.9670637325
  0
LINE
  5
275
100
AcDbEntity
  8
0
100
AcDbLine
 62
7
  6
CONTINUOUS
 10
18.0379902742
 20
14.5327870609
 11
18.0379902742
 21
46.2865672881
  0
LINE
  5
276
100
AcDbEntity
  8
0
100
AcDbLine
 62
7
  6
CONTINUOUS
 10
18.0379902742
 20
47.6011349547
 11
18.0379902742
 21
79.3549151818
  0
LINE
  5
277
100
AcDbEntity
  8
0
100
AcDbLine
 62
7
  6
CONTINUOUS
 10
18.3794122199
 20
14.4511389108
 11
18.3794122199
 21
46.2049191379
  0
LINE
  5
278
100
AcDbEntity
  8
0
100
AcDbLine
 62
7
  6
CONTINUOUS
 10
18.3794122199
 20
47.5194868046
 11
18.3794122199
 21
79.2732670317
  0
LINE
  5
279
100
AcDbEntity
  8
0
100
AcDbLine
 62
7
  6
CONTINUOUS
 10
18.6650046018
 20
19.7917816476
 11
18.6650053091
 21
18.8936273556
  0
LINE
  5
27A
100
AcDbEntity
  8
0
100
AcDbLine
 62
7
  6
CONTINUOUS
 10
18.6650070514
 20
16.6809060241
 11
18.6650077586
 21
15.7827517322
  0
LINE
  5
27B
100
AcDbEntity
  8
0
100
AcDbLine
 62
7
  6
CONTINUOUS
 10
18.6650046018
 20
26.0135300661
 11
18.6650053091
 21
25.1153757741
  0
LINE
  5
27C
100
AcDbEntity
  8
0
100
AcDbLine
 62
7
  6
CONTINUOUS
 10
18.6650070514
 20
22.9026544427
 11
18.6650077586
 21
22.0045001507
  0
LINE
  5
27D
100
AcDbEntity
  8
0
100
AcDbLine
 62
7
  6
CONTINUOUS
 10
18.6650046018
 20
32.2352784846
 11
18.6650053091
 21
31.3371241924
  0
LINE
  5
27E
100
AcDbEntity
  8
0
100
AcDbLine
 62
7
  6
CONTINUOUS
 10
18.6650070514
 20
29.1244028612
 11
18.6650077586
 21
28.226248569
  0
LINE
  5
27F
100
AcDbEntity
  8
0
100
AcDbLine
 62
7
  6
CONTINUOUS
 10
18.6650046018
 20
38.4570269032
 11
18.6650053091
 21
37.558872611
  0
LINE
  5
280
100
AcDbEntity
  8
0
100
AcDbLine
 62
7
  6
CONTINUOUS
 10
18.6650070514
 20
35.3461512797
 11
18.6650077586
 21
34.4479969877
  0
LINE
  5
281
100
AcDbEntity
  8
0
100
AcDbLine
 62
7
  6
CONTINUOUS
 10
18.6650046018
 20
44.6787753217
 11
18.6650053091
 21
43.7806210295
  0
LINE
  5
282
100
AcDbEntity
  8
0
100
AcDbLine
 62
7
  6
CONTINUOUS
 10
18.6650070514
 20
41.5678996982
 11
18.6650077586
 21
40.6697454063
  0
LINE
  5
283
100
AcDbEntity
  8
0
100
AcDbLine
 62
7
  6
CONTINUOUS
 10
18.6650046018
 20
52.8601295413
 11
18.6650053091
 21
51.9619752494
  0
LINE
  5
284
100
AcDbEntity
  8
0
100
AcDbLine
 62
7
  6
CONTINUOUS
 10
18.6650070514
 20
49.7492539179
 11
18.6650077586
 21
48.8510996259
  0
LINE
  5
285
100
AcDbEntity
  8
0
100
AcDbLine
 62
7
  6
CONTINUOUS
 10
18.6650046018
 20
59.0818779599
 11
18.6650053091
 21
58.1837236679
  0
LINE
  5
286
100
AcDbEntity
  8
0
100
AcDbLine
 62
7
  6
CONTINUOUS
 10
18.6650070514
 20
55.9710023364
 11
18.6650077586
 21
55.0728480444
  0
LINE
  5
287
100
AcDbEntity
  8
0
100
AcDbLine
 62
7
  6
CONTINUOUS
 10
18.6650046018
 20
65.3036263784
 11
18.6650053091
 21
64.4054720862
  0
LINE
  5
288
100
AcDbEntity
  8
0
100
AcDbLine
 62
7
  6
CONTINUOUS
 10
18.6650070514
 20
62.1927507549
 11
18.6650077586
 21
61.2945964627
  0
LINE
  5
289
100
AcDbEntity
  8
0
100
AcDbLine
 62
7
  6
CONTINUOUS
 10
18.6650046018
 20
71.5253747969
 11
18.6650053091
 21
70.6272205047
  0
LINE
  5
28A
100
AcDbEntity
  8
0
100
AcDbLine
 62
7
  6
CONTINUOUS
 10
18.6650070514
 20
68.4144991735
 11
18.6650077586
 21
67.5163448815
  0
LINE
  5
28B
100
AcDbEntity
  8
0
100
AcDbLine
 62
7
  6
CONTINUOUS
 10
18.6650046018
 20
77.7471232155
 11
18.6650053091
 21
76.8489689232
  0
LINE
  5
28C
100
AcDbEntity
  8
0
100
AcDbLine
 62
7
  6
CONTINUOUS
 10
18.6650070514
 20
74.636247592
 11
18.6650077586
 21
73.7380933
  0
LINE
  5
28D
100
AcDbEntity
  8
0
100
AcDbLine
 62
7
  6
CONTINUOUS
 10
19.6522107858
 20
78.5384330612
 11
19.6522107858
 21
46.7846528341
  0
LINE
  5
28E
100
AcDbEntity
  8
0
100
AcDbLine
 62
7
  6
CONTINUOUS
 10
19.6522107858
 20
45.4700851675
 11
19.6522107858
 21
13.7163049404
  0
LINE
  5
28F
100
AcDbEntity
  8
0
100
AcDbLine
 62
7
  6
CONTINUOUS
 10
20.0764737918
 20
13.7163065719
 11
20.0764737918
 21
45.470086799
  0
LINE
  5
290
100
AcDbEntity
  8
0
100
AcDbLine
 62
7
  6
CONTINUOUS
 10
20.0764737918
 20
46.7846544657
 11
20.0764737918
 21
78.5384346928
  0
LINE
  5
291
100
AcDbEntity
  8
0
100
AcDbLine
 62
7
  6
CONTINUOUS
 10
20.5007360956
 20
78.783381186
 11
20.5007360956
 21
47.0296009589
  0
LINE
  5
292
100
AcDbEntity
  8
0
100
AcDbLine
 62
7
  6
CONTINUOUS
 10
20.5007360956
 20
45.7150332923
 11
20.5007360956
 21
13.9612530651
  0
LINE
  5
293
100
AcDbEntity
  8
0
100
AcDbLine
 62
7
  6
CONTINUOUS
 10
13.2825052686
 20
48.0642562477
 11
13.2644202703
 21
48.0050189631
  0
LINE
  5
294
100
AcDbEntity
  8
0
100
AcDbLine
 62
7
  6
CONTINUOUS
 10
13.7359180029
 20
48.8140342057
 11
13.7178324939
 21
48.7547961078
  0
LINE
  5
295
100
AcDbEntity
  8
0
100
AcDbLine
 62
7
  6
CONTINUOUS
 10
73.3920984092
 20
114.3048094616
 11
76.220513758
 21
115.9377860771
  0
LINE
  5
296
100
AcDbEntity
  8
0
100
AcDbLine
 62
7
  6
CONTINUOUS
 10
14.9145816347
 20
80.2938648396
 11
15.5509750849
 21
80.6612845762
  0
LINE
  5
297
100
AcDbEntity
  8
0
100
AcDbLine
 62
7
  6
CONTINUOUS
 10
27.8634276206
 20
85.2439299758
 11
25.529782342
 21
83.8966072884
  0
LINE
  5
298
100
AcDbEntity
  8
0
100
AcDbLine
 62
7
  6
CONTINUOUS
 10
19.6522108027
 20
46.784652825
 11
18.3794122178
 21
47.5194868034
  0
LINE
  5
299
100
AcDbEntity
  8
0
100
AcDbLine
 62
7
  6
CONTINUOUS
 10
18.0379902742
 20
47.716602398
 11
15.9752391545
 21
48.907505369
  0
LINE
  5
29A
100
AcDbEntity
  8
0
100
AcDbLine
 62
7
  6
CONTINUOUS
 10
13.264413994
 20
50.4725656002
 11
11.3083139073
 21
51.601894963
  0
LINE
  5
29B
100
AcDbEntity
  8
0
100
AcDbLine
 62
7
  6
CONTINUOUS
 10
18.665005309
 20
48.8511010401
 11
19.0537649864
 21
48.6266568385
  0
LINE
  5
29C
100
AcDbEntity
  8
0
100
AcDbLine
 62
7
  6
CONTINUOUS
 10
19.0539167191
 20
49.5247218964
 11
18.6650046021
 21
49.7492553319
  0
LINE
  5
29D
100
AcDbEntity
  8
0
100
AcDbLine
 62
7
  6
CONTINUOUS
 10
18.665005309
 20
51.9619752494
 11
19.0537649864
 21
51.7375310478
  0
LINE
  5
29E
100
AcDbEntity
  8
0
100
AcDbLine
 62
7
  6
CONTINUOUS
 10
21.8340433805
 20
50.2874245581
 11
21.8822562535
 21
50.2595896245
  0
LINE
  5
29F
100
AcDbEntity
  8
0
100
AcDbLine
 62
7
  6
CONTINUOUS
 10
22.2684921557
 20
17.3647551198
 11
22.2684921557
 21
17.4699042845
  0
LINE
  5
2A0
100
AcDbEntity
  8
0
100
AcDbLine
 62
7
  6
CONTINUOUS
 10
22.2684921557
 20
20.4756293284
 11
22.2684921557
 21
20.580778494
  0
LINE
  5
2A1
100
AcDbEntity
  8
0
100
AcDbLine
 62
7
  6
CONTINUOUS
 10
22.2684921557
 20
23.5865035379
 11
22.2684921557
 21
23.6916527035
  0
LINE
  5
2A2
100
AcDbEntity
  8
0
100
AcDbLine
 62
7
  6
CONTINUOUS
 10
22.2684921557
 20
26.6973777474
 11
22.2684921557
 21
26.802526913
  0
LINE
  5
2A3
100
AcDbEntity
  8
0
100
AcDbLine
 62
7
  6
CONTINUOUS
 10
22.2684921557
 20
29.8082519571
 11
22.2684921557
 21
29.9134011213
  0
LINE
  5
2A4
100
AcDbEntity
  8
0
100
AcDbLine
 62
7
  6
CONTINUOUS
 10
22.2684921557
 20
32.9191261658
 11
22.2684921557
 21
33.0242753308
  0
LINE
  5
2A5
100
AcDbEntity
  8
0
100
AcDbLine
 62
7
  6
CONTINUOUS
 10
22.2684921557
 20
36.030000375
 11
22.2684921557
 21
36.1351495407
  0
LINE
  5
2A6
100
AcDbEntity
  8
0
100
AcDbLine
 62
7
  6
CONTINUOUS
 10
22.2684921557
 20
39.1408745848
 11
22.2684921557
 21
39.246023749
  0
LINE
  5
2A7
100
AcDbEntity
  8
0
100
AcDbLine
 62
7
  6
CONTINUOUS
 10
22.2684921557
 20
42.2517487932
 11
22.2684921557
 21
42.3568979588
  0
LINE
  5
2A8
100
AcDbEntity
  8
0
100
AcDbLine
 62
7
  6
CONTINUOUS
 10
22.2684921557
 20
45.3626230029
 11
22.2684921557
 21
45.467772168
  0
LINE
  5
2A9
100
AcDbEntity
  8
0
100
AcDbLine
 62
7
  6
CONTINUOUS
 10
22.2684921557
 20
50.4331030135
 11
22.2684921557
 21
50.5382521783
  0
LINE
  5
2AA
100
AcDbEntity
  8
0
100
AcDbLine
 62
7
  6
CONTINUOUS
 10
22.2684921557
 20
53.5439772222
 11
22.2684921557
 21
53.6491263878
  0
LINE
  5
2AB
100
AcDbEntity
  8
0
100
AcDbLine
 62
7
  6
CONTINUOUS
 10
22.2684921557
 20
56.6548514317
 11
22.2684921557
 21
56.7600005973
  0
LINE
  5
2AC
100
AcDbEntity
  8
0
100
AcDbLine
 62
7
  6
CONTINUOUS
 10
22.2684921557
 20
59.7657256411
 11
22.2684921557
 21
59.8708748067
  0
LINE
  5
2AD
100
AcDbEntity
  8
0
100
AcDbLine
 62
7
  6
CONTINUOUS
 10
22.2684921557
 20
62.8765998509
 11
22.2684921557
 21
62.9817490151
  0
LINE
  5
2AE
100
AcDbEntity
  8
0
100
AcDbLine
 62
7
  6
CONTINUOUS
 10
22.2684921557
 20
65.9874740595
 11
22.2684921557
 21
66.0926232246
  0
LINE
  5
2AF
100
AcDbEntity
  8
0
100
AcDbLine
 62
7
  6
CONTINUOUS
 10
22.2684921557
 20
69.0983482688
 11
22.2684921557
 21
69.2034974344
  0
LINE
  5
2B0
100
AcDbEntity
  8
0
100
AcDbLine
 62
7
  6
CONTINUOUS
 10
22.2684921557
 20
72.2092224785
 11
22.2684921557
 21
72.3143716427
  0
LINE
  5
2B1
100
AcDbEntity
  8
0
100
AcDbLine
 62
7
  6
CONTINUOUS
 10
22.2684921557
 20
75.320096687
 11
22.2684921557
 21
75.4252458526
  0
LINE
  5
2B2
100
AcDbEntity
  8
0
100
AcDbLine
 62
7
  6
CONTINUOUS
 10
22.2684921557
 20
78.4309708967
 11
22.2684921557
 21
78.5361200617
  0
LINE
  5
2B3
100
AcDbEntity
  8
0
100
AcDbLine
 62
7
  6
CONTINUOUS
 10
25.0121069087
 20
82.7522973141
 11
25.0121069087
 21
57.5285631258
  0
LINE
  5
2B4
100
AcDbEntity
  8
0
100
AcDbLine
 62
7
  6
CONTINUOUS
 10
39.3451066431
 20
86.6054771048
 11
34.10513385
 21
83.4745806605
  0
LINE
  5
2B5
100
AcDbEntity
  8
0
100
AcDbLine
 62
7
  6
CONTINUOUS
 10
26.779611981
 20
83.7727960196
 11
29.1132572596
 21
85.120118707
  0
LINE
  5
2B6
100
AcDbEntity
  8
0
100
AcDbLine
 62
7
  6
CONTINUOUS
 10
25.0121069087
 20
81.8778997767
 11
20.0764702606
 21
79.028325639
  0
LINE
  5
2B7
100
AcDbEntity
  8
0
100
AcDbLine
 62
7
  6
CONTINUOUS
 10
20.0764737924
 20
78.5384346928
 11
20.5007375087
 21
78.7833820015
  0
LINE
  5
2B8
100
AcDbEntity
  8
0
100
AcDbLine
 62
7
  6
CONTINUOUS
 10
19.3189472702
 20
77.2265202369
 11
18.665005309
 21
76.8489689232
  0
LINE
  5
2B9
100
AcDbEntity
  8
0
100
AcDbLine
 62
7
  6
CONTINUOUS
 10
22.2684921557
 20
78.5361200622
 11
20.5007360956
 21
77.5155117173
  0
LINE
  5
2BA
100
AcDbEntity
  8
0
100
AcDbLine
 62
7
  6
CONTINUOUS
 10
21.8821803355
 20
78.257501337
 11
20.5007360956
 21
77.4599288941
  0
LINE
  5
2BB
100
AcDbEntity
  8
0
100
AcDbLine
 62
7
  6
CONTINUOUS
 10
19.4240082575
 20
76.8382834976
 11
19.0537649866
 21
76.6245247215
  0
LINE
  5
2BC
100
AcDbEntity
  8
0
100
AcDbLine
 62
7
  6
CONTINUOUS
 10
20.5007360956
 20
77.4103625513
 11
22.2684921557
 21
78.4309708962
  0
LINE
  5
2BD
100
AcDbEntity
  8
0
100
AcDbLine
 62
7
  6
CONTINUOUS
 10
31.606946988
 20
83.6804188413
 11
29.2733017094
 21
82.333096154
  0
LINE
  5
2BE
100
AcDbEntity
  8
0
100
AcDbLine
 62
7
  6
CONTINUOUS
 10
39.3451066425
 20
86.6054771048
 11
83.1855445504
 21
111.9166146452
  0
LINE
  5
2BF
100
AcDbEntity
  8
0
100
AcDbLine
 62
7
  6
CONTINUOUS
 10
19.0539167191
 20
52.6355961057
 11
18.6650046021
 21
52.8601295412
  0
LINE
  5
2C0
100
AcDbEntity
  8
0
100
AcDbLine
 62
7
  6
CONTINUOUS
 10
18.665005309
 20
55.0728494586
 11
19.0537649864
 21
54.848405257
  0
LINE
  5
2C1
100
AcDbEntity
  8
0
100
AcDbLine
 62
7
  6
CONTINUOUS
 10
21.8340433793
 20
53.398298767
 11
21.8822562473
 21
53.3704638364
  0
LINE
  5
2C2
100
AcDbEntity
  8
0
100
AcDbLine
 62
7
  6
CONTINUOUS
 10
19.0539167191
 20
55.746470315
 11
18.6650046021
 21
55.9710037505
  0
LINE
  5
2C3
100
AcDbEntity
  8
0
100
AcDbLine
 62
7
  6
CONTINUOUS
 10
27.2818301096
 20
51.4345372141
 11
27.3457521876
 21
51.3976326201
  0
LINE
  5
2C4
100
AcDbEntity
  8
0
100
AcDbLine
 62
7
  6
CONTINUOUS
 10
27.3457521876
 20
54.1403177269
 11
27.3457521876
 21
16.7677144908
  0
LINE
  5
2C5
100
AcDbEntity
  8
0
100
AcDbLine
 62
7
  6
CONTINUOUS
 10
13.7178324939
 20
48.7547961078
 11
13.2825052686
 21
48.0642562477
  0
LINE
  5
2C6
100
AcDbEntity
  8
0
100
AcDbLine
 62
7
  6
CONTINUOUS
 10
19.3189472705
 20
74.115646028
 11
18.665005309
 21
73.7380947142
  0
LINE
  5
2C7
100
AcDbEntity
  8
0
100
AcDbLine
 62
7
  6
CONTINUOUS
 10
22.2684921557
 20
75.4252458526
 11
20.5007360956
 21
74.4046375076
  0
LINE
  5
2C8
100
AcDbEntity
  8
0
100
AcDbLine
 62
7
  6
CONTINUOUS
 10
45.2580818131
 20
88.6620878866
 11
47.0792355326
 21
89.7135252005
  0
LINE
  5
2C9
100
AcDbEntity
  8
0
100
AcDbLine
 62
7
  6
CONTINUOUS
 10
67.885404604
 20
101.7259008104
 11
69.7065583235
 21
102.7773381244
  0
LINE
  5
2CA
100
AcDbEntity
  8
0
100
AcDbLine
 62
7
  6
CONTINUOUS
 10
21.8821803352
 20
75.1466271281
 11
20.5007360956
 21
74.3490546854
  0
LINE
  5
2CB
100
AcDbEntity
  8
0
100
AcDbLine
 62
7
  6
CONTINUOUS
 10
19.4240082575
 20
73.7274092889
 11
19.0537649864
 21
73.5136505126
  0
LINE
  5
2CC
100
AcDbEntity
  8
0
100
AcDbLine
 62
7
  6
CONTINUOUS
 10
20.5007360956
 20
74.2994883416
 11
22.2684921557
 21
75.3200966865
  0
LINE
  5
2CD
100
AcDbEntity
  8
0
100
AcDbLine
 62
7
  6
CONTINUOUS
 10
76.4450761868
 20
106.487147357
 11
78.0930640229
 21
107.4386078984
  0
LINE
  5
2CE
100
AcDbEntity
  8
0
100
AcDbLine
 62
7
  6
CONTINUOUS
 10
76.4450761868
 20
105.4938409372
 11
76.6910020793
 21
105.6358254699
  0
LINE
  5
2CF
100
AcDbEntity
  8
0
100
AcDbLine
 62
7
  6
CONTINUOUS
 10
31.0408067817
 20
79.2717045607
 11
33.3744520603
 21
80.6190272481
  0
LINE
  5
2D0
100
AcDbEntity
  8
0
100
AcDbLine
 62
7
  6
CONTINUOUS
 10
68.2919685968
 20
100.5929697915
 11
67.8985803132
 21
100.3658483159
  0
LINE
  5
2D1
100
AcDbEntity
  8
0
100
AcDbLine
 62
7
  6
CONTINUOUS
 10
45.6650160823
 20
87.5289430826
 11
45.2580818131
 21
87.2940008751
  0
LINE
  5
2D2
100
AcDbEntity
  8
0
100
AcDbLine
 62
7
  6
CONTINUOUS
 10
58.6366988561
 20
93.838457078
 11
65.2958174687
 21
97.6830780523
  0
LINE
  5
2D3
100
AcDbEntity
  8
0
100
AcDbLine
 62
7
  6
CONTINUOUS
 10
19.3189472704
 20
71.0047718185
 11
18.665005309
 21
70.6272205047
  0
LINE
  5
2D4
100
AcDbEntity
  8
0
100
AcDbLine
 62
7
  6
CONTINUOUS
 10
70.4025043111
 20
100.4002812899
 11
76.4450761868
 21
103.8889409644
  0
LINE
  5
2D5
100
AcDbEntity
  8
0
100
AcDbLine
 62
7
  6
CONTINUOUS
 10
78.0930640229
 20
104.8404015058
 11
78.2909888588
 21
104.954672781
  0
LINE
  5
2D6
100
AcDbEntity
  8
0
100
AcDbLine
 62
7
  6
CONTINUOUS
 10
69.7061880466
 20
99.7764882816
 11
67.8857748796
 21
98.7254785233
  0
LINE
  5
2D7
100
AcDbEntity
  8
0
100
AcDbLine
 62
7
  6
CONTINUOUS
 10
47.0792355326
 20
86.7124615736
 11
45.2580818131
 21
85.6610242596
  0
LINE
  5
2D8
100
AcDbEntity
  8
0
100
AcDbLine
 62
7
  6
CONTINUOUS
 10
22.2684921557
 20
72.3143716429
 11
20.5007360956
 21
71.293763298
  0
LINE
  5
2D9
100
AcDbEntity
  8
0
100
AcDbLine
 62
7
  6
CONTINUOUS
 10
21.8821803355
 20
72.0357529184
 11
20.5007360956
 21
71.2381804756
  0
LINE
  5
2DA
100
AcDbEntity
  8
0
100
AcDbLine
 62
7
  6
CONTINUOUS
 10
19.4240082575
 20
70.6165350791
 11
19.0537649866
 21
70.402776303
  0
LINE
  5
2DB
100
AcDbEntity
  8
0
100
AcDbLine
 62
7
  6
CONTINUOUS
 10
20.5007360956
 20
71.1886141335
 11
22.2684921557
 21
72.2092224784
  0
LINE
  5
2DC
100
AcDbEntity
  8
0
100
AcDbLine
 62
7
  6
CONTINUOUS
 10
70.5283740887
 20
100.0365957373
 11
75.3366801824
 21
102.812655984
  0
LINE
  5
2DD
100
AcDbEntity
  8
0
100
AcDbLine
 62
7
  6
CONTINUOUS
 10
72.9219205773
 20
100.7448877033
 11
74.2654178683
 21
101.5205515957
  0
LINE
  5
2DE
100
AcDbEntity
  8
0
100
AcDbLine
 62
7
  6
CONTINUOUS
 10
18.665005309
 20
58.1837236679
 11
19.0537649864
 21
57.9592794663
  0
LINE
  5
2DF
100
AcDbEntity
  8
0
100
AcDbLine
 62
7
  6
CONTINUOUS
 10
21.8340433793
 20
56.5091729767
 11
21.8822562497
 21
56.4813380446
  0
LINE
  5
2E0
100
AcDbEntity
  8
0
100
AcDbLine
 62
7
  6
CONTINUOUS
 10
19.0539167191
 20
58.8573445242
 11
18.6650046021
 21
59.0818779597
  0
LINE
  5
2E1
100
AcDbEntity
  8
0
100
AcDbLine
 62
7
  6
CONTINUOUS
 10
26.7796119809
 20
54.4671715332
 11
29.2733017094
 21
53.0274716676
  0
LINE
  5
2E2
100
AcDbEntity
  8
0
100
AcDbLine
 62
7
  6
CONTINUOUS
 10
18.665005309
 20
61.2945978769
 11
19.0537649866
 21
61.0701536752
  0
LINE
  5
2E3
100
AcDbEntity
  8
0
100
AcDbLine
 62
7
  6
CONTINUOUS
 10
21.8340433793
 20
59.6200471863
 11
21.8822562521
 21
59.5922122529
  0
LINE
  5
2E4
100
AcDbEntity
  8
0
100
AcDbLine
 62
7
  6
CONTINUOUS
 10
19.0539167185
 20
61.9682187337
 11
18.6650046024
 21
62.1927521688
  0
LINE
  5
2E5
100
AcDbEntity
  8
0
100
AcDbLine
 62
7
  6
CONTINUOUS
 10
31.0408067817
 20
54.0490406514
 11
31.0408067817
 21
79.2717111022
  0
LINE
  5
2E6
100
AcDbEntity
  8
0
100
AcDbLine
 62
7
  6
CONTINUOUS
 10
33.3744520603
 20
55.3952930605
 11
33.3744520603
 21
80.6190272481
  0
LINE
  5
2E7
100
AcDbEntity
  8
0
100
AcDbLine
 62
7
  6
CONTINUOUS
 10
33.6882759455
 20
10.4497479685
 11
33.6882759455
 21
82.7440822382
  0
LINE
  5
2E8
100
AcDbEntity
  8
0
100
AcDbLine
 62
7
  6
CONTINUOUS
 10
71.5996364023
 20
99.4262494925
 11
72.9219205773
 21
100.1896660599
  0
LINE
  5
2E9
100
AcDbEntity
  8
0
100
AcDbLine
 62
7
  6
CONTINUOUS
 10
75.3366801824
 20
100.934700424
 11
75.3084227364
 21
100.9183860774
  0
LINE
  5
2EA
100
AcDbEntity
  8
0
100
AcDbLine
 62
7
  6
CONTINUOUS
 10
71.0940571585
 20
98.4852355005
 11
70.5283740887
 21
98.1586401774
  0
LINE
  5
2EB
100
AcDbEntity
  8
0
100
AcDbLine
 62
7
  6
CONTINUOUS
 10
74.12400711
 20
100.0508784216
 11
75.4675044002
 21
100.8265423138
  0
LINE
  5
2EC
100
AcDbEntity
  8
0
100
AcDbLine
 62
7
  6
CONTINUOUS
 10
19.3189472702
 20
67.8938976093
 11
18.665005309
 21
67.5163462957
  0
LINE
  5
2ED
100
AcDbEntity
  8
0
100
AcDbLine
 62
7
  6
CONTINUOUS
 10
72.8017229344
 20
98.7322402103
 11
74.12400711
 21
99.495656778
  0
LINE
  5
2EE
100
AcDbEntity
  8
0
100
AcDbLine
 62
7
  6
CONTINUOUS
 10
22.2684921557
 20
69.2034974347
 11
20.5007360956
 21
68.1828890898
  0
LINE
  5
2EF
100
AcDbEntity
  8
0
100
AcDbLine
 62
7
  6
CONTINUOUS
 10
21.8821803352
 20
68.9248787096
 11
20.5007360956
 21
68.1273062669
  0
LINE
  5
2F0
100
AcDbEntity
  8
0
100
AcDbLine
 62
7
  6
CONTINUOUS
 10
19.4240082575
 20
67.5056608704
 11
19.0537649864
 21
67.2919020941
  0
LINE
  5
2F1
100
AcDbEntity
  8
0
100
AcDbLine
 62
7
  6
CONTINUOUS
 10
20.5007360956
 20
68.0777399238
 11
22.2684921557
 21
69.0983482687
  0
LINE
  5
2F2
100
AcDbEntity
  8
0
100
AcDbLine
 62
7
  6
CONTINUOUS
 10
63.8815980189
 20
92.6064900556
 11
58.6366988561
 21
89.5783641875
  0
LINE
  5
2F3
100
AcDbEntity
  8
0
100
AcDbLine
 62
7
  6
CONTINUOUS
 10
65.2958174687
 20
91.7900085462
 11
58.6366988561
 21
87.945387572
  0
LINE
  5
2F4
100
AcDbEntity
  8
0
100
AcDbLine
 62
7
  6
CONTINUOUS
 10
19.3189472701
 20
64.7830233998
 11
18.665005309
 21
64.4054720862
  0
LINE
  5
2F5
100
AcDbEntity
  8
0
100
AcDbLine
 62
7
  6
CONTINUOUS
 10
63.8939405623
 20
37.9079540361
 11
65.3081600126
 21
37.091472527
  0
LINE
  5
2F6
100
AcDbEntity
  8
0
100
AcDbLine
 62
7
  6
CONTINUOUS
 10
18.665005309
 20
64.4054720862
 11
19.0537649866
 21
64.1810278844
  0
LINE
  5
2F7
100
AcDbEntity
  8
0
100
AcDbLine
 62
7
  6
CONTINUOUS
 10
21.8340433793
 20
62.7309213945
 11
21.8822562472
 21
62.703086464
  0
LINE
  5
2F8
100
AcDbEntity
  8
0
100
AcDbLine
 62
7
  6
CONTINUOUS
 10
19.0539167185
 20
65.0790929429
 11
18.6650046024
 21
65.303626378
  0
LINE
  5
2F9
100
AcDbEntity
  8
0
100
AcDbLine
 62
7
  6
CONTINUOUS
 10
18.665005309
 20
67.5163462957
 11
19.0537649864
 21
67.2919020941
  0
LINE
  5
2FA
100
AcDbEntity
  8
0
100
AcDbLine
 62
7
  6
CONTINUOUS
 10
21.8340433793
 20
65.8417956042
 11
21.8822562496
 21
65.8139606722
  0
LINE
  5
2FB
100
AcDbEntity
  8
0
100
AcDbLine
 62
7
  6
CONTINUOUS
 10
18.0379946132
 20
79.3549151818
 11
18.096569506
 21
79.273266351
  0
LINE
  5
2FC
100
AcDbEntity
  8
0
100
AcDbLine
 62
7
  6
CONTINUOUS
 10
36.1517697763
 20
27.3893907754
 11
36.1517697763
 21
31.9064113327
  0
LINE
  5
2FD
100
AcDbEntity
  8
0
100
AcDbLine
 62
7
  6
CONTINUOUS
 10
36.1517697763
 20
64.1319995462
 11
36.1517697763
 21
68.6490201035
  0
LINE
  5
2FE
100
AcDbEntity
  8
0
100
AcDbLine
 62
7
  6
CONTINUOUS
 10
36.1749351413
 20
68.6490201035
 11
36.1749351413
 21
65.7778449158
  0
LINE
  5
2FF
100
AcDbEntity
  8
0
100
AcDbLine
 62
7
  6
CONTINUOUS
 10
36.1749351413
 20
31.9064113327
 11
36.1749351413
 21
29.035236145
  0
LINE
  5
300
100
AcDbEntity
  8
0
100
AcDbLine
 62
7
  6
CONTINUOUS
 10
37.5891545924
 20
69.4793953566
 11
37.5891545924
 21
64.9613634069
  0
LINE
  5
301
100
AcDbEntity
  8
0
100
AcDbLine
 62
7
  6
CONTINUOUS
 10
37.5891545924
 20
32.7367865857
 11
37.5891545924
 21
28.2187546361
  0
LINE
  5
302
100
AcDbEntity
  8
0
100
AcDbLine
 62
7
  6
CONTINUOUS
 10
38.9298608777
 20
100.9400525751
 11
38.9298608777
 21
101.88272544
  0
LINE
  5
303
100
AcDbEntity
  8
0
100
AcDbLine
 62
7
  6
CONTINUOUS
 10
18.0965683302
 20
46.3682154401
 11
18.0379946132
 21
46.2865672881
  0
LINE
  5
304
100
AcDbEntity
  8
0
100
AcDbLine
 62
7
  6
CONTINUOUS
 10
22.2684921557
 20
66.092623225
 11
20.5007360956
 21
65.0720148801
  0
LINE
  5
305
100
AcDbEntity
  8
0
100
AcDbLine
 62
7
  6
CONTINUOUS
 10
21.8821803355
 20
65.8140044999
 11
20.5007360956
 21
65.016432057
  0
LINE
  5
306
100
AcDbEntity
  8
0
100
AcDbLine
 62
7
  6
CONTINUOUS
 10
19.4240082575
 20
64.3947866605
 11
19.0537649866
 21
64.1810278844
  0
LINE
  5
307
100
AcDbEntity
  8
0
100
AcDbLine
 62
7
  6
CONTINUOUS
 10
20.5007360956
 20
64.9668657141
 11
22.2684921557
 21
65.987474059
  0
LINE
  5
308
100
AcDbEntity
  8
0
100
AcDbLine
 62
7
  6
CONTINUOUS
 10
78.2909888588
 20
97.1289980555
 11
78.6846540433
 21
97.3562793991
  0
LINE
  5
309
100
AcDbEntity
  8
0
100
AcDbLine
 62
7
  6
CONTINUOUS
 10
19.3189472705
 20
61.6721491907
 11
18.665005309
 21
61.2945978769
  0
LINE
  5
30A
100
AcDbEntity
  8
0
100
AcDbLine
 62
7
  6
CONTINUOUS
 10
22.2684921557
 20
62.9817490153
 11
20.5007360956
 21
61.9611406704
  0
LINE
  5
30B
100
AcDbEntity
  8
0
100
AcDbLine
 62
7
  6
CONTINUOUS
 10
21.8821803355
 20
62.7031302907
 11
20.5007360956
 21
61.9055578478
  0
LINE
  5
30C
100
AcDbEntity
  8
0
100
AcDbLine
 62
7
  6
CONTINUOUS
 10
19.4240082575
 20
61.2839124513
 11
19.0537649866
 21
61.0701536752
  0
LINE
  5
30D
100
AcDbEntity
  8
0
100
AcDbLine
 62
7
  6
CONTINUOUS
 10
20.5007360956
 20
61.855991506
 11
22.2684921557
 21
62.8765998509
  0
LINE
  5
30E
100
AcDbEntity
  8
0
100
AcDbLine
 62
7
  6
CONTINUOUS
 10
19.0539167191
 20
68.189967152
 11
18.6650046021
 21
68.4145005875
  0
LINE
  5
30F
100
AcDbEntity
  8
0
100
AcDbLine
 62
7
  6
CONTINUOUS
 10
18.665005309
 20
70.6272205047
 11
19.0537649866
 21
70.402776303
  0
LINE
  5
310
100
AcDbEntity
  8
0
100
AcDbLine
 62
7
  6
CONTINUOUS
 10
21.8340433793
 20
68.9526698139
 11
21.8822562506
 21
68.9248348813
  0
LINE
  5
311
100
AcDbEntity
  8
0
100
AcDbLine
 62
7
  6
CONTINUOUS
 10
76.7775849197
 20
37.7219852312
 11
78.19180437
 21
36.9055037222
  0
LINE
  5
312
100
AcDbEntity
  8
0
100
AcDbLine
 62
7
  6
CONTINUOUS
 10
19.0539167185
 20
71.3008413615
 11
18.6650046024
 21
71.5253747966
  0
LINE
  5
313
100
AcDbEntity
  8
0
100
AcDbLine
 62
7
  6
CONTINUOUS
 10
39.3574491874
 20
29.4431817312
 11
39.3574491874
 21
33.5541980234
  0
LINE
  5
314
100
AcDbEntity
  8
0
100
AcDbLine
 62
7
  6
CONTINUOUS
 10
39.3574491874
 20
66.185790502
 11
39.3574491874
 21
70.2968067942
  0
LINE
  5
315
100
AcDbEntity
  8
0
100
AcDbLine
 62
7
  6
CONTINUOUS
 10
39.6986467859
 20
70.4937961437
 11
39.6986467859
 21
68.0157564674
  0
LINE
  5
316
100
AcDbEntity
  8
0
100
AcDbLine
 62
7
  6
CONTINUOUS
 10
39.6986467859
 20
33.7511873728
 11
39.6986467859
 21
31.2731476966
  0
LINE
  5
317
100
AcDbEntity
  8
0
100
AcDbLine
 62
7
  6
CONTINUOUS
 10
41.1128662366
 20
71.3102912504
 11
41.1128662366
 21
67.1992749582
  0
LINE
  5
318
100
AcDbEntity
  8
0
100
AcDbLine
 62
7
  6
CONTINUOUS
 10
41.1128662366
 20
34.5676824795
 11
41.1128662366
 21
30.4566661874
  0
LINE
  5
319
100
AcDbEntity
  8
0
100
AcDbLine
 62
7
  6
CONTINUOUS
 10
42.0320136852
 20
98.6628527421
 11
42.0320136852
 21
100.2958575764
  0
LINE
  5
31A
100
AcDbEntity
  8
0
100
AcDbLine
 62
7
  6
CONTINUOUS
 10
42.0965036181
 20
110.1575736792
 11
42.0965036181
 21
106.5355639347
  0
LINE
  5
31B
100
AcDbEntity
  8
0
100
AcDbLine
 62
7
  6
CONTINUOUS
 10
36.1517697763
 20
68.6490201035
 11
37.5891545924
 21
69.4793953566
  0
LINE
  5
31C
100
AcDbEntity
  8
0
100
AcDbLine
 62
7
  6
CONTINUOUS
 10
39.3574491874
 20
70.2968067942
 11
41.1128662366
 21
71.3102912504
  0
LINE
  5
31D
100
AcDbEntity
  8
0
100
AcDbLine
 62
7
  6
CONTINUOUS
 10
19.3189472703
 20
58.5612749816
 11
18.665005309
 21
58.1837236679
  0
LINE
  5
31E
100
AcDbEntity
  8
0
100
AcDbLine
 62
7
  6
CONTINUOUS
 10
77.2704345935
 20
91.8856922963
 11
76.876769409
 21
91.6584109527
  0
LINE
  5
31F
100
AcDbEntity
  8
0
100
AcDbLine
 62
7
  6
CONTINUOUS
 10
22.2684921557
 20
59.8708748071
 11
20.5007360956
 21
58.8502664622
  0
LINE
  5
320
100
AcDbEntity
  8
0
100
AcDbLine
 62
7
  6
CONTINUOUS
 10
21.8821803352
 20
59.5922560818
 11
20.5007360956
 21
58.7946836391
  0
LINE
  5
321
100
AcDbEntity
  8
0
100
AcDbLine
 62
7
  6
CONTINUOUS
 10
19.4240082575
 20
58.1730382426
 11
19.0537649864
 21
57.9592794663
  0
LINE
  5
322
100
AcDbEntity
  8
0
100
AcDbLine
 62
7
  6
CONTINUOUS
 10
20.5007360956
 20
58.7451172962
 11
22.2684921557
 21
59.7657256411
  0
LINE
  5
323
100
AcDbEntity
  8
0
100
AcDbLine
 62
7
  6
CONTINUOUS
 10
63.8816097943
 20
83.1350970328
 11
66.7100251431
 21
84.7680736483
  0
LINE
  5
324
100
AcDbEntity
  8
0
100
AcDbLine
 62
7
  6
CONTINUOUS
 10
78.6846540433
 20
91.0692107863
 11
78.2909888588
 21
90.8419294427
  0
LINE
  5
325
100
AcDbEntity
  8
0
100
AcDbLine
 62
7
  6
CONTINUOUS
 10
39.6986467859
 20
68.0157564674
 11
39.3574491874
 21
67.8187671179
  0
LINE
  5
326
100
AcDbEntity
  8
0
100
AcDbLine
 62
7
  6
CONTINUOUS
 10
19.3189472701
 20
55.4504007723
 11
18.665005309
 21
55.0728494586
  0
LINE
  5
327
100
AcDbEntity
  8
0
100
AcDbLine
 62
7
  6
CONTINUOUS
 10
11.3083132026
 20
50.5322721566
 11
12.2346473205
 21
51.0670882165
  0
LINE
  5
328
100
AcDbEntity
  8
0
100
AcDbLine
 62
7
  6
CONTINUOUS
 10
22.2684921557
 20
56.7600005975
 11
20.5007360956
 21
55.7393922525
  0
LINE
  5
329
100
AcDbEntity
  8
0
100
AcDbLine
 62
7
  6
CONTINUOUS
 10
21.8821803352
 20
56.4813818725
 11
20.5007360956
 21
55.6838094298
  0
LINE
  5
32A
100
AcDbEntity
  8
0
100
AcDbLine
 62
7
  6
CONTINUOUS
 10
19.4240082575
 20
55.0621640333
 11
19.0537649864
 21
54.848405257
  0
LINE
  5
32B
100
AcDbEntity
  8
0
100
AcDbLine
 62
7
  6
CONTINUOUS
 10
20.5007360956
 20
55.6342430865
 11
22.2684921557
 21
56.6548514315
  0
LINE
  5
32C
100
AcDbEntity
  8
0
100
AcDbLine
 62
7
  6
CONTINUOUS
 10
41.1128662366
 20
67.1992749582
 11
39.3574491874
 21
66.185790502
  0
LINE
  5
32D
100
AcDbEntity
  8
0
100
AcDbLine
 62
7
  6
CONTINUOUS
 10
70.5283740887
 20
84.1147986033
 11
71.094057159
 21
84.4413939267
  0
LINE
  5
32E
100
AcDbEntity
  8
0
100
AcDbLine
 62
7
  6
CONTINUOUS
 10
36.1749351413
 20
65.7778449158
 11
36.1517697763
 21
65.7644786159
  0
LINE
  5
32F
100
AcDbEntity
  8
0
100
AcDbLine
 62
7
  6
CONTINUOUS
 10
37.5891545924
 20
64.9613634069
 11
36.1517697763
 21
64.1319995462
  0
LINE
  5
330
100
AcDbEntity
  8
0
100
AcDbLine
 62
7
  6
CONTINUOUS
 10
18.665005309
 20
73.7380947142
 11
19.0537649864
 21
73.5136505126
  0
LINE
  5
331
100
AcDbEntity
  8
0
100
AcDbLine
 62
7
  6
CONTINUOUS
 10
21.8340433794
 20
72.0635440222
 11
21.8822562456
 21
72.0357090924
  0
LINE
  5
332
100
AcDbEntity
  8
0
100
AcDbLine
 62
7
  6
CONTINUOUS
 10
19.0539167191
 20
74.4117155706
 11
18.6650046021
 21
74.636249006
  0
LINE
  5
333
100
AcDbEntity
  8
0
100
AcDbLine
 62
7
  6
CONTINUOUS
 10
36.1749351413
 20
65.7778449158
 11
37.5891545919
 21
64.9613634066
  0
LINE
  5
334
100
AcDbEntity
  8
0
100
AcDbLine
 62
7
  6
CONTINUOUS
 10
18.665005309
 20
76.8489689232
 11
19.0537649866
 21
76.6245247215
  0
LINE
  5
335
100
AcDbEntity
  8
0
100
AcDbLine
 62
7
  6
CONTINUOUS
 10
21.8340433793
 20
75.1744182318
 11
21.8822562468
 21
75.1465833014
  0
LINE
  5
336
100
AcDbEntity
  8
0
100
AcDbLine
 62
7
  6
CONTINUOUS
 10
19.0539167185
 20
77.52258978
 11
18.6650046024
 21
77.7471232151
  0
LINE
  5
337
100
AcDbEntity
  8
0
100
AcDbLine
 62
7
  6
CONTINUOUS
 10
13.3522828427
 20
80.9508936065
 11
14.4903186231
 21
80.2938632063
  0
LINE
  5
338
100
AcDbEntity
  8
0
100
AcDbLine
 62
7
  6
CONTINUOUS
 10
44.2363451986
 20
108.9435394939
 11
44.2363451986
 21
105.6775354701
  0
LINE
  5
339
100
AcDbEntity
  8
0
100
AcDbLine
 62
7
  6
CONTINUOUS
 10
45.2580818131
 20
17.8913236379
 11
45.2580818131
 21
20.8923872648
  0
LINE
  5
33A
100
AcDbEntity
  8
0
100
AcDbLine
 62
7
  6
CONTINUOUS
 10
45.2580818131
 20
85.6610242596
 11
45.2580818131
 21
88.6620878866
  0
LINE
  5
33B
100
AcDbEntity
  8
0
100
AcDbLine
 62
7
  6
CONTINUOUS
 10
45.6650160823
 20
88.897030094
 11
45.6650160823
 21
87.5289430826
  0
LINE
  5
33C
100
AcDbEntity
  8
0
100
AcDbLine
 62
7
  6
CONTINUOUS
 10
45.6650160823
 20
21.1273294722
 11
45.6650160823
 21
19.7592424609
  0
LINE
  5
33D
100
AcDbEntity
  8
0
100
AcDbLine
 62
7
  6
CONTINUOUS
 10
47.0792355326
 20
89.7135252005
 11
47.0792355326
 21
86.7124615736
  0
LINE
  5
33E
100
AcDbEntity
  8
0
100
AcDbLine
 62
7
  6
CONTINUOUS
 10
47.0792355326
 20
21.9438245787
 11
47.0792355326
 21
18.9427609518
  0
LINE
  5
33F
100
AcDbEntity
  8
0
100
AcDbLine
 62
7
  6
CONTINUOUS
 10
82.202596499
 20
87.3963094848
 11
81.6299161084
 21
87.0541315644
  0
LINE
  5
340
100
AcDbEntity
  8
0
100
AcDbLine
 62
7
  6
CONTINUOUS
 10
81.27636419
 20
88.4830143212
 11
80.3571292011
 21
87.9522969209
  0
LINE
  5
341
100
AcDbEntity
  8
0
100
AcDbLine
 62
7
  6
CONTINUOUS
 10
72.6638549288
 20
83.4697561217
 11
70.5283740887
 21
82.2368430433
  0
LINE
  5
342
100
AcDbEntity
  8
0
100
AcDbLine
 62
7
  6
CONTINUOUS
 10
74.12400711
 20
84.1535763601
 11
72.8017229342
 21
83.3901597923
  0
LINE
  5
343
100
AcDbEntity
  8
0
100
AcDbLine
 62
7
  6
CONTINUOUS
 10
19.3189472705
 20
52.3395265632
 11
18.665005309
 21
51.9619752494
  0
LINE
  5
344
100
AcDbEntity
  8
0
100
AcDbLine
 62
7
  6
CONTINUOUS
 10
75.4675044007
 20
84.3740186088
 11
74.1240071105
 21
83.5983547168
  0
LINE
  5
345
100
AcDbEntity
  8
0
100
AcDbLine
 62
7
  6
CONTINUOUS
 10
22.2684921557
 20
53.6491263878
 11
20.5007360956
 21
52.6285180429
  0
LINE
  5
346
100
AcDbEntity
  8
0
100
AcDbLine
 62
7
  6
CONTINUOUS
 10
21.8821803352
 20
53.3705076633
 11
20.5007360956
 21
52.5729352206
  0
LINE
  5
347
100
AcDbEntity
  8
0
100
AcDbLine
 62
7
  6
CONTINUOUS
 10
19.4240082575
 20
51.9512898241
 11
19.0537649864
 21
51.7375310478
  0
LINE
  5
348
100
AcDbEntity
  8
0
100
AcDbLine
 62
7
  6
CONTINUOUS
 10
20.5007360956
 20
52.5233688769
 11
22.2684921557
 21
53.5439772218
  0
LINE
  5
349
100
AcDbEntity
  8
0
100
AcDbLine
 62
7
  6
CONTINUOUS
 10
15.5509750842
 20
48.907504349
 11
14.9145816321
 21
48.5400846113
  0
LINE
  5
34A
100
AcDbEntity
  8
0
100
AcDbLine
 62
7
  6
CONTINUOUS
 10
76.82159824
 20
83.8289599702
 11
70.4025043111
 21
80.1229164845
  0
LINE
  5
34B
100
AcDbEntity
  8
0
100
AcDbLine
 62
7
  6
CONTINUOUS
 10
76.876769409
 20
83.8327362273
 11
70.4025043111
 21
80.0948398425
  0
LINE
  5
34C
100
AcDbEntity
  8
0
100
AcDbLine
 62
7
  6
CONTINUOUS
 10
14.9145816347
 20
47.2255169459
 11
15.5509750849
 21
47.5929366825
  0
LINE
  5
34D
100
AcDbEntity
  8
0
100
AcDbLine
 62
7
  6
CONTINUOUS
 10
65.2958056934
 20
75.7865261527
 11
63.8816097943
 21
74.9700446435
  0
LINE
  5
34E
100
AcDbEntity
  8
0
100
AcDbLine
 62
7
  6
CONTINUOUS
 10
19.3189472704
 20
49.2286523539
 11
18.665005309
 21
48.8511010401
  0
LINE
  5
34F
100
AcDbEntity
  8
0
100
AcDbLine
 62
7
  6
CONTINUOUS
 10
19.6522107858
 20
78.5384330612
 11
18.3794122199
 21
79.2732670317
  0
LINE
  5
350
100
AcDbEntity
  8
0
100
AcDbLine
 62
7
  6
CONTINUOUS
 10
18.0965683302
 20
79.4365633333
 11
15.9752391541
 21
80.6612855972
  0
LINE
  5
351
100
AcDbEntity
  8
0
100
AcDbLine
 62
7
  6
CONTINUOUS
 10
13.6480554327
 20
82.0048553496
 11
11.3083139069
 21
83.3556751898
  0
LINE
  5
352
100
AcDbEntity
  8
0
100
AcDbLine
 62
7
  6
CONTINUOUS
 10
20.0764702603
 20
79.0283256388
 11
20.5007360956
 21
78.783381186
  0
LINE
  5
353
100
AcDbEntity
  8
0
100
AcDbLine
 62
7
  6
CONTINUOUS
 10
21.8340433793
 20
78.2852924414
 11
21.8822562505
 21
78.2574575089
  0
LINE
  5
354
100
AcDbEntity
  8
0
100
AcDbLine
 62
7
  6
CONTINUOUS
 10
39.6986467859
 20
68.0157564674
 11
41.1128662365
 21
67.1992749582
  0
LINE
  5
355
100
AcDbEntity
  8
0
100
AcDbLine
 62
7
  6
CONTINUOUS
 10
50.9998588297
 20
112.8484325997
 11
50.9998588297
 21
109.5824285766
  0
LINE
  5
356
100
AcDbEntity
  8
0
100
AcDbLine
 62
7
  6
CONTINUOUS
 10
51.4498396865
 20
111.4343475755
 11
51.4498396865
 21
113.0673524097
  0
LINE
  5
357
100
AcDbEntity
  8
0
100
AcDbLine
 62
7
  6
CONTINUOUS
 10
78.2909888588
 20
83.0162547174
 11
70.4025043111
 21
78.4618632263
  0
LINE
  5
358
100
AcDbEntity
  8
0
100
AcDbLine
 62
7
  6
CONTINUOUS
 10
22.2684921557
 20
50.5382521781
 11
20.5007360956
 21
49.5176438332
  0
LINE
  5
359
100
AcDbEntity
  8
0
100
AcDbLine
 62
7
  6
CONTINUOUS
 10
21.8821803352
 20
50.259633454
 11
20.5007360956
 21
49.4620610113
  0
LINE
  5
35A
100
AcDbEntity
  8
0
100
AcDbLine
 62
7
  6
CONTINUOUS
 10
19.4240082575
 20
48.8404156148
 11
19.0537649864
 21
48.6266568385
  0
LINE
  5
35B
100
AcDbEntity
  8
0
100
AcDbLine
 62
7
  6
CONTINUOUS
 10
20.5007360956
 20
49.4124946687
 11
22.2684921557
 21
50.4331030136
  0
LINE
  5
35C
100
AcDbEntity
  8
0
100
AcDbLine
 62
7
  6
CONTINUOUS
 10
66.7100251431
 20
74.9700446428
 11
63.8816097943
 21
73.3370680273
  0
LINE
  5
35D
100
AcDbEntity
  8
0
100
AcDbLine
 62
7
  6
CONTINUOUS
 10
33.3744520603
 20
55.3952930605
 11
31.0408067817
 21
54.0479703732
  0
LINE
  5
35E
100
AcDbEntity
  8
0
100
AcDbLine
 62
7
  6
CONTINUOUS
 10
27.3457521876
 20
51.4714424098
 11
20.5007360956
 21
47.5194954914
  0
LINE
  5
35F
100
AcDbEntity
  8
0
100
AcDbLine
 62
7
  6
CONTINUOUS
 10
32.856776627
 20
54.2509830861
 11
30.5231313483
 21
52.9036603988
  0
LINE
  5
360
100
AcDbEntity
  8
0
100
AcDbLine
 62
7
  6
CONTINUOUS
 10
20.5007360952
 20
47.0296009586
 11
20.0764737921
 21
46.7846544659
  0
LINE
  5
361
100
AcDbEntity
  8
0
100
AcDbLine
 62
7
  6
CONTINUOUS
 10
27.3457521876
 20
50.1568745705
 11
20.0764702606
 21
45.9599777453
  0
LINE
  5
362
100
AcDbEntity
  8
0
100
AcDbLine
 62
7
  6
CONTINUOUS
 10
20.0764737924
 20
45.4700867991
 11
20.5007375087
 21
45.7150341077
  0
LINE
  5
363
100
AcDbEntity
  8
0
100
AcDbLine
 62
7
  6
CONTINUOUS
 10
19.3189472702
 20
44.1581723431
 11
18.665005309
 21
43.7806210295
  0
LINE
  5
364
100
AcDbEntity
  8
0
100
AcDbLine
 62
7
  6
CONTINUOUS
 10
22.2684921557
 20
45.4677721685
 11
20.5007360956
 21
44.4471638236
  0
LINE
  5
365
100
AcDbEntity
  8
0
100
AcDbLine
 62
7
  6
CONTINUOUS
 10
21.8821803355
 20
45.1891534432
 11
20.5007360956
 21
44.3915810003
  0
LINE
  5
366
100
AcDbEntity
  8
0
100
AcDbLine
 62
7
  6
CONTINUOUS
 10
19.4240082575
 20
43.7699356038
 11
19.0537649866
 21
43.5561768277
  0
LINE
  5
367
100
AcDbEntity
  8
0
100
AcDbLine
 62
7
  6
CONTINUOUS
 10
20.5007360956
 20
44.3420146575
 11
22.2684921557
 21
45.3626230025
  0
LINE
  5
368
100
AcDbEntity
  8
0
100
AcDbLine
 62
7
  6
CONTINUOUS
 10
19.3189472705
 20
41.0472981343
 11
18.665005309
 21
40.6697468205
  0
LINE
  5
369
100
AcDbEntity
  8
0
100
AcDbLine
 62
7
  6
CONTINUOUS
 10
22.2684921557
 20
42.3568979588
 11
20.5007360956
 21
41.3362896139
  0
LINE
  5
36A
100
AcDbEntity
  8
0
100
AcDbLine
 62
7
  6
CONTINUOUS
 10
21.8821803352
 20
42.0782792344
 11
20.5007360956
 21
41.2807067917
  0
LINE
  5
36B
100
AcDbEntity
  8
0
100
AcDbLine
 62
7
  6
CONTINUOUS
 10
19.4240082575
 20
40.6590613952
 11
19.0537649864
 21
40.4453026189
  0
LINE
  5
36C
100
AcDbEntity
  8
0
100
AcDbLine
 62
7
  6
CONTINUOUS
 10
20.5007360956
 20
41.2311404479
 11
22.2684921557
 21
42.2517487928
  0
LINE
  5
36D
100
AcDbEntity
  8
0
100
AcDbLine
 62
7
  6
CONTINUOUS
 10
29.2733017096
 20
82.3330961539
 11
26.779611981
 21
83.7727960196
  0
LINE
  5
36E
100
AcDbEntity
  8
0
100
AcDbLine
 62
7
  6
CONTINUOUS
 10
16.823709001
 20
89.5794197654
 11
26.0983122457
 21
84.224846222
  0
LINE
  5
36F
100
AcDbEntity
  8
0
100
AcDbLine
 62
7
  6
CONTINUOUS
 10
31.606946988
 20
83.6804188413
 11
29.1132572596
 21
85.120118707
  0
LINE
  5
370
100
AcDbEntity
  8
0
100
AcDbLine
 62
7
  6
CONTINUOUS
 10
16.823709001
 20
92.4806242334
 11
33.6882759455
 21
82.7440822382
  0
LINE
  5
371
100
AcDbEntity
  8
0
100
AcDbLine
 62
7
  6
CONTINUOUS
 10
34.1051338496
 20
83.4745806606
 11
17.2405669052
 21
93.2111226558
  0
LINE
  5
372
100
AcDbEntity
  8
0
100
AcDbLine
 62
7
  6
CONTINUOUS
 10
58.6366988561
 20
33.2397256243
 11
58.6366988561
 21
39.1327951303
  0
LINE
  5
373
100
AcDbEntity
  8
0
100
AcDbLine
 62
7
  6
CONTINUOUS
 10
58.6366988561
 20
87.945387572
 11
58.6366988561
 21
93.838457078
  0
LINE
  5
374
100
AcDbEntity
  8
0
100
AcDbLine
 62
7
  6
CONTINUOUS
 10
19.3189472704
 20
37.9364239247
 11
18.665005309
 21
37.558872611
  0
LINE
  5
375
100
AcDbEntity
  8
0
100
AcDbLine
 62
7
  6
CONTINUOUS
 10
22.2684921557
 20
39.2460237491
 11
20.5007360956
 21
38.2254154042
  0
LINE
  5
376
100
AcDbEntity
  8
0
100
AcDbLine
 62
7
  6
CONTINUOUS
 10
21.8821803355
 20
38.9674050247
 11
20.5007360956
 21
38.1698325818
  0
LINE
  5
377
100
AcDbEntity
  8
0
100
AcDbLine
 62
7
  6
CONTINUOUS
 10
19.4240082575
 20
37.5481871853
 11
19.0537649866
 21
37.3344284092
  0
LINE
  5
378
100
AcDbEntity
  8
0
100
AcDbLine
 62
7
  6
CONTINUOUS
 10
20.5007360956
 20
38.1202662398
 11
22.2684921557
 21
39.1408745847
  0
LINE
  5
379
100
AcDbEntity
  8
0
100
AcDbLine
 62
7
  6
CONTINUOUS
 10
19.3189472702
 20
34.8255497156
 11
18.665005309
 21
34.447998402
  0
LINE
  5
37A
100
AcDbEntity
  8
0
100
AcDbLine
 62
7
  6
CONTINUOUS
 10
22.2684921557
 20
36.1351495409
 11
20.5007360956
 21
35.114541196
  0
LINE
  5
37B
100
AcDbEntity
  8
0
100
AcDbLine
 62
7
  6
CONTINUOUS
 10
21.8821803352
 20
35.8565308158
 11
20.5007360956
 21
35.0589583731
  0
LINE
  5
37C
100
AcDbEntity
  8
0
100
AcDbLine
 62
7
  6
CONTINUOUS
 10
19.4240082575
 20
34.4373129766
 11
19.0537649864
 21
34.2235542004
  0
LINE
  5
37D
100
AcDbEntity
  8
0
100
AcDbLine
 62
7
  6
CONTINUOUS
 10
20.5007360956
 20
35.00939203
 11
22.2684921557
 21
36.0300003749
  0
LINE
  5
37E
100
AcDbEntity
  8
0
100
AcDbLine
 62
7
  6
CONTINUOUS
 10
83.1855445504
 20
60.7057298016
 11
80.3571292016
 21
62.3386792224
  0
LINE
  5
37F
100
AcDbEntity
  8
0
100
AcDbLine
 62
7
  6
CONTINUOUS
 10
63.8815980189
 20
96.866582946
 11
63.8815980189
 21
92.6064900556
  0
LINE
  5
380
100
AcDbEntity
  8
0
100
AcDbLine
 62
7
  6
CONTINUOUS
 10
63.8816097943
 20
73.3370680273
 11
63.8816097943
 21
83.1350970328
  0
LINE
  5
381
100
AcDbEntity
  8
0
100
AcDbLine
 62
7
  6
CONTINUOUS
 10
63.8939405623
 20
42.1680469266
 11
63.8939405623
 21
37.9079540361
  0
LINE
  5
382
100
AcDbEntity
  8
0
100
AcDbLine
 62
7
  6
CONTINUOUS
 10
64.3855990174
 20
115.6368421145
 11
64.3855990174
 21
116.5795149794
  0
LINE
  5
383
100
AcDbEntity
  8
0
100
AcDbLine
 62
7
  6
CONTINUOUS
 10
65.2958056934
 20
83.9515785421
 11
65.2958056934
 21
75.7865261527
  0
LINE
  5
384
100
AcDbEntity
  8
0
100
AcDbLine
 62
7
  6
CONTINUOUS
 10
65.2958174687
 20
97.6830780523
 11
65.2958174687
 21
91.7900085462
  0
LINE
  5
385
100
AcDbEntity
  8
0
100
AcDbLine
 62
7
  6
CONTINUOUS
 10
65.3081600126
 20
42.9845420331
 11
65.3081600126
 21
37.091472527
  0
LINE
  5
386
100
AcDbEntity
  8
0
100
AcDbLine
 62
7
  6
CONTINUOUS
 10
19.3189472701
 20
31.714675506
 11
18.665005309
 21
31.3371241924
  0
LINE
  5
387
100
AcDbEntity
  8
0
100
AcDbLine
 62
7
  6
CONTINUOUS
 10
22.2684921557
 20
33.0242753313
 11
20.5007360956
 21
32.0036669863
  0
LINE
  5
388
100
AcDbEntity
  8
0
100
AcDbLine
 62
7
  6
CONTINUOUS
 10
21.8821803355
 20
32.7456566062
 11
20.5007360956
 21
31.9480841633
  0
LINE
  5
389
100
AcDbEntity
  8
0
100
AcDbLine
 62
7
  6
CONTINUOUS
 10
19.4240082575
 20
31.3264387668
 11
19.0537649866
 21
31.1126799907
  0
LINE
  5
38A
100
AcDbEntity
  8
0
100
AcDbLine
 62
7
  6
CONTINUOUS
 10
20.5007360956
 20
31.8985178203
 11
22.2684921557
 21
32.9191261653
  0
LINE
  5
38B
100
AcDbEntity
  8
0
100
AcDbLine
 62
7
  6
CONTINUOUS
 10
39.3451066425
 20
86.6054771048
 11
22.4805396981
 21
96.3420190999
  0
LINE
  5
38C
100
AcDbEntity
  8
0
100
AcDbLine
 62
7
  6
CONTINUOUS
 10
65.2958056934
 20
75.7865261527
 11
66.7100251436
 21
74.9700446437
  0
LINE
  5
38D
100
AcDbEntity
  8
0
100
AcDbLine
 62
7
  6
CONTINUOUS
 10
45.6650160823
 20
87.5289430826
 11
47.0792355326
 21
86.7124615736
  0
LINE
  5
38E
100
AcDbEntity
  8
0
100
AcDbLine
 62
7
  6
CONTINUOUS
 10
66.7100251431
 20
84.7680736483
 11
66.7100251431
 21
74.9700446428
  0
LINE
  5
38F
100
AcDbEntity
  8
0
100
AcDbLine
 62
7
  6
CONTINUOUS
 10
67.4877518249
 20
113.3596422815
 11
67.4877518249
 21
114.9926471157
  0
LINE
  5
390
100
AcDbEntity
  8
0
100
AcDbLine
 62
7
  6
CONTINUOUS
 10
67.8857748796
 20
98.7254785233
 11
67.885404604
 21
101.7259008104
  0
LINE
  5
391
100
AcDbEntity
  8
0
100
AcDbLine
 62
7
  6
CONTINUOUS
 10
68.2919685968
 20
101.96062924
 11
68.2919685968
 21
100.5929697915
  0
LINE
  5
392
100
AcDbEntity
  8
0
100
AcDbLine
 62
7
  6
CONTINUOUS
 10
68.8665726162
 20
120.1834899242
 11
68.8665726162
 21
116.9175638879
  0
LINE
  5
393
100
AcDbEntity
  8
0
100
AcDbLine
 62
7
  6
CONTINUOUS
 10
69.7065583235
 20
102.7773381244
 11
69.7061880466
 21
99.7764882816
  0
LINE
  5
394
100
AcDbEntity
  8
0
100
AcDbLine
 62
7
  6
CONTINUOUS
 10
19.3189472705
 20
28.603801297
 11
18.665005309
 21
28.2262499832
  0
LINE
  5
395
100
AcDbEntity
  8
0
100
AcDbLine
 62
7
  6
CONTINUOUS
 10
22.2684921557
 20
29.9134011216
 11
20.5007360956
 21
28.8927927767
  0
LINE
  5
396
100
AcDbEntity
  8
0
100
AcDbLine
 62
7
  6
CONTINUOUS
 10
21.8821803355
 20
29.6347823969
 11
20.5007360956
 21
28.837209954
  0
LINE
  5
397
100
AcDbEntity
  8
0
100
AcDbLine
 62
7
  6
CONTINUOUS
 10
19.4240082575
 20
28.2155645575
 11
19.0537649866
 21
28.0018057814
  0
LINE
  5
398
100
AcDbEntity
  8
0
100
AcDbLine
 62
7
  6
CONTINUOUS
 10
20.5007360956
 20
28.7876436122
 11
22.2684921557
 21
29.8082519571
  0
LINE
  5
399
100
AcDbEntity
  8
0
100
AcDbLine
 62
7
  6
CONTINUOUS
 10
19.3189472703
 20
25.4929270879
 11
18.665005309
 21
25.1153757742
  0
LINE
  5
39A
100
AcDbEntity
  8
0
100
AcDbLine
 62
7
  6
CONTINUOUS
 10
22.2684921557
 20
26.8025269134
 11
20.5007360956
 21
25.7819185685
  0
LINE
  5
39B
100
AcDbEntity
  8
0
100
AcDbLine
 62
7
  6
CONTINUOUS
 10
21.8821803352
 20
26.5239081881
 11
20.5007360956
 21
25.7263357453
  0
LINE
  5
39C
100
AcDbEntity
  8
0
100
AcDbLine
 62
7
  6
CONTINUOUS
 10
19.4240082575
 20
25.1046903488
 11
19.0537649864
 21
24.8909315726
  0
LINE
  5
39D
100
AcDbEntity
  8
0
100
AcDbLine
 62
7
  6
CONTINUOUS
 10
20.5007360956
 20
25.6767694025
 11
22.2684921557
 21
26.6973777474
  0
LINE
  5
39E
100
AcDbEntity
  8
0
100
AcDbLine
 62
7
  6
CONTINUOUS
 10
83.1855445507
 20
60.7057298015
 11
80.3571292019
 21
59.129761596
  0
LINE
  5
39F
100
AcDbEntity
  8
0
100
AcDbLine
 62
7
  6
CONTINUOUS
 10
70.4025043111
 20
78.4618632263
 11
70.4025043111
 21
100.4002812899
  0
LINE
  5
3A0
100
AcDbEntity
  8
0
100
AcDbLine
 62
7
  6
CONTINUOUS
 10
70.5283740887
 20
82.2368430433
 11
70.5283740887
 21
84.1147986033
  0
LINE
  5
3A1
100
AcDbEntity
  8
0
100
AcDbLine
 62
7
  6
CONTINUOUS
 10
70.5283740887
 20
98.1586401774
 11
70.5283740887
 21
100.0365957373
  0
LINE
  5
3A2
100
AcDbEntity
  8
0
100
AcDbLine
 62
7
  6
CONTINUOUS
 10
71.0940571585
 20
84.4413939264
 11
71.0940571585
 21
98.4852355005
  0
LINE
  5
3A3
100
AcDbEntity
  8
0
100
AcDbLine
 62
7
  6
CONTINUOUS
 10
71.5996364023
 20
84.0841690752
 11
71.5996364023
 21
99.4262494925
  0
LINE
  5
3A4
100
AcDbEntity
  8
0
100
AcDbLine
 62
7
  6
CONTINUOUS
 10
72.8017229344
 20
83.3901597924
 11
72.8017229344
 21
98.7322402099
  0
LINE
  5
3A5
100
AcDbEntity
  8
0
100
AcDbLine
 62
7
  6
CONTINUOUS
 10
72.9219205773
 20
100.1896660599
 11
72.9219205773
 21
100.7448877033
  0
LINE
  5
3A6
100
AcDbEntity
  8
0
100
AcDbLine
 62
7
  6
CONTINUOUS
 10
74.12400711
 20
83.5983547165
 11
74.12400711
 21
84.1535763601
  0
LINE
  5
3A7
100
AcDbEntity
  8
0
100
AcDbLine
 62
7
  6
CONTINUOUS
 10
74.12400711
 20
99.4956567787
 11
74.12400711
 21
100.0508784221
  0
LINE
  5
3A8
100
AcDbEntity
  8
0
100
AcDbLine
 62
7
  6
CONTINUOUS
 10
82.2025964994
 20
87.3963094847
 11
83.1855445507
 21
89.5852735368
  0
LINE
  5
3A9
100
AcDbEntity
  8
0
100
AcDbLine
 62
7
  6
CONTINUOUS
 10
36.1517697763
 20
31.9064113327
 11
37.5891545924
 21
32.7367865857
  0
LINE
  5
3AA
100
AcDbEntity
  8
0
100
AcDbLine
 62
7
  6
CONTINUOUS
 10
19.3189472701
 20
22.3820528785
 11
18.665005309
 21
22.0045015649
  0
LINE
  5
3AB
100
AcDbEntity
  8
0
100
AcDbLine
 62
7
  6
CONTINUOUS
 10
22.2684921557
 20
23.6916527037
 11
20.5007360956
 21
22.6710443588
  0
LINE
  5
3AC
100
AcDbEntity
  8
0
100
AcDbLine
 62
7
  6
CONTINUOUS
 10
39.3574491874
 20
33.5541980234
 11
41.1128662366
 21
34.5676824795
  0
LINE
  5
3AD
100
AcDbEntity
  8
0
100
AcDbLine
 62
7
  6
CONTINUOUS
 10
21.8821803352
 20
23.4130339788
 11
20.5007360956
 21
22.6154615361
  0
LINE
  5
3AE
100
AcDbEntity
  8
0
100
AcDbLine
 62
7
  6
CONTINUOUS
 10
19.4240082575
 20
21.9938161396
 11
19.0537649864
 21
21.7800573633
  0
LINE
  5
3AF
100
AcDbEntity
  8
0
100
AcDbLine
 62
7
  6
CONTINUOUS
 10
20.5007360956
 20
22.5658951928
 11
22.2684921557
 21
23.5865035377
  0
LINE
  5
3B0
100
AcDbEntity
  8
0
100
AcDbLine
 62
7
  6
CONTINUOUS
 10
39.6986467859
 20
31.2731476966
 11
39.3574491874
 21
31.0761583471
  0
LINE
  5
3B1
100
AcDbEntity
  8
0
100
AcDbLine
 62
7
  6
CONTINUOUS
 10
19.3189472705
 20
19.2711786695
 11
18.665005309
 21
18.8936273556
  0
LINE
  5
3B2
100
AcDbEntity
  8
0
100
AcDbLine
 62
7
  6
CONTINUOUS
 10
22.2684921557
 20
20.580778494
 11
20.5007360956
 21
19.5601701491
  0
LINE
  5
3B3
100
AcDbEntity
  8
0
100
AcDbLine
 62
7
  6
CONTINUOUS
 10
21.8821803352
 20
20.3021597695
 11
20.5007360956
 21
19.5045873268
  0
LINE
  5
3B4
100
AcDbEntity
  8
0
100
AcDbLine
 62
7
  6
CONTINUOUS
 10
19.4240082575
 20
18.8829419303
 11
19.0537649864
 21
18.669183154
  0
LINE
  5
3B5
100
AcDbEntity
  8
0
100
AcDbLine
 62
7
  6
CONTINUOUS
 10
20.5007360956
 20
19.4550209831
 11
22.2684921557
 21
20.475629328
  0
LINE
  5
3B6
100
AcDbEntity
  8
0
100
AcDbLine
 62
7
  6
CONTINUOUS
 10
36.1749351413
 20
29.035236145
 11
36.1517697763
 21
29.021869845
  0
LINE
  5
3B7
100
AcDbEntity
  8
0
100
AcDbLine
 62
7
  6
CONTINUOUS
 10
39.2036103191
 20
97.0014075495
 11
37.7647055755
 21
97.8321407969
  0
LINE
  5
3B8
100
AcDbEntity
  8
0
100
AcDbLine
 62
7
  6
CONTINUOUS
 10
35.832495006
 20
99.1517982298
 11
35.0161046871
 21
99.6231307372
  0
LINE
  5
3B9
100
AcDbEntity
  8
0
100
AcDbLine
 62
7
  6
CONTINUOUS
 10
42.0320136852
 20
98.6628527421
 11
42.05667454
 21
98.648615113
  0
LINE
  5
3BA
100
AcDbEntity
  8
0
100
AcDbLine
 62
7
  6
CONTINUOUS
 10
70.5283740887
 20
82.2368430433
 11
70.4025043111
 21
82.3095123493
  0
LINE
  5
3BB
100
AcDbEntity
  8
0
100
AcDbLine
 62
7
  6
CONTINUOUS
 10
38.9298608783
 20
101.8827254397
 11
39.7462511971
 21
101.4113929323
  0
LINE
  5
3BC
100
AcDbEntity
  8
0
100
AcDbLine
 62
7
  6
CONTINUOUS
 10
75.3366801824
 20
102.812655984
 11
75.3366801824
 21
100.934700424
  0
LINE
  5
3BD
100
AcDbEntity
  8
0
100
AcDbLine
 62
7
  6
CONTINUOUS
 10
75.4675044007
 20
100.826542314
 11
75.4675044007
 21
84.3740186096
  0
LINE
  5
3BE
100
AcDbEntity
  8
0
100
AcDbLine
 62
7
  6
CONTINUOUS
 10
76.3706506505
 20
35.8540664082
 11
76.3706506505
 21
38.8551300351
  0
LINE
  5
3BF
100
AcDbEntity
  8
0
100
AcDbLine
 62
7
  6
CONTINUOUS
 10
76.4450761868
 20
103.8889409644
 11
76.4450761868
 21
106.487147357
  0
LINE
  5
3C0
100
AcDbEntity
  8
0
100
AcDbLine
 62
7
  6
CONTINUOUS
 10
76.6788445726
 20
106.6221127919
 11
76.6788445726
 21
105.6568830148
  0
LINE
  5
3C1
100
AcDbEntity
  8
0
100
AcDbLine
 62
7
  6
CONTINUOUS
 10
76.7775849197
 20
39.0900722426
 11
76.7775849197
 21
37.7219852312
  0
LINE
  5
3C2
100
AcDbEntity
  8
0
100
AcDbLine
 62
7
  6
CONTINUOUS
 10
76.82159824
 20
105.5744660111
 11
76.82159824
 21
83.8289599702
  0
LINE
  5
3C3
100
AcDbEntity
  8
0
100
AcDbLine
 62
7
  6
CONTINUOUS
 10
76.876769409
 20
105.5426136424
 11
76.876769409
 21
97.9454795655
  0
LINE
  5
3C4
100
AcDbEntity
  8
0
100
AcDbLine
 62
7
  6
CONTINUOUS
 10
76.876769409
 20
91.6584109527
 11
76.876769409
 21
83.8327362274
  0
LINE
  5
3C5
100
AcDbEntity
  8
0
100
AcDbLine
 62
7
  6
CONTINUOUS
 10
77.2704345935
 20
97.718202007
 11
77.2704345935
 21
91.8856922963
  0
LINE
  5
3C6
100
AcDbEntity
  8
0
100
AcDbLine
 62
7
  6
CONTINUOUS
 10
78.0930640229
 20
107.4386078984
 11
78.0930640229
 21
104.8404015058
  0
LINE
  5
3C7
100
AcDbEntity
  8
0
100
AcDbLine
 62
7
  6
CONTINUOUS
 10
78.19180437
 20
39.9065673491
 11
78.19180437
 21
36.9055037222
  0
LINE
  5
3C8
100
AcDbEntity
  8
0
100
AcDbLine
 62
7
  6
CONTINUOUS
 10
78.2909888588
 20
104.954672781
 11
78.2909888588
 21
97.1289980555
  0
LINE
  5
3C9
100
AcDbEntity
  8
0
100
AcDbLine
 62
7
  6
CONTINUOUS
 10
78.2909888588
 20
90.8419294427
 11
78.2909888588
 21
83.0162547174
  0
LINE
  5
3CA
100
AcDbEntity
  8
0
100
AcDbLine
 62
7
  6
CONTINUOUS
 10
78.6846540433
 20
97.3562793991
 11
78.6846540433
 21
91.0692107863
  0
LINE
  5
3CB
100
AcDbEntity
  8
0
100
AcDbLine
 62
7
  6
CONTINUOUS
 10
15.5509750842
 20
15.8391564553
 11
14.9145816321
 21
15.4717367175
  0
LINE
  5
3CC
100
AcDbEntity
  8
0
100
AcDbLine
 62
7
  6
CONTINUOUS
 10
41.1128662366
 20
30.4566661874
 11
39.3574491874
 21
29.4431817312
  0
LINE
  5
3CD
100
AcDbEntity
  8
0
100
AcDbLine
 62
7
  6
CONTINUOUS
 10
58.6366988561
 20
39.1327951303
 11
65.3081600126
 21
42.9845420331
  0
LINE
  5
3CE
100
AcDbEntity
  8
0
100
AcDbLine
 62
7
  6
CONTINUOUS
 10
19.3189472704
 20
16.1603044601
 11
18.665005309
 21
15.7827531464
  0
LINE
  5
3CF
100
AcDbEntity
  8
0
100
AcDbLine
 62
7
  6
CONTINUOUS
 10
22.2684921557
 20
17.4699042843
 11
20.5007360956
 21
16.4492959394
  0
LINE
  5
3D0
100
AcDbEntity
  8
0
100
AcDbLine
 62
7
  6
CONTINUOUS
 10
21.8821803352
 20
17.1912855603
 11
20.5007360956
 21
16.3937131176
  0
LINE
  5
3D1
100
AcDbEntity
  8
0
100
AcDbLine
 62
7
  6
CONTINUOUS
 10
19.4240082575
 20
15.7720677211
 11
19.0537649864
 21
15.5583089448
  0
LINE
  5
3D2
100
AcDbEntity
  8
0
100
AcDbLine
 62
7
  6
CONTINUOUS
 10
20.5007360956
 20
16.3441467749
 11
22.2684921557
 21
17.3647551199
  0
LINE
  5
3D3
100
AcDbEntity
  8
0
100
AcDbLine
 62
7
  6
CONTINUOUS
 10
27.3457521876
 20
18.4030945161
 11
20.5007360956
 21
14.4511475977
  0
LINE
  5
3D4
100
AcDbEntity
  8
0
100
AcDbLine
 62
7
  6
CONTINUOUS
 10
37.5891545924
 20
28.2187546361
 11
36.1517697763
 21
27.3893907754
  0
LINE
  5
3D5
100
AcDbEntity
  8
0
100
AcDbLine
 62
7
  6
CONTINUOUS
 10
42.0320136852
 20
100.2958575764
 11
43.4709184288
 21
99.465124329
  0
LINE
  5
3D6
100
AcDbEntity
  8
0
100
AcDbLine
 62
7
  6
CONTINUOUS
 10
70.5283740887
 20
84.1147986033
 11
70.4025043111
 21
84.1874679093
  0
LINE
  5
3D7
100
AcDbEntity
  8
0
100
AcDbLine
 62
7
  6
CONTINUOUS
 10
72.8017229342
 20
83.3901597923
 11
71.599636402
 21
84.0841690747
  0
LINE
  5
3D8
100
AcDbEntity
  8
0
100
AcDbLine
 62
7
  6
CONTINUOUS
 10
71.094057159
 20
84.4413939267
 11
70.4025043111
 21
84.8406531171
  0
LINE
  5
3D9
100
AcDbEntity
  8
0
100
AcDbLine
 62
7
  6
CONTINUOUS
 10
74.1240071105
 20
83.5983547168
 11
73.6431641883
 21
83.875963227
  0
LINE
  5
3DA
100
AcDbEntity
  8
0
100
AcDbLine
 62
7
  6
CONTINUOUS
 10
75.4675044007
 20
84.6107287282
 11
76.8215982405
 21
83.8289599712
  0
LINE
  5
3DB
100
AcDbEntity
  8
0
100
AcDbLine
 62
7
  6
CONTINUOUS
 10
76.876769409
 20
83.8327362274
 11
78.2909888593
 21
83.0162547183
  0
LINE
  5
3DC
100
AcDbEntity
  8
0
100
AcDbLine
 62
7
  6
CONTINUOUS
 10
63.8815980189
 20
92.6064900556
 11
65.2958174692
 21
91.7900085465
  0
LINE
  5
3DD
100
AcDbEntity
  8
0
100
AcDbLine
 62
7
  6
CONTINUOUS
 10
80.3571292016
 20
87.9522969212
 11
80.3571292016
 21
59.129761596
  0
LINE
  5
3DE
100
AcDbEntity
  8
0
100
AcDbLine
 62
7
  6
CONTINUOUS
 10
81.27636419
 20
87.9114626288
 11
81.27636419
 21
88.4830143207
  0
LINE
  5
3DF
100
AcDbEntity
  8
0
100
AcDbLine
 62
7
  6
CONTINUOUS
 10
83.1855445504
 20
111.9166146452
 11
83.1855445504
 21
89.585273537
  0
LINE
  5
3E0
100
AcDbEntity
  8
0
100
AcDbLine
 62
7
  6
CONTINUOUS
 10
83.1855445504
 20
60.7057298016
 11
83.1855445504
 21
38.4313971035
  0
LINE
  5
3E1
100
AcDbEntity
  8
0
100
AcDbLine
 62
7
  6
CONTINUOUS
 10
20.5007360952
 20
13.9612530648
 11
20.0764737921
 21
13.7163065721
  0
LINE
  5
3E2
100
AcDbEntity
  8
0
100
AcDbLine
 62
7
  6
CONTINUOUS
 10
63.8939405623
 20
37.9079540361
 11
58.6366988561
 21
34.8727022398
  0
LINE
  5
3E3
100
AcDbEntity
  8
0
100
AcDbLine
 62
7
  6
CONTINUOUS
 10
65.3081600126
 20
37.091472527
 11
58.6366988561
 21
33.2397256243
  0
LINE
  5
3E4
100
AcDbEntity
  8
0
100
AcDbLine
 62
7
  6
CONTINUOUS
 10
43.9411644152
 20
105.5071137826
 11
41.0993279546
 21
107.091517346
  0
LINE
  5
3E5
100
AcDbEntity
  8
0
100
AcDbLine
 62
7
  6
CONTINUOUS
 10
42.0965036181
 20
110.1575736795
 11
44.2363451986
 21
108.9435394942
  0
LINE
  5
3E6
100
AcDbEntity
  8
0
100
AcDbLine
 62
7
  6
CONTINUOUS
 10
81.6299161084
 20
87.0541315644
 11
80.3571292016
 21
87.7889588036
  0
LINE
  5
3E7
100
AcDbEntity
  8
0
100
AcDbLine
 62
7
  6
CONTINUOUS
 10
45.2580818131
 20
20.8923872648
 11
47.0792355326
 21
21.9438245787
  0
LINE
  5
3E8
100
AcDbEntity
  8
0
100
AcDbLine
 62
7
  6
CONTINUOUS
 10
76.3706506505
 20
38.8551300351
 11
78.19180437
 21
39.9065673491
  0
LINE
  5
3E9
100
AcDbEntity
  8
0
100
AcDbLine
 62
7
  6
CONTINUOUS
 10
76.7775849197
 20
37.7219852312
 11
76.3706506505
 21
37.4870430238
  0
LINE
  5
3EA
100
AcDbEntity
  8
0
100
AcDbLine
 62
7
  6
CONTINUOUS
 10
45.6650160823
 20
19.7592424609
 11
45.2580818131
 21
19.5243002534
  0
LINE
  5
3EB
100
AcDbEntity
  8
0
100
AcDbLine
 62
7
  6
CONTINUOUS
 10
81.2763641901
 20
87.9114626289
 11
80.7813788287
 21
88.1972360955
  0
LINE
  5
3EC
100
AcDbEntity
  8
0
100
AcDbLine
 62
7
  6
CONTINUOUS
 10
76.876769409
 20
91.6584109527
 11
78.2909888593
 21
90.8419294437
  0
LINE
  5
3ED
100
AcDbEntity
  8
0
100
AcDbLine
 62
7
  6
CONTINUOUS
 10
77.2704345935
 20
91.8856922963
 11
78.6846540438
 21
91.0692107873
  0
LINE
  5
3EE
100
AcDbEntity
  8
0
100
AcDbLine
 62
7
  6
CONTINUOUS
 10
70.5283740887
 20
98.1586401774
 11
70.4025043111
 21
98.2313094834
  0
LINE
  5
3EF
100
AcDbEntity
  8
0
100
AcDbLine
 62
7
  6
CONTINUOUS
 10
81.2763641902
 20
87.911462629
 11
81.6299161086
 21
87.0541315642
  0
LINE
  5
3F0
100
AcDbEntity
  8
0
100
AcDbLine
 62
7
  6
CONTINUOUS
 10
78.19180437
 20
36.9055037222
 11
76.3706506505
 21
35.8540664082
  0
LINE
  5
3F1
100
AcDbEntity
  8
0
100
AcDbLine
 62
7
  6
CONTINUOUS
 10
47.0792355326
 20
18.9427609518
 11
45.2580818131
 21
17.8913236379
  0
LINE
  5
3F2
100
AcDbEntity
  8
0
100
AcDbLine
 62
7
  6
CONTINUOUS
 10
83.1855445504
 20
38.4313971035
 11
39.3451066432
 21
13.1202595635
  0
LINE
  5
3F3
100
AcDbEntity
  8
0
100
AcDbLine
 62
7
  6
CONTINUOUS
 10
34.1051338499
 20
10.200592719
 11
39.3451066435
 21
13.1202595633
  0
LINE
  5
3F4
100
AcDbEntity
  8
0
100
AcDbLine
 62
7
  6
CONTINUOUS
 10
68.2919685968
 20
100.5929697915
 11
69.7061880471
 21
99.7764882825
  0
LINE
  5
3F5
100
AcDbEntity
  8
0
100
AcDbLine
 62
7
  6
CONTINUOUS
 10
70.5283740887
 20
100.0365957373
 11
70.4025043111
 21
100.1092650433
  0
LINE
  5
3F6
100
AcDbEntity
  8
0
100
AcDbLine
 62
7
  6
CONTINUOUS
 10
72.8017229344
 20
98.7322402099
 11
71.5996364021
 21
99.4262494923
  0
LINE
  5
3F7
100
AcDbEntity
  8
0
100
AcDbLine
 62
7
  6
CONTINUOUS
 10
74.12400711
 20
99.495656778
 11
72.9219205777
 21
100.1896660604
  0
LINE
  5
3F8
100
AcDbEntity
  8
0
100
AcDbLine
 62
7
  6
CONTINUOUS
 10
76.876769409
 20
97.9454795655
 11
78.2909888593
 21
97.1289980565
  0
LINE
  5
3F9
100
AcDbEntity
  8
0
100
AcDbLine
 62
7
  6
CONTINUOUS
 10
74.12400711
 20
100.0508784221
 11
72.9219205777
 21
100.7448877045
  0
LINE
  5
3FA
100
AcDbEntity
  8
0
100
AcDbLine
 62
7
  6
CONTINUOUS
 10
75.4675044002
 20
100.8265423138
 11
74.265417868
 21
101.5205515962
  0
LINE
  5
3FB
100
AcDbEntity
  8
0
100
AcDbLine
 62
7
  6
CONTINUOUS
 10
50.9998588291
 20
112.8484326004
 11
48.8970420587
 21
114.0838429422
  0
LINE
  5
3FC
100
AcDbEntity
  8
0
100
AcDbLine
 62
7
  6
CONTINUOUS
 10
52.804611679
 20
110.6243969002
 11
51.4498396865
 21
111.4343475755
  0
LINE
  5
3FD
100
AcDbEntity
  8
0
100
AcDbLine
 62
7
  6
CONTINUOUS
 10
51.4498396865
 20
113.0673524097
 11
54.1941700548
 21
111.4266540138
  0
LINE
  5
3FE
100
AcDbEntity
  8
0
100
AcDbLine
 62
7
  6
CONTINUOUS
 10
75.3366801824
 20
102.812655984
 11
74.9587793393
 21
103.0308322016
  0
LINE
  5
3FF
100
AcDbEntity
  8
0
100
AcDbLine
 62
7
  6
CONTINUOUS
 10
64.6593484588
 20
111.6981970889
 11
63.2204437152
 21
112.5289303363
  0
LINE
  5
400
100
AcDbEntity
  8
0
100
AcDbLine
 62
7
  6
CONTINUOUS
 10
61.2882331457
 20
113.8485877691
 11
60.4718428268
 21
114.3199202765
  0
LINE
  5
401
100
AcDbEntity
  8
0
100
AcDbLine
 62
7
  6
CONTINUOUS
 10
76.6788445726
 20
105.6568830148
 11
78.0930640229
 21
104.8404015058
  0
LINE
  5
402
100
AcDbEntity
  8
0
100
AcDbLine
 62
7
  6
CONTINUOUS
 10
67.4877518249
 20
113.3596422815
 11
67.5124126797
 21
113.3454046524
  0
LINE
  5
403
100
AcDbEntity
  8
0
100
AcDbLine
 62
7
  6
CONTINUOUS
 10
64.385599018
 20
116.5795149791
 11
65.2019893368
 21
116.1081824717
  0
LINE
  5
404
100
AcDbEntity
  8
0
100
AcDbLine
 62
7
  6
CONTINUOUS
 10
67.4877518249
 20
114.9926471157
 11
68.9266565685
 21
114.1619138684
  0
LINE
  5
405
100
AcDbEntity
  8
0
100
AcDbLine
 62
7
  6
CONTINUOUS
 10
66.0381572674
 20
118.5505133087
 11
73.3920984092
 21
114.3048094616
  0
LINE
  5
406
100
AcDbEntity
  8
0
100
AcDbLine
 62
7
  6
CONTINUOUS
 10
83.1855445504
 20
111.9166146452
 11
76.220513758
 21
115.9377860771
  0
LINE
  5
407
100
AcDbEntity
  8
0
100
AcDbLine
 62
7
  6
CONTINUOUS
 10
68.8665726162
 20
120.1834899242
 11
66.320977606
 21
121.6531566403
  0
SPLINE
  5
408
100
AcDbEntity
  8
0
100
AcDbSpline
 62
7
  6
CONTINUOUS
 70
0
 71
3
 72
12
 73
8
 74
0
 42
0.0000001
 43
0.0000001
 44
0.0000000001
 40
0.0
 40
0.0
 40
0.0
 40
0.0
 40
0.1081636651
 40
0.2183744687
 40
0.4513429509
 40
0.7104811987
 40
1.0
 40
1.0
 40
1.0
 40
1.0
 10
12.0182535071
 20
49.0985244738
 30
0.0
 10
12.0436632714
 20
49.1132007317
 30
0.0
 10
12.0976311183
 20
49.1384584507
 30
0.0
 10
12.2161114715
 20
49.1712354979
 30
0.0
 10
12.3820800257
 20
49.1756906054
 30
0.0
 10
12.5899002486
 20
49.1253955454
 30
0.0
 10
12.7252245003
 20
49.0610408812
 30
0.0
 10
12.793245391
 20
49.0217698901
 30
0.0
  0
SPLINE
  5
409
100
AcDbEntity
  8
0
100
AcDbSpline
 62
7
  6
CONTINUOUS
 70
0
 71
3
 72
12
 73
8
 74
0
 42
0.0000001
 43
0.0000001
 44
0.0000000001
 40
0.0
 40
0.0
 40
0.0
 40
0.0
 40
0.1081636651
 40
0.2183744688
 40
0.4513429509
 40
0.7104811987
 40
1.0
 40
1.0
 40
1.0
 40
1.0
 10
12.0182535068
 20
45.987650265
 30
0.0
 10
12.0436632711
 20
46.002326523
 30
0.0
 10
12.097631118
 20
46.027584242
 30
0.0
 10
12.2161114712
 20
46.0603612894
 30
0.0
 10
12.3820800254
 20
46.064816397
 30
0.0
 10
12.5899002484
 20
46.0145213372
 30
0.0
 10
12.7252245001
 20
45.9501666731
 30
0.0
 10
12.7932453908
 20
45.910895682
 30
0.0
  0
SPLINE
  5
40A
100
AcDbEntity
  8
0
100
AcDbSpline
 62
7
  6
CONTINUOUS
 70
0
 71
3
 72
12
 73
8
 74
0
 42
0.0000001
 43
0.0000001
 44
0.0000000001
 40
0.0
 40
0.0
 40
0.0
 40
0.0
 40
0.1081636651
 40
0.2183744687
 40
0.4513429509
 40
0.7104811987
 40
1.0
 40
1.0
 40
1.0
 40
1.0
 10
12.0182535068
 20
42.8767760558
 30
0.0
 10
12.0436632711
 20
42.8914523137
 30
0.0
 10
12.0976311181
 20
42.9167100327
 30
0.0
 10
12.2161114713
 20
42.94948708
 30
0.0
 10
12.3820800255
 20
42.9539421876
 30
0.0
 10
12.5899002485
 20
42.9036471276
 30
0.0
 10
12.7252245002
 20
42.8392924634
 30
0.0
 10
12.793245391
 20
42.8000214722
 30
0.0
  0
SPLINE
  5
40B
100
AcDbEntity
  8
0
100
AcDbSpline
 62
7
  6
CONTINUOUS
 70
0
 71
3
 72
12
 73
8
 74
0
 42
0.0000001
 43
0.0000001
 44
0.0000000001
 40
0.0
 40
0.0
 40
0.0
 40
0.0
 40
0.1081636651
 40
0.2183744687
 40
0.4513429509
 40
0.7104811987
 40
1.0
 40
1.0
 40
1.0
 40
1.0
 10
12.018253507
 20
39.7659018462
 30
0.0
 10
12.0436632713
 20
39.7805781041
 30
0.0
 10
12.0976311182
 20
39.8058358231
 30
0.0
 10
12.2161114714
 20
39.8386128704
 30
0.0
 10
12.3820800256
 20
39.8430679779
 30
0.0
 10
12.5899002486
 20
39.7927729179
 30
0.0
 10
12.7252245003
 20
39.7284182537
 30
0.0
 10
12.793245391
 20
39.6891472625
 30
0.0
  0
SPLINE
  5
40C
100
AcDbEntity
  8
0
100
AcDbSpline
 62
7
  6
CONTINUOUS
 70
0
 71
3
 72
12
 73
8
 74
0
 42
0.0000001
 43
0.0000001
 44
0.0000000001
 40
0.0
 40
0.0
 40
0.0
 40
0.0
 40
0.1081636651
 40
0.2183744688
 40
0.4513429509
 40
0.7104811987
 40
1.0
 40
1.0
 40
1.0
 40
1.0
 10
12.0182535067
 20
36.6550276374
 30
0.0
 10
12.043663271
 20
36.6697038954
 30
0.0
 10
12.0976311179
 20
36.6949616144
 30
0.0
 10
12.2161114711
 20
36.7277386618
 30
0.0
 10
12.3820800253
 20
36.7321937695
 30
0.0
 10
12.5899002483
 20
36.6818987097
 30
0.0
 10
12.7252245
 20
36.6175440456
 30
0.0
 10
12.7932453908
 20
36.5782730545
 30
0.0
  0
SPLINE
  5
40D
100
AcDbEntity
  8
0
100
AcDbSpline
 62
7
  6
CONTINUOUS
 70
0
 71
3
 72
12
 73
8
 74
0
 42
0.0000001
 43
0.0000001
 44
0.0000000001
 40
0.0
 40
0.0
 40
0.0
 40
0.0
 40
0.1081636651
 40
0.2183744687
 40
0.4513429509
 40
0.7104811987
 40
1.0
 40
1.0
 40
1.0
 40
1.0
 10
12.0182535067
 20
33.5441534282
 30
0.0
 10
12.043663271
 20
33.5588296861
 30
0.0
 10
12.097631118
 20
33.5840874051
 30
0.0
 10
12.2161114712
 20
33.6168644525
 30
0.0
 10
12.3820800254
 20
33.62131956
 30
0.0
 10
12.5899002484
 20
33.5710245001
 30
0.0
 10
12.7252245002
 20
33.5066698358
 30
0.0
 10
12.7932453909
 20
33.4673988447
 30
0.0
  0
SPLINE
  5
40E
100
AcDbEntity
  8
0
100
AcDbSpline
 62
7
  6
CONTINUOUS
 70
0
 71
3
 72
17
 73
13
 74
0
 42
0.0000001
 43
0.0000001
 44
0.0000000001
 40
0.0
 40
0.0
 40
0.0
 40
0.0
 40
0.1286945273
 40
0.2703193675
 40
0.4174683114
 40
0.5618081439
 40
0.6954640494
 40
0.8127159612
 40
0.864679472
 40
0.9125080404
 40
0.9571388361
 40
1.0
 40
1.0
 40
1.0
 40
1.0
 10
19.0539167184
 20
44.4542418859
 30
0.0
 10
19.094624414
 20
44.4307306491
 30
0.0
 10
19.173644801
 20
44.3698960463
 30
0.0
 10
19.2747941526
 20
44.2548167705
 30
0.0
 10
19.3580261706
 20
44.1193883234
 30
0.0
 10
19.4164954054
 20
43.9746584847
 30
0.0
 10
19.4455112639
 20
43.8323603367
 30
0.0
 10
19.4428810677
 20
43.7202484792
 30
0.0
 10
19.4221528335
 20
43.6433387367
 30
0.0
 10
19.3990122105
 20
43.5955235081
 30
0.0
 10
19.3681090126
 20
43.5563920059
 30
0.0
 10
19.3423863141
 20
43.5367436799
 30
0.0
 10
19.3288276369
 20
43.5289153587
 30
0.0
  0
SPLINE
  5
40F
100
AcDbEntity
  8
0
100
AcDbSpline
 62
7
  6
CONTINUOUS
 70
0
 71
3
 72
17
 73
13
 74
0
 42
0.0000001
 43
0.0000001
 44
0.0000000001
 40
0.0
 40
0.0
 40
0.0
 40
0.0
 40
0.1286945274
 40
0.2703193676
 40
0.4174683115
 40
0.561808144
 40
0.6954640495
 40
0.8127159612
 40
0.864679472
 40
0.9125080404
 40
0.9571388361
 40
1.0
 40
1.0
 40
1.0
 40
1.0
 10
19.0539167188
 20
41.3433676775
 30
0.0
 10
19.0946244144
 20
41.3198564407
 30
0.0
 10
19.1736448014
 20
41.2590218377
 30
0.0
 10
19.274794153
 20
41.1439425619
 30
0.0
 10
19.3580261709
 20
41.0085141147
 30
0.0
 10
19.4164954055
 20
40.863784276
 30
0.0
 10
19.445511264
 20
40.721486128
 30
0.0
 10
19.4428810676
 20
40.6093742705
 30
0.0
 10
19.4221528334
 20
40.5324645281
 30
0.0
 10
19.3990122103
 20
40.4846492995
 30
0.0
 10
19.3681090123
 20
40.4455177975
 30
0.0
 10
19.3423863138
 20
40.4258694714
 30
0.0
 10
19.3288276365
 20
40.4180411503
 30
0.0
  0
SPLINE
  5
410
100
AcDbEntity
  8
0
100
AcDbSpline
 62
7
  6
CONTINUOUS
 70
0
 71
3
 72
17
 73
13
 74
0
 42
0.0000001
 43
0.0000001
 44
0.0000000001
 40
0.0
 40
0.0
 40
0.0
 40
0.0
 40
0.1286945273
 40
0.2703193675
 40
0.4174683114
 40
0.561808144
 40
0.6954640495
 40
0.8127159612
 40
0.864679472
 40
0.9125080404
 40
0.9571388361
 40
1.0
 40
1.0
 40
1.0
 40
1.0
 10
19.0539167184
 20
38.232493468
 30
0.0
 10
19.094624414
 20
38.2089822312
 30
0.0
 10
19.1736448011
 20
38.1481476283
 30
0.0
 10
19.2747941527
 20
38.0330683525
 30
0.0
 10
19.3580261707
 20
37.8976399053
 30
0.0
 10
19.4164954054
 20
37.7529100666
 30
0.0
 10
19.4455112639
 20
37.6106119185
 30
0.0
 10
19.4428810677
 20
37.498500061
 30
0.0
 10
19.4221528334
 20
37.4215903185
 30
0.0
 10
19.3990122103
 20
37.3737750899
 30
0.0
 10
19.3681090123
 20
37.3346435878
 30
0.0
 10
19.3423863138
 20
37.3149952618
 30
0.0
 10
19.3288276366
 20
37.3071669407
 30
0.0
  0
SPLINE
  5
411
100
AcDbEntity
  8
0
100
AcDbSpline
 62
7
  6
CONTINUOUS
 70
0
 71
3
 72
17
 73
13
 74
0
 42
0.0000001
 43
0.0000001
 44
0.0000000001
 40
0.0
 40
0.0
 40
0.0
 40
0.0
 40
0.1286945274
 40
0.2703193676
 40
0.4174683115
 40
0.5618081439
 40
0.6954640494
 40
0.8127159612
 40
0.864679472
 40
0.9125080404
 40
0.9571388361
 40
1.0
 40
1.0
 40
1.0
 40
1.0
 10
19.0539167189
 20
35.1216192581
 30
0.0
 10
19.0946244145
 20
35.0981080212
 30
0.0
 10
19.1736448014
 20
35.0372734183
 30
0.0
 10
19.2747941529
 20
34.9221941426
 30
0.0
 10
19.3580261708
 20
34.7867656955
 30
0.0
 10
19.4164954054
 20
34.6420358569
 30
0.0
 10
19.4455112639
 20
34.4997377089
 30
0.0
 10
19.4428810677
 20
34.3876258515
 30
0.0
 10
19.4221528335
 20
34.3107161091
 30
0.0
 10
19.3990122105
 20
34.2629008805
 30
0.0
 10
19.3681090126
 20
34.2237693784
 30
0.0
 10
19.3423863141
 20
34.2041210523
 30
0.0
 10
19.3288276369
 20
34.1962927312
 30
0.0
  0
SPLINE
  5
412
100
AcDbEntity
  8
0
100
AcDbSpline
 62
7
  6
CONTINUOUS
 70
0
 71
3
 72
17
 73
13
 74
0
 42
0.0000001
 43
0.0000001
 44
0.0000000001
 40
0.0
 40
0.0
 40
0.0
 40
0.0
 40
0.1286945273
 40
0.2703193675
 40
0.4174683114
 40
0.5618081439
 40
0.6954640494
 40
0.8127159612
 40
0.864679472
 40
0.9125080404
 40
0.9571388361
 40
1.0
 40
1.0
 40
1.0
 40
1.0
 10
19.0539167188
 20
32.0107450483
 30
0.0
 10
19.0946244144
 20
31.9872338116
 30
0.0
 10
19.1736448014
 20
31.9263992087
 30
0.0
 10
19.2747941529
 20
31.8113199329
 30
0.0
 10
19.3580261708
 20
31.6758914859
 30
0.0
 10
19.4164954054
 20
31.5311616473
 30
0.0
 10
19.4455112639
 20
31.3888634993
 30
0.0
 10
19.4428810677
 20
31.2767516419
 30
0.0
 10
19.4221528335
 20
31.1998418994
 30
0.0
 10
19.3990122105
 20
31.1520266709
 30
0.0
 10
19.3681090126
 20
31.1128951688
 30
0.0
 10
19.3423863141
 20
31.0932468427
 30
0.0
 10
19.3288276369
 20
31.0854185215
 30
0.0
  0
SPLINE
  5
413
100
AcDbEntity
  8
0
100
AcDbSpline
 62
7
  6
CONTINUOUS
 70
0
 71
3
 72
17
 73
13
 74
0
 42
0.0000001
 43
0.0000001
 44
0.0000000001
 40
0.0
 40
0.0
 40
0.0
 40
0.0
 40
0.1286945274
 40
0.2703193675
 40
0.4174683115
 40
0.561808144
 40
0.6954640495
 40
0.8127159612
 40
0.864679472
 40
0.9125080404
 40
0.9571388361
 40
1.0
 40
1.0
 40
1.0
 40
1.0
 10
19.0539167184
 20
28.8998708405
 30
0.0
 10
19.094624414
 20
28.8763596037
 30
0.0
 10
19.1736448011
 20
28.8155250008
 30
0.0
 10
19.2747941528
 20
28.7004457249
 30
0.0
 10
19.3580261708
 20
28.5650172777
 30
0.0
 10
19.4164954055
 20
28.4202874389
 30
0.0
 10
19.445511264
 20
28.2779892908
 30
0.0
 10
19.4428810677
 20
28.1658774333
 30
0.0
 10
19.4221528334
 20
28.0889676908
 30
0.0
 10
19.3990122102
 20
28.0411524623
 30
0.0
 10
19.3681090123
 20
28.0020209602
 30
0.0
 10
19.3423863137
 20
27.9823726342
 30
0.0
 10
19.3288276365
 20
27.9745443131
 30
0.0
  0
SPLINE
  5
414
100
AcDbEntity
  8
0
100
AcDbSpline
 62
7
  6
CONTINUOUS
 70
0
 71
3
 72
17
 73
13
 74
0
 42
0.0000001
 43
0.0000001
 44
0.0000000001
 40
0.0
 40
0.0
 40
0.0
 40
0.0
 40
0.1286945274
 40
0.2703193676
 40
0.4174683115
 40
0.561808144
 40
0.6954640494
 40
0.8127159612
 40
0.864679472
 40
0.9125080404
 40
0.9571388361
 40
1.0
 40
1.0
 40
1.0
 40
1.0
 10
19.0539167189
 20
25.7889966305
 30
0.0
 10
19.0946244145
 20
25.7654853937
 30
0.0
 10
19.1736448015
 20
25.7046507908
 30
0.0
 10
19.274794153
 20
25.589571515
 30
0.0
 10
19.3580261708
 20
25.4541430678
 30
0.0
 10
19.4164954055
 20
25.3094132292
 30
0.0
 10
19.4455112639
 20
25.1671150813
 30
0.0
 10
19.4428810677
 20
25.0550032238
 30
0.0
 10
19.4221528335
 20
24.9780934814
 30
0.0
 10
19.3990122104
 20
24.9302782528
 30
0.0
 10
19.3681090125
 20
24.8911467508
 30
0.0
 10
19.342386314
 20
24.8714984247
 30
0.0
 10
19.3288276368
 20
24.8636701036
 30
0.0
  0
SPLINE
  5
415
100
AcDbEntity
  8
0
100
AcDbSpline
 62
7
  6
CONTINUOUS
 70
0
 71
3
 72
17
 73
13
 74
0
 42
0.0000001
 43
0.0000001
 44
0.0000000001
 40
0.0
 40
0.0
 40
0.0
 40
0.0
 40
0.1286945274
 40
0.2703193676
 40
0.4174683115
 40
0.561808144
 40
0.6954640494
 40
0.8127159612
 40
0.864679472
 40
0.9125080404
 40
0.9571388361
 40
1.0
 40
1.0
 40
1.0
 40
1.0
 10
19.0539167194
 20
22.6781224205
 30
0.0
 10
19.0946244149
 20
22.6546111837
 30
0.0
 10
19.1736448018
 20
22.5937765808
 30
0.0
 10
19.2747941532
 20
22.478697305
 30
0.0
 10
19.358026171
 20
22.3432688579
 30
0.0
 10
19.4164954055
 20
22.1985390194
 30
0.0
 10
19.4455112639
 20
22.0562408716
 30
0.0
 10
19.4428810677
 20
21.9441290142
 30
0.0
 10
19.4221528335
 20
21.8672192718
 30
0.0
 10
19.3990122105
 20
21.8194040433
 30
0.0
 10
19.3681090126
 20
21.7802725412
 30
0.0
 10
19.3423863142
 20
21.7606242152
 30
0.0
 10
19.328827637
 20
21.752795894
 30
0.0
  0
SPLINE
  5
416
100
AcDbEntity
  8
0
100
AcDbSpline
 62
7
  6
CONTINUOUS
 70
0
 71
3
 72
17
 73
13
 74
0
 42
0.0000001
 43
0.0000001
 44
0.0000000001
 40
0.0
 40
0.0
 40
0.0
 40
0.0
 40
0.1286945274
 40
0.2703193677
 40
0.4174683116
 40
0.5618081441
 40
0.6954640495
 40
0.8127159613
 40
0.864679472
 40
0.9125080404
 40
0.9571388361
 40
1.0
 40
1.0
 40
1.0
 40
1.0
 10
19.0539167192
 20
19.5672482124
 30
0.0
 10
19.0946244148
 20
19.5437369756
 30
0.0
 10
19.1736448018
 20
19.4829023726
 30
0.0
 10
19.2747941532
 20
19.3678230967
 30
0.0
 10
19.3580261711
 20
19.2323946495
 30
0.0
 10
19.4164954056
 20
19.0876648109
 30
0.0
 10
19.445511264
 20
18.9453666629
 30
0.0
 10
19.4428810676
 20
18.8332548056
 30
0.0
 10
19.4221528333
 20
18.7563450632
 30
0.0
 10
19.3990122102
 20
18.7085298347
 30
0.0
 10
19.3681090122
 20
18.6693983327
 30
0.0
 10
19.3423863137
 20
18.6497500067
 30
0.0
 10
19.3288276365
 20
18.6419216855
 30
0.0
  0
SPLINE
  5
417
100
AcDbEntity
  8
0
100
AcDbSpline
 62
7
  6
CONTINUOUS
 70
0
 71
3
 72
17
 73
13
 74
0
 42
0.0000001
 43
0.0000001
 44
0.0000000001
 40
0.0
 40
0.0
 40
0.0
 40
0.0
 40
0.1286945274
 40
0.2703193676
 40
0.4174683115
 40
0.561808144
 40
0.6954640495
 40
0.8127159612
 40
0.864679472
 40
0.9125080404
 40
0.9571388361
 40
1.0
 40
1.0
 40
1.0
 40
1.0
 10
19.053916719
 20
16.4563740029
 30
0.0
 10
19.0946244146
 20
16.432862766
 30
0.0
 10
19.1736448016
 20
16.3720281631
 30
0.0
 10
19.2747941531
 20
16.2569488873
 30
0.0
 10
19.3580261709
 20
16.1215204401
 30
0.0
 10
19.4164954055
 20
15.9767906015
 30
0.0
 10
19.4455112639
 20
15.8344924535
 30
0.0
 10
19.4428810677
 20
15.7223805961
 30
0.0
 10
19.4221528334
 20
15.6454708537
 30
0.0
 10
19.3990122103
 20
15.5976556252
 30
0.0
 10
19.3681090124
 20
15.5585241231
 30
0.0
 10
19.3423863139
 20
15.5388757971
 30
0.0
 10
19.3288276367
 20
15.531047476
 30
0.0
  0
SPLINE
  5
418
100
AcDbEntity
  8
0
100
AcDbSpline
 62
7
  6
CONTINUOUS
 70
0
 71
3
 72
11
 73
7
 74
0
 42
0.0000001
 43
0.0000001
 44
0.0000000001
 40
0.0
 40
0.0
 40
0.0
 40
0.0
 40
0.2895416726
 40
0.5491189706
 40
0.7822562689
 40
1.0
 40
1.0
 40
1.0
 40
1.0
 10
11.3083132029
 20
50.5322721568
 30
0.0
 10
11.2951572887
 20
50.5246766316
 30
0.0
 10
11.2712836546
 20
50.5082149455
 30
0.0
 10
11.2427260691
 20
50.4782342258
 30
0.0
 10
11.2246580733
 20
50.4450423864
 30
0.0
 10
11.2204629024
 20
50.4212240912
 30
0.0
 10
11.2204629057
 20
50.4097999297
 30
0.0
  0
SPLINE
  5
419
100
AcDbEntity
  8
0
100
AcDbSpline
 62
7
  6
CONTINUOUS
 70
0
 71
3
 72
12
 73
8
 74
0
 42
0.0000001
 43
0.0000001
 44
0.0000000001
 40
0.0
 40
0.0
 40
0.0
 40
0.0
 40
0.1081636651
 40
0.2183744687
 40
0.4513429509
 40
0.7104811987
 40
1.0
 40
1.0
 40
1.0
 40
1.0
 10
12.0182535069
 20
30.4332792186
 30
0.0
 10
12.0436632712
 20
30.4479554765
 30
0.0
 10
12.0976311181
 20
30.4732131955
 30
0.0
 10
12.2161114713
 20
30.5059902428
 30
0.0
 10
12.3820800256
 20
30.5104453503
 30
0.0
 10
12.5899002485
 20
30.4601502904
 30
0.0
 10
12.7252245002
 20
30.3957956261
 30
0.0
 10
12.793245391
 20
30.356524635
 30
0.0
  0
SPLINE
  5
41A
100
AcDbEntity
  8
0
100
AcDbSpline
 62
7
  6
CONTINUOUS
 70
0
 71
3
 72
11
 73
7
 74
0
 42
0.0000001
 43
0.0000001
 44
0.0000000001
 40
0.0
 40
0.0
 40
0.0
 40
0.0
 40
0.2895418652
 40
0.5491192312
 40
0.7822564511
 40
1.0
 40
1.0
 40
1.0
 40
1.0
 10
11.3083139073
 20
18.5335470692
 30
0.0
 10
11.295157895
 20
18.5411426007
 30
0.0
 10
11.2712840801
 20
18.5576043117
 30
0.0
 10
11.2427262636
 20
18.5875851198
 30
0.0
 10
11.2246581118
 20
18.6207770872
 30
0.0
 10
11.2204629026
 20
18.6445954918
 30
0.0
 10
11.2204629054
 20
18.6560197024
 30
0.0
  0
SPLINE
  5
41B
100
AcDbEntity
  8
0
100
AcDbSpline
 62
7
  6
CONTINUOUS
 70
0
 71
3
 72
12
 73
8
 74
0
 42
0.0000001
 43
0.0000001
 44
0.0000000001
 40
0.0
 40
0.0
 40
0.0
 40
0.0
 40
0.1081636651
 40
0.2183744687
 40
0.4513429509
 40
0.7104811987
 40
1.0
 40
1.0
 40
1.0
 40
1.0
 10
12.0182535071
 20
27.322405009
 30
0.0
 10
12.0436632714
 20
27.3370812669
 30
0.0
 10
12.0976311183
 20
27.3623389858
 30
0.0
 10
12.2161114715
 20
27.3951160331
 30
0.0
 10
12.3820800257
 20
27.3995711406
 30
0.0
 10
12.5899002486
 20
27.3492760806
 30
0.0
 10
12.7252245003
 20
27.2849214164
 30
0.0
 10
12.793245391
 20
27.2456504252
 30
0.0
  0
SPLINE
  5
41C
100
AcDbEntity
  8
0
100
AcDbSpline
 62
7
  6
CONTINUOUS
 70
0
 71
3
 72
11
 73
7
 74
0
 42
0.0000001
 43
0.0000001
 44
0.0000000001
 40
0.0
 40
0.0
 40
0.0
 40
0.0
 40
0.289661552
 40
0.5491335424
 40
0.7822507569
 40
1.0
 40
1.0
 40
1.0
 40
1.0
 10
13.3522828424
 20
16.1287654858
 30
0.0
 10
13.339121012
 20
16.1363643002
 30
0.0
 10
13.3152388129
 20
16.1528180305
 30
0.0
 10
13.2866941879
 20
16.1828143154
 30
0.0
 10
13.2686316615
 20
16.2159987515
 30
0.0
 10
13.2644172994
 20
16.2398139255
 30
0.0
 10
13.2644149895
 20
16.2512387356
 30
0.0
  0
SPLINE
  5
41D
100
AcDbEntity
  8
0
100
AcDbSpline
 62
7
  6
CONTINUOUS
 70
0
 71
3
 72
11
 73
7
 74
0
 42
0.0000001
 43
0.0000001
 44
0.0000000001
 40
0.0
 40
0.0
 40
0.0
 40
0.0
 40
0.2372522658
 40
0.4999993256
 40
0.7627467536
 40
1.0
 40
1.0
 40
1.0
 40
1.0
 10
14.9145816321
 20
15.4717367175
 30
0.0
 10
14.8844635105
 20
15.4543481158
 30
0.0
 10
14.814428469
 20
15.4289698877
 30
0.0
 10
14.7024505996
 20
15.4168365306
 30
0.0
 10
14.5904724988
 20
15.428969094
 30
0.0
 10
14.5204370696
 20
15.4543467595
 30
0.0
 10
14.4903186229
 20
15.4717350856
 30
0.0
  0
SPLINE
  5
41E
100
AcDbEntity
  8
0
100
AcDbSpline
 62
7
  6
CONTINUOUS
 70
0
 71
3
 72
11
 73
7
 74
0
 42
0.0000001
 43
0.0000001
 44
0.0000000001
 40
0.0
 40
0.0
 40
0.0
 40
0.0
 40
0.2372531816
 40
0.5000006936
 40
0.7627478297
 40
1.0
 40
1.0
 40
1.0
 40
1.0
 10
15.9752391545
 20
15.8391574752
 30
0.0
 10
15.9451207082
 20
15.8565459748
 30
0.0
 10
15.8750851342
 20
15.881923905
 30
0.0
 10
15.7631067243
 20
15.894056667
 30
0.0
 10
15.6511285221
 20
15.8819233698
 30
0.0
 10
15.5810932766
 20
15.856545098
 30
0.0
 10
15.5509750842
 20
15.8391564553
 30
0.0
  0
SPLINE
  5
41F
100
AcDbEntity
  8
0
100
AcDbSpline
 62
7
  6
CONTINUOUS
 70
0
 71
3
 72
11
 73
7
 74
0
 42
0.0000001
 43
0.0000001
 44
0.0000000001
 40
0.0
 40
0.0
 40
0.0
 40
0.0
 40
0.237242873
 40
0.4999994737
 40
0.7627563608
 40
1.0
 40
1.0
 40
1.0
 40
1.0
 10
18.3794122178
 20
14.4511389096
 30
0.0
 10
18.3593342208
 20
14.4395469417
 30
0.0
 10
18.3126429214
 20
14.4226335963
 30
0.0
 10
18.2379910846
 20
14.4145294959
 30
0.0
 10
18.1633391351
 20
14.4226332554
 30
0.0
 10
18.116647652
 20
14.4395463688
 30
0.0
 10
18.0965695067
 20
14.4511382294
 30
0.0
  0
SPLINE
  5
420
100
AcDbEntity
  8
0
100
AcDbSpline
 62
7
  6
CONTINUOUS
 70
0
 71
3
 72
11
 73
7
 74
0
 42
0.0000001
 43
0.0000001
 44
0.0000000001
 40
0.0
 40
0.0
 40
0.0
 40
0.0
 40
0.2372522641
 40
0.4999993219
 40
0.7627467511
 40
1.0
 40
1.0
 40
1.0
 40
1.0
 10
20.0764737921
 20
13.7163065721
 30
0.0
 10
20.0463556722
 20
13.6989179713
 30
0.0
 10
19.9763206351
 20
13.6735397439
 30
0.0
 10
19.8643427718
 20
13.6614063855
 30
0.0
 10
19.752364676
 20
13.6735389446
 30
0.0
 10
19.6823292483
 20
13.6989166059
 30
0.0
 10
19.6522108027
 20
13.7163049312
 30
0.0
  0
SPLINE
  5
421
100
AcDbEntity
  8
0
100
AcDbSpline
 62
7
  6
CONTINUOUS
 70
0
 71
3
 72
9
 73
5
 74
0
 42
0.0000001
 43
0.0000001
 44
0.0000000001
 40
0.0
 40
0.0
 40
0.0
 40
0.0
 40
0.4793952133
 40
1.0
 40
1.0
 40
1.0
 40
1.0
 10
12.793245391
 20
21.0239020074
 30
0.0
 10
12.8786543518
 20
20.9745922365
 30
0.0
 10
13.0466885391
 20
20.8538333136
 30
0.0
 10
13.1936290801
 20
20.7087753697
 30
0.0
 10
13.2646927282
 20
20.6286497065
 30
0.0
  0
SPLINE
  5
422
100
AcDbEntity
  8
0
100
AcDbSpline
 62
7
  6
CONTINUOUS
 70
0
 71
3
 72
10
 73
6
 74
0
 42
0.0000001
 43
0.0000001
 44
0.0000000001
 40
0.0
 40
0.0
 40
0.0
 40
0.0
 40
0.229647907
 40
0.4755534852
 40
1.0
 40
1.0
 40
1.0
 40
1.0
 10
12.793245391
 20
49.0217698901
 30
0.0
 10
12.8568287276
 20
48.985060864
 30
0.0
 10
12.9829210323
 20
48.8991029775
 30
0.0
 10
13.223325482
 20
48.6875962854
 30
0.0
 10
13.3803096882
 20
48.4947989324
 30
0.0
 10
13.4736638573
 20
48.3555243975
 30
0.0
  0
SPLINE
  5
423
100
AcDbEntity
  8
0
100
AcDbSpline
 62
7
  6
CONTINUOUS
 70
0
 71
3
 72
9
 73
5
 74
0
 42
0.0000001
 43
0.0000001
 44
0.0000000001
 40
0.0
 40
0.0
 40
0.0
 40
0.0
 40
0.4793952132
 40
1.0
 40
1.0
 40
1.0
 40
1.0
 10
12.7932453908
 20
45.910895682
 30
0.0
 10
12.8786543516
 20
45.861585911
 30
0.0
 10
13.0466885392
 20
45.7408269882
 30
0.0
 10
13.1936290802
 20
45.5957690442
 30
0.0
 10
13.2646927282
 20
45.5156433809
 30
0.0
  0
SPLINE
  5
424
100
AcDbEntity
  8
0
100
AcDbSpline
 62
7
  6
CONTINUOUS
 70
0
 71
3
 72
9
 73
5
 74
0
 42
0.0000001
 43
0.0000001
 44
0.0000000001
 40
0.0
 40
0.0
 40
0.0
 40
0.0
 40
0.4793952133
 40
1.0
 40
1.0
 40
1.0
 40
1.0
 10
12.793245391
 20
42.8000214722
 30
0.0
 10
12.8786543518
 20
42.7507117013
 30
0.0
 10
13.0466885391
 20
42.6299527784
 30
0.0
 10
13.1936290801
 20
42.4848948345
 30
0.0
 10
13.2646927282
 20
42.4047691713
 30
0.0
  0
SPLINE
  5
425
100
AcDbEntity
  8
0
100
AcDbSpline
 62
7
  6
CONTINUOUS
 70
0
 71
3
 72
9
 73
5
 74
0
 42
0.0000001
 43
0.0000001
 44
0.0000000001
 40
0.0
 40
0.0
 40
0.0
 40
0.0
 40
0.4793952133
 40
1.0
 40
1.0
 40
1.0
 40
1.0
 10
12.793245391
 20
39.6891472625
 30
0.0
 10
12.8786543518
 20
39.6398374916
 30
0.0
 10
13.0466885391
 20
39.5190785687
 30
0.0
 10
13.1936290801
 20
39.3740206248
 30
0.0
 10
13.2646927282
 20
39.2938949616
 30
0.0
  0
SPLINE
  5
426
100
AcDbEntity
  8
0
100
AcDbSpline
 62
7
  6
CONTINUOUS
 70
0
 71
3
 72
9
 73
5
 74
0
 42
0.0000001
 43
0.0000001
 44
0.0000000001
 40
0.0
 40
0.0
 40
0.0
 40
0.0
 40
0.4793952135
 40
1.0
 40
1.0
 40
1.0
 40
1.0
 10
12.7932453908
 20
36.5782730545
 30
0.0
 10
12.8786543517
 20
36.5289632834
 30
0.0
 10
13.0466885389
 20
36.4082043594
 30
0.0
 10
13.1936290801
 20
36.2631464152
 30
0.0
 10
13.2646927282
 20
36.1830207519
 30
0.0
  0
SPLINE
  5
427
100
AcDbEntity
  8
0
100
AcDbSpline
 62
7
  6
CONTINUOUS
 70
0
 71
3
 72
9
 73
5
 74
0
 42
0.0000001
 43
0.0000001
 44
0.0000000001
 40
0.0
 40
0.0
 40
0.0
 40
0.0
 40
0.4793952132
 40
1.0
 40
1.0
 40
1.0
 40
1.0
 10
12.7932453909
 20
33.4673988447
 30
0.0
 10
12.8786543517
 20
33.4180890737
 30
0.0
 10
13.0466885392
 20
33.297330151
 30
0.0
 10
13.1936290802
 20
33.1522722069
 30
0.0
 10
13.2646927282
 20
33.0721465437
 30
0.0
  0
SPLINE
  5
428
100
AcDbEntity
  8
0
100
AcDbSpline
 62
7
  6
CONTINUOUS
 70
0
 71
3
 72
9
 73
5
 74
0
 42
0.0000001
 43
0.0000001
 44
0.0000000001
 40
0.0
 40
0.0
 40
0.0
 40
0.0
 40
0.4793952133
 40
1.0
 40
1.0
 40
1.0
 40
1.0
 10
12.793245391
 20
30.356524635
 30
0.0
 10
12.8786543518
 20
30.307214864
 30
0.0
 10
13.0466885391
 20
30.1864559412
 30
0.0
 10
13.1936290801
 20
30.0413979973
 30
0.0
 10
13.2646927282
 20
29.9612723341
 30
0.0
  0
SPLINE
  5
429
100
AcDbEntity
  8
0
100
AcDbSpline
 62
7
  6
CONTINUOUS
 70
0
 71
3
 72
9
 73
5
 74
0
 42
0.0000001
 43
0.0000001
 44
0.0000000001
 40
0.0
 40
0.0
 40
0.0
 40
0.0
 40
0.4793952133
 40
1.0
 40
1.0
 40
1.0
 40
1.0
 10
12.793245391
 20
27.2456504252
 30
0.0
 10
12.8786543518
 20
27.1963406543
 30
0.0
 10
13.0466885391
 20
27.0755817314
 30
0.0
 10
13.1936290801
 20
26.9305237875
 30
0.0
 10
13.2646927282
 20
26.8503981243
 30
0.0
  0
SPLINE
  5
42A
100
AcDbEntity
  8
0
100
AcDbSpline
 62
7
  6
CONTINUOUS
 70
0
 71
3
 72
9
 73
5
 74
0
 42
0.0000001
 43
0.0000001
 44
0.0000000001
 40
0.0
 40
0.0
 40
0.0
 40
0.0
 40
0.4793952132
 40
1.0
 40
1.0
 40
1.0
 40
1.0
 10
12.7932453911
 20
24.134776217
 30
0.0
 10
12.8786543518
 20
24.0854664461
 30
0.0
 10
13.0466885393
 20
23.9647075233
 30
0.0
 10
13.1936290802
 20
23.8196495793
 30
0.0
 10
13.2646927282
 20
23.7395239161
 30
0.0
  0
SPLINE
  5
42B
100
AcDbEntity
  8
0
100
AcDbSpline
 62
7
  6
CONTINUOUS
 70
0
 71
3
 72
12
 73
8
 74
0
 42
0.0000001
 43
0.0000001
 44
0.0000000001
 40
0.0
 40
0.0
 40
0.0
 40
0.0
 40
0.1081636651
 40
0.2183744688
 40
0.4513429509
 40
0.7104811987
 40
1.0
 40
1.0
 40
1.0
 40
1.0
 10
12.0182535068
 20
24.2115308002
 30
0.0
 10
12.0436632711
 20
24.2262070581
 30
0.0
 10
12.0976311181
 20
24.2514647772
 30
0.0
 10
12.2161114713
 20
24.2842418246
 30
0.0
 10
12.3820800255
 20
24.2886969322
 30
0.0
 10
12.5899002486
 20
24.2384018723
 30
0.0
 10
12.7252245004
 20
24.1740472082
 30
0.0
 10
12.7932453911
 20
24.134776217
 30
0.0
  0
SPLINE
  5
42C
100
AcDbEntity
  8
0
100
AcDbSpline
 62
7
  6
CONTINUOUS
 70
0
 71
3
 72
12
 73
8
 74
0
 42
0.0000001
 43
0.0000001
 44
0.0000000001
 40
0.0
 40
0.0
 40
0.0
 40
0.0
 40
0.1081636651
 40
0.2183744687
 40
0.4513429509
 40
0.7104811987
 40
1.0
 40
1.0
 40
1.0
 40
1.0
 10
12.0182535068
 20
21.1006565909
 30
0.0
 10
12.0436632711
 20
21.1153328489
 30
0.0
 10
12.0976311181
 20
21.1405905679
 30
0.0
 10
12.2161114713
 20
21.1733676152
 30
0.0
 10
12.3820800255
 20
21.1778227228
 30
0.0
 10
12.5899002485
 20
21.1275276628
 30
0.0
 10
12.7252245002
 20
21.0631729986
 30
0.0
 10
12.793245391
 20
21.0239020074
 30
0.0
  0
SPLINE
  5
42D
100
AcDbEntity
  8
0
100
AcDbSpline
 62
7
  6
CONTINUOUS
 70
0
 71
3
 72
20
 73
16
 74
0
 42
0.0000001
 43
0.0000001
 44
0.0000000001
 40
0.0
 40
0.0
 40
0.0
 40
0.0
 40
0.0623910913
 40
0.1288083526
 40
0.2703011622
 40
0.4173628091
 40
0.561615398
 40
0.6302519199
 40
0.6953787476
 40
0.7563612971
 40
0.8128307481
 40
0.8647636093
 40
0.9125656046
 40
0.9571671253
 40
1.0
 40
1.0
 40
1.0
 40
1.0
 10
12.7932453911
 20
34.04711556
 30
0.0
 10
12.7375820926
 20
34.0792520533
 30
0.0
 10
12.6269532819
 20
34.1532160216
 30
0.0
 10
12.4135599859
 20
34.3327553438
 30
0.0
 10
12.1706278306
 20
34.6091964551
 30
0.0
 10
11.9361527137
 20
34.9906074729
 30
0.0
 10
11.7963263195
 20
35.3363797152
 30
0.0
 10
11.7273086564
 20
35.6147561097
 30
0.0
 10
11.69912188
 20
35.813794989
 30
0.0
 10
11.694333711
 20
36.0022970698
 30
0.0
 10
11.7131184964
 20
36.1763823354
 30
0.0
 10
11.7552754479
 20
36.332483282
 30
0.0
 10
11.8204433944
 20
36.4672769007
 30
0.0
 10
11.9075930583
 20
36.577527522
 30
0.0
 10
11.9800434856
 20
36.6329581637
 30
0.0
 10
12.0182535067
 20
36.6550276374
 30
0.0
  0
SPLINE
  5
42E
100
AcDbEntity
  8
0
100
AcDbSpline
 62
7
  6
CONTINUOUS
 70
0
 71
3
 72
20
 73
16
 74
0
 42
0.0000001
 43
0.0000001
 44
0.0000000001
 40
0.0
 40
0.0
 40
0.0
 40
0.0
 40
0.0623910913
 40
0.1288083526
 40
0.2703011622
 40
0.4173628091
 40
0.561615398
 40
0.6302519199
 40
0.6953787476
 40
0.7563612971
 40
0.8128307481
 40
0.8647636093
 40
0.9125656046
 40
0.9571671253
 40
1.0
 40
1.0
 40
1.0
 40
1.0
 10
12.793245391
 20
30.9362413519
 30
0.0
 10
12.7375820925
 20
30.9683778452
 30
0.0
 10
12.6269532818
 20
31.0423418134
 30
0.0
 10
12.4135599859
 20
31.2218811354
 30
0.0
 10
12.1706278306
 20
31.4983222467
 30
0.0
 10
11.9361527137
 20
31.8797332642
 30
0.0
 10
11.7963263196
 20
32.2255055064
 30
0.0
 10
11.7273086564
 20
32.5038819009
 30
0.0
 10
11.69912188
 20
32.70292078
 30
0.0
 10
11.694333711
 20
32.8914228608
 30
0.0
 10
11.7131184964
 20
33.0655081264
 30
0.0
 10
11.7552754479
 20
33.2216090729
 30
0.0
 10
11.8204433945
 20
33.3564026915
 30
0.0
 10
11.9075930583
 20
33.4666533128
 30
0.0
 10
11.9800434856
 20
33.5220839544
 30
0.0
 10
12.0182535067
 20
33.5441534282
 30
0.0
  0
SPLINE
  5
42F
100
AcDbEntity
  8
0
100
AcDbSpline
 62
7
  6
CONTINUOUS
 70
0
 71
3
 72
20
 73
16
 74
0
 42
0.0000001
 43
0.0000001
 44
0.0000000001
 40
0.0
 40
0.0
 40
0.0
 40
0.0
 40
0.0623910913
 40
0.1288083526
 40
0.2703011622
 40
0.4173628091
 40
0.561615398
 40
0.6302519199
 40
0.6953787476
 40
0.7563612971
 40
0.8128307481
 40
0.8647636093
 40
0.9125656046
 40
0.9571671253
 40
1.0
 40
1.0
 40
1.0
 40
1.0
 10
12.793245391
 20
27.8253671422
 30
0.0
 10
12.7375820925
 20
27.8575036355
 30
0.0
 10
12.6269532818
 20
27.9314676037
 30
0.0
 10
12.4135599858
 20
28.1110069258
 30
0.0
 10
12.1706278305
 20
28.387448037
 30
0.0
 10
11.9361527137
 20
28.7688590546
 30
0.0
 10
11.7963263195
 20
29.1146312969
 30
0.0
 10
11.7273086563
 20
29.3930076914
 30
0.0
 10
11.69912188
 20
29.5920465706
 30
0.0
 10
11.694333711
 20
29.7805486513
 30
0.0
 10
11.7131184964
 20
29.9546339169
 30
0.0
 10
11.755275448
 20
30.1107348634
 30
0.0
 10
11.8204433946
 20
30.245528482
 30
0.0
 10
11.9075930585
 20
30.3557791033
 30
0.0
 10
11.9800434858
 20
30.4112097449
 30
0.0
 10
12.0182535069
 20
30.4332792186
 30
0.0
  0
SPLINE
  5
430
100
AcDbEntity
  8
0
100
AcDbSpline
 62
7
  6
CONTINUOUS
 70
0
 71
3
 72
20
 73
16
 74
0
 42
0.0000001
 43
0.0000001
 44
0.0000000001
 40
0.0
 40
0.0
 40
0.0
 40
0.0
 40
0.0623910913
 40
0.1288083526
 40
0.2703011622
 40
0.4173628091
 40
0.5616153981
 40
0.6302519199
 40
0.6953787477
 40
0.7563612971
 40
0.8128307481
 40
0.8647636093
 40
0.9125656046
 40
0.9571671253
 40
1.0
 40
1.0
 40
1.0
 40
1.0
 10
12.793245391
 20
24.7144929325
 30
0.0
 10
12.7375820925
 20
24.7466294258
 30
0.0
 10
12.6269532818
 20
24.820593394
 30
0.0
 10
12.4135599858
 20
25.0001327161
 30
0.0
 10
12.1706278305
 20
25.2765738274
 30
0.0
 10
11.9361527136
 20
25.657984845
 30
0.0
 10
11.7963263194
 20
26.0037570874
 30
0.0
 10
11.7273086563
 20
26.2821334818
 30
0.0
 10
11.6991218799
 20
26.481172361
 30
0.0
 10
11.694333711
 20
26.6696744418
 30
0.0
 10
11.7131184965
 20
26.8437597074
 30
0.0
 10
11.7552754481
 20
26.9998606539
 30
0.0
 10
11.8204433947
 20
27.1346542725
 30
0.0
 10
11.9075930586
 20
27.2449048937
 30
0.0
 10
11.980043486
 20
27.3003355353
 30
0.0
 10
12.0182535071
 20
27.322405009
 30
0.0
  0
SPLINE
  5
431
100
AcDbEntity
  8
0
100
AcDbSpline
 62
7
  6
CONTINUOUS
 70
0
 71
3
 72
11
 73
7
 74
0
 42
0.0000001
 43
0.0000001
 44
0.0000000001
 40
0.0
 40
0.0
 40
0.0
 40
0.0
 40
0.2372534942
 40
0.500001013
 40
0.7627479812
 40
1.0
 40
1.0
 40
1.0
 40
1.0
 10
19.652210803
 20
45.4700851582
 30
0.0
 10
19.6823292798
 20
45.4526968149
 30
0.0
 10
19.7523647605
 20
45.4273191475
 30
0.0
 10
19.8643428951
 20
45.4151866125
 30
0.0
 10
19.9763207196
 20
45.4273199949
 30
0.0
 10
20.0463557036
 20
45.4526982162
 30
0.0
 10
20.0764737924
 20
45.4700867991
 30
0.0
  0
SPLINE
  5
432
100
AcDbEntity
  8
0
100
AcDbSpline
 62
7
  6
CONTINUOUS
 70
0
 71
3
 72
20
 73
16
 74
0
 42
0.0000001
 43
0.0000001
 44
0.0000000001
 40
0.0
 40
0.0
 40
0.0
 40
0.0
 40
0.0623910913
 40
0.1288083527
 40
0.2703011622
 40
0.4173628091
 40
0.5616153981
 40
0.6302519199
 40
0.6953787477
 40
0.7563612971
 40
0.8128307481
 40
0.8647636093
 40
0.9125656046
 40
0.9571671253
 40
1.0
 40
1.0
 40
1.0
 40
1.0
 10
12.7932453908
 20
21.6036187229
 30
0.0
 10
12.7375820923
 20
21.6357552162
 30
0.0
 10
12.6269532816
 20
21.7097191845
 30
0.0
 10
12.4135599857
 20
21.8892585068
 30
0.0
 10
12.1706278304
 20
22.1656996181
 30
0.0
 10
11.9361527136
 20
22.5471106359
 30
0.0
 10
11.7963263194
 20
22.8928828782
 30
0.0
 10
11.7273086563
 20
23.1712592727
 30
0.0
 10
11.6991218799
 20
23.3702981519
 30
0.0
 10
11.694333711
 20
23.5588002327
 30
0.0
 10
11.7131184964
 20
23.7328854983
 30
0.0
 10
11.755275448
 20
23.8889864449
 30
0.0
 10
11.8204433945
 20
24.0237800635
 30
0.0
 10
11.9075930584
 20
24.1340306848
 30
0.0
 10
11.9800434857
 20
24.1894613265
 30
0.0
 10
12.0182535068
 20
24.2115308002
 30
0.0
  0
SPLINE
  5
433
100
AcDbEntity
  8
0
100
AcDbSpline
 62
7
  6
CONTINUOUS
 70
0
 71
3
 72
11
 73
7
 74
0
 42
0.0000001
 43
0.0000001
 44
0.0000000001
 40
0.0
 40
0.0
 40
0.0
 40
0.0
 40
0.2372436391
 40
0.500000526
 40
0.7627571267
 40
1.0
 40
1.0
 40
1.0
 40
1.0
 10
18.096569506
 20
46.2049184572
 30
0.0
 10
18.1166476514
 20
46.1933265966
 30
0.0
 10
18.1633391345
 20
46.1764134832
 30
0.0
 10
18.2379910841
 20
46.1683097237
 30
0.0
 10
18.312642921
 20
46.1764138238
 30
0.0
 10
18.3593342206
 20
46.1933271689
 30
0.0
 10
18.3794122176
 20
46.2049191369
 30
0.0
  0
SPLINE
  5
434
100
AcDbEntity
  8
0
100
AcDbSpline
 62
7
  6
CONTINUOUS
 70
0
 71
3
 72
11
 73
7
 74
0
 42
0.0000001
 43
0.0000001
 44
0.0000000001
 40
0.0
 40
0.0
 40
0.0
 40
0.0
 40
0.2177286216
 40
0.4508684125
 40
0.7104562937
 40
1.0
 40
1.0
 40
1.0
 40
1.0
 10
19.3288276365
 20
27.9745443131
 30
0.0
 10
19.3106904534
 20
27.9640725177
 30
0.0
 10
19.2690256741
 20
27.948908234
 30
0.0
 10
19.1997651087
 20
27.9471651162
 30
0.0
 10
19.1259821129
 20
27.965018233
 30
0.0
 10
19.0779583539
 20
27.9878326185
 30
0.0
 10
19.0538408965
 20
28.0017619565
 30
0.0
  0
SPLINE
  5
435
100
AcDbEntity
  8
0
100
AcDbSpline
 62
7
  6
CONTINUOUS
 70
0
 71
3
 72
11
 73
7
 74
0
 42
0.0000001
 43
0.0000001
 44
0.0000000001
 40
0.0
 40
0.0
 40
0.0
 40
0.0
 40
0.2372524154
 40
0.499999641
 40
0.7627470633
 40
1.0
 40
1.0
 40
1.0
 40
1.0
 10
15.5509750849
 20
47.5929366825
 30
0.0
 10
15.5810933083
 20
47.6103253431
 30
0.0
 10
15.6511286066
 20
47.6357036208
 30
0.0
 10
15.763106847
 20
47.647836894
 30
0.0
 10
15.8750852176
 20
47.635704108
 30
0.0
 10
15.9451207384
 20
47.6103261845
 30
0.0
 10
15.9752391534
 20
47.592937703
 30
0.0
  0
SPLINE
  5
436
100
AcDbEntity
  8
0
100
AcDbSpline
 62
7
  6
CONTINUOUS
 70
0
 71
3
 72
11
 73
7
 74
0
 42
0.0000001
 43
0.0000001
 44
0.0000000001
 40
0.0
 40
0.0
 40
0.0
 40
0.0
 40
0.2372534924
 40
0.5000010099
 40
0.7627479797
 40
1.0
 40
1.0
 40
1.0
 40
1.0
 10
14.4903186231
 20
47.2255153126
 30
0.0
 10
14.5204371012
 20
47.2081269684
 30
0.0
 10
14.5904725843
 20
47.1827492975
 30
0.0
 10
14.7024507245
 20
47.1706167583
 30
0.0
 10
14.8144285556
 20
47.1827501398
 30
0.0
 10
14.8844635441
 20
47.208128362
 30
0.0
 10
14.9145816347
 20
47.2255169459
 30
0.0
  0
SPLINE
  5
437
100
AcDbEntity
  8
0
100
AcDbSpline
 62
7
  6
CONTINUOUS
 70
0
 71
3
 72
10
 73
6
 74
0
 42
0.0000001
 43
0.0000001
 44
0.0000000001
 40
0.0
 40
0.0
 40
0.0
 40
0.0
 40
0.2270144313
 40
0.5955250913
 40
1.0
 40
1.0
 40
1.0
 40
1.0
 10
13.2646927282
 20
40.1197481015
 30
0.0
 10
13.2269539462
 20
40.1207728874
 30
0.0
 10
13.1280791939
 20
40.1315054233
 30
0.0
 10
12.9674806181
 20
40.178458375
 30
0.0
 10
12.8514985051
 20
40.2352322891
 30
0.0
 10
12.793245391
 20
40.2688639794
 30
0.0
  0
SPLINE
  5
438
100
AcDbEntity
  8
0
100
AcDbSpline
 62
7
  6
CONTINUOUS
 70
0
 71
3
 72
11
 73
7
 74
0
 42
0.0000001
 43
0.0000001
 44
0.0000000001
 40
0.0
 40
0.0
 40
0.0
 40
0.0
 40
0.2896615482
 40
0.5491335429
 40
0.7822507587
 40
1.0
 40
1.0
 40
1.0
 40
1.0
 10
13.6480554336
 20
48.9365074559
 30
0.0
 10
13.6612172637
 20
48.9289086417
 30
0.0
 10
13.6850994622
 20
48.9124549108
 30
0.0
 10
13.7136440867
 20
48.882458626
 30
0.0
 10
13.7317066129
 20
48.8492741898
 30
0.0
 10
13.7359209744
 20
48.825459016
 30
0.0
 10
13.7359232845
 20
48.8140342061
 30
0.0
  0
SPLINE
  5
439
100
AcDbEntity
  8
0
100
AcDbSpline
 62
7
  6
CONTINUOUS
 70
0
 71
3
 72
11
 73
7
 74
0
 42
0.0000001
 43
0.0000001
 44
0.0000000001
 40
0.0
 40
0.0
 40
0.0
 40
0.0
 40
0.2177286216
 40
0.4508684125
 40
0.7104562937
 40
1.0
 40
1.0
 40
1.0
 40
1.0
 10
19.3288276369
 20
31.0854185215
 30
0.0
 10
19.3106904539
 20
31.0749467261
 30
0.0
 10
19.2690256745
 20
31.0597824422
 30
0.0
 10
19.1997651089
 20
31.0580393243
 30
0.0
 10
19.1259821129
 20
31.0758924412
 30
0.0
 10
19.0779583538
 20
31.0987068267
 30
0.0
 10
19.0538408964
 20
31.1126361647
 30
0.0
  0
SPLINE
  5
43A
100
AcDbEntity
  8
0
100
AcDbSpline
 62
7
  6
CONTINUOUS
 70
0
 71
3
 72
10
 73
6
 74
0
 42
0.0000001
 43
0.0000001
 44
0.0000000001
 40
0.0
 40
0.0
 40
0.0
 40
0.0
 40
0.2270144313
 40
0.5955250912
 40
1.0
 40
1.0
 40
1.0
 40
1.0
 10
13.2646927282
 20
21.4545028449
 30
0.0
 10
13.2269539463
 20
21.4555276307
 30
0.0
 10
13.1280791939
 20
21.4662601665
 30
0.0
 10
12.967480618
 20
21.5132131183
 30
0.0
 10
12.851498505
 20
21.5699870326
 30
0.0
 10
12.7932453908
 20
21.6036187229
 30
0.0
  0
SPLINE
  5
43B
100
AcDbEntity
  8
0
100
AcDbSpline
 62
7
  6
CONTINUOUS
 70
0
 71
3
 72
10
 73
6
 74
0
 42
0.0000001
 43
0.0000001
 44
0.0000000001
 40
0.0
 40
0.0
 40
0.0
 40
0.0
 40
0.2270144313
 40
0.5955250913
 40
1.0
 40
1.0
 40
1.0
 40
1.0
 10
13.2646927282
 20
37.0088738918
 30
0.0
 10
13.2269539462
 20
37.0098986777
 30
0.0
 10
13.1280791939
 20
37.0206312136
 30
0.0
 10
12.9674806181
 20
37.0675841653
 30
0.0
 10
12.8514985051
 20
37.1243580795
 30
0.0
 10
12.793245391
 20
37.1579897698
 30
0.0
  0
SPLINE
  5
43C
100
AcDbEntity
  8
0
100
AcDbSpline
 62
7
  6
CONTINUOUS
 70
0
 71
3
 72
10
 73
6
 74
0
 42
0.0000001
 43
0.0000001
 44
0.0000000001
 40
0.0
 40
0.0
 40
0.0
 40
0.0
 40
0.2270144313
 40
0.5955250913
 40
1.0
 40
1.0
 40
1.0
 40
1.0
 10
13.2646927282
 20
18.3436286367
 30
0.0
 10
13.2269539462
 20
18.3446534226
 30
0.0
 10
13.1280791939
 20
18.3553859584
 30
0.0
 10
12.9674806181
 20
18.4023389101
 30
0.0
 10
12.8514985052
 20
18.4591128243
 30
0.0
 10
12.793245391
 20
18.4927445146
 30
0.0
  0
SPLINE
  5
43D
100
AcDbEntity
  8
0
100
AcDbSpline
 62
7
  6
CONTINUOUS
 70
0
 71
3
 72
11
 73
7
 74
0
 42
0.0000001
 43
0.0000001
 44
0.0000000001
 40
0.0
 40
0.0
 40
0.0
 40
0.0
 40
0.2177492431
 40
0.4508664575
 40
0.7103384479
 40
1.0
 40
1.0
 40
1.0
 40
1.0
 10
13.2644149898
 20
48.0050189628
 30
0.0
 10
13.2644172996
 20
47.9935941526
 30
0.0
 10
13.2686316617
 20
47.9697789786
 30
0.0
 10
13.2866941882
 20
47.9365945424
 30
0.0
 10
13.3152388131
 20
47.9065982575
 30
0.0
 10
13.3391210123
 20
47.8901445271
 30
0.0
 10
13.3522828427
 20
47.8825457127
 30
0.0
  0
SPLINE
  5
43E
100
AcDbEntity
  8
0
100
AcDbSpline
 62
7
  6
CONTINUOUS
 70
0
 71
3
 72
10
 73
6
 74
0
 42
0.0000001
 43
0.0000001
 44
0.0000000001
 40
0.0
 40
0.0
 40
0.0
 40
0.0
 40
0.2270144313
 40
0.5955250913
 40
1.0
 40
1.0
 40
1.0
 40
1.0
 10
13.2646927282
 20
27.6762512643
 30
0.0
 10
13.2269539462
 20
27.6772760502
 30
0.0
 10
13.1280791939
 20
27.688008586
 30
0.0
 10
12.9674806181
 20
27.7349615377
 30
0.0
 10
12.8514985051
 20
27.7917354519
 30
0.0
 10
12.793245391
 20
27.8253671422
 30
0.0
  0
SPLINE
  5
43F
100
AcDbEntity
  8
0
100
AcDbSpline
 62
7
  6
CONTINUOUS
 70
0
 71
3
 72
11
 73
7
 74
0
 42
0.0000001
 43
0.0000001
 44
0.0000000001
 40
0.0
 40
0.0
 40
0.0
 40
0.0
 40
0.2177436879
 40
0.4508809312
 40
0.7104580989
 40
1.0
 40
1.0
 40
1.0
 40
1.0
 10
11.2204629057
 20
50.4097999297
 30
0.0
 10
11.220462909
 20
50.3983757117
 30
0.0
 10
11.2246581106
 20
50.3745572967
 30
0.0
 10
11.2427262785
 20
50.3413653389
 30
0.0
 10
11.2712840738
 20
50.3113845216
 30
0.0
 10
11.2951578934
 20
50.2949228287
 30
0.0
 10
11.3083139076
 20
50.2873272962
 30
0.0
  0
SPLINE
  5
440
100
AcDbEntity
  8
0
100
AcDbSpline
 62
7
  6
CONTINUOUS
 70
0
 71
3
 72
10
 73
6
 74
0
 42
0.0000001
 43
0.0000001
 44
0.0000000001
 40
0.0
 40
0.0
 40
0.0
 40
0.0
 40
0.2270144313
 40
0.5955250912
 40
1.0
 40
1.0
 40
1.0
 40
1.0
 10
13.2646927282
 20
33.8979996821
 30
0.0
 10
13.2269539463
 20
33.8990244679
 30
0.0
 10
13.1280791939
 20
33.9097570037
 30
0.0
 10
12.9674806182
 20
33.9567099554
 30
0.0
 10
12.8514985053
 20
34.0134838697
 30
0.0
 10
12.7932453911
 20
34.04711556
 30
0.0
  0
SPLINE
  5
441
100
AcDbEntity
  8
0
100
AcDbSpline
 62
7
  6
CONTINUOUS
 70
0
 71
3
 72
11
 73
7
 74
0
 42
0.0000001
 43
0.0000001
 44
0.0000000001
 40
0.0
 40
0.0
 40
0.0
 40
0.0
 40
0.2177286216
 40
0.4508684125
 40
0.7104562937
 40
1.0
 40
1.0
 40
1.0
 40
1.0
 10
19.3288276367
 20
15.531047476
 30
0.0
 10
19.3106904536
 20
15.5205756806
 30
0.0
 10
19.2690256743
 20
15.5054113968
 30
0.0
 10
19.1997651088
 20
15.5036682789
 30
0.0
 10
19.1259821129
 20
15.5215213957
 30
0.0
 10
19.0779583539
 20
15.5443357812
 30
0.0
 10
19.0538408965
 20
15.5582651193
 30
0.0
  0
SPLINE
  5
442
100
AcDbEntity
  8
0
100
AcDbSpline
 62
7
  6
CONTINUOUS
 70
0
 71
3
 72
11
 73
7
 74
0
 42
0.0000001
 43
0.0000001
 44
0.0000000001
 40
0.0
 40
0.0
 40
0.0
 40
0.0
 40
0.2177286216
 40
0.4508684125
 40
0.7104562936
 40
1.0
 40
1.0
 40
1.0
 40
1.0
 10
19.3288276369
 20
34.1962927312
 30
0.0
 10
19.3106904538
 20
34.1858209358
 30
0.0
 10
19.2690256745
 20
34.1706566519
 30
0.0
 10
19.1997651089
 20
34.168913534
 30
0.0
 10
19.125982113
 20
34.1867666508
 30
0.0
 10
19.0779583539
 20
34.2095810363
 30
0.0
 10
19.0538408965
 20
34.2235103744
 30
0.0
  0
SPLINE
  5
443
100
AcDbEntity
  8
0
100
AcDbSpline
 62
7
  6
CONTINUOUS
 70
0
 71
3
 72
10
 73
6
 74
0
 42
0.0000001
 43
0.0000001
 44
0.0000000001
 40
0.0
 40
0.0
 40
0.0
 40
0.0
 40
0.2270144313
 40
0.5955250913
 40
1.0
 40
1.0
 40
1.0
 40
1.0
 10
13.2646927282
 20
24.5653770545
 30
0.0
 10
13.2269539462
 20
24.5664018404
 30
0.0
 10
13.1280791939
 20
24.5771343763
 30
0.0
 10
12.9674806181
 20
24.624087328
 30
0.0
 10
12.8514985051
 20
24.6808612422
 30
0.0
 10
12.793245391
 20
24.7144929325
 30
0.0
  0
SPLINE
  5
444
100
AcDbEntity
  8
0
100
AcDbSpline
 62
7
  6
CONTINUOUS
 70
0
 71
3
 72
11
 73
7
 74
0
 42
0.0000001
 43
0.0000001
 44
0.0000000001
 40
0.0
 40
0.0
 40
0.0
 40
0.0
 40
0.2177286216
 40
0.4508684125
 40
0.7104562937
 40
1.0
 40
1.0
 40
1.0
 40
1.0
 10
19.3288276366
 20
37.3071669407
 30
0.0
 10
19.3106904535
 20
37.2966951453
 30
0.0
 10
19.2690256742
 20
37.2815308615
 30
0.0
 10
19.1997651087
 20
37.2797877437
 30
0.0
 10
19.1259821129
 20
37.2976408605
 30
0.0
 10
19.0779583539
 20
37.320455246
 30
0.0
 10
19.0538408965
 20
37.334384584
 30
0.0
  0
SPLINE
  5
445
100
AcDbEntity
  8
0
100
AcDbSpline
 62
7
  6
CONTINUOUS
 70
0
 71
3
 72
11
 73
7
 74
0
 42
0.0000001
 43
0.0000001
 44
0.0000000001
 40
0.0
 40
0.0
 40
0.0
 40
0.0
 40
0.2177286216
 40
0.4508684125
 40
0.7104562937
 40
1.0
 40
1.0
 40
1.0
 40
1.0
 10
19.3288276365
 20
40.4180411503
 30
0.0
 10
19.3106904535
 20
40.407569355
 30
0.0
 10
19.2690256742
 20
40.3924050712
 30
0.0
 10
19.1997651087
 20
40.3906619534
 30
0.0
 10
19.1259821129
 20
40.4085150702
 30
0.0
 10
19.0779583539
 20
40.4313294557
 30
0.0
 10
19.0538408965
 20
40.4452587937
 30
0.0
  0
SPLINE
  5
446
100
AcDbEntity
  8
0
100
AcDbSpline
 62
7
  6
CONTINUOUS
 70
0
 71
3
 72
9
 73
5
 74
0
 42
0.0000001
 43
0.0000001
 44
0.0000000001
 40
0.0
 40
0.0
 40
0.0
 40
0.0
 40
0.2578470156
 40
1.0
 40
1.0
 40
1.0
 40
1.0
 10
21.8822562505
 20
45.1891096152
 30
0.0
 10
21.887492166
 20
45.186085547
 30
0.0
 10
21.9080040086
 20
45.1747203122
 30
0.0
 10
21.9293513611
 20
45.1648365794
 30
0.0
 10
21.9455830202
 20
45.1585588127
 30
0.0
  0
SPLINE
  5
447
100
AcDbEntity
  8
0
100
AcDbSpline
 62
7
  6
CONTINUOUS
 70
0
 71
3
 72
9
 73
5
 74
0
 42
0.0000001
 43
0.0000001
 44
0.0000000001
 40
0.0
 40
0.0
 40
0.0
 40
0.0
 40
0.2578470153
 40
1.0
 40
1.0
 40
1.0
 40
1.0
 10
21.8822562536
 20
17.1912417308
 30
0.0
 10
21.8874921687
 20
17.1882176628
 30
0.0
 10
21.9080040099
 20
17.1768524288
 30
0.0
 10
21.9293513609
 20
17.1669686965
 30
0.0
 10
21.9455830189
 20
17.1606909301
 30
0.0
  0
SPLINE
  5
448
100
AcDbEntity
  8
0
100
AcDbSpline
 62
7
  6
CONTINUOUS
 70
0
 71
3
 72
9
 73
5
 74
0
 42
0.0000001
 43
0.0000001
 44
0.0000000001
 40
0.0
 40
0.0
 40
0.0
 40
0.0
 40
0.257847016
 40
1.0
 40
1.0
 40
1.0
 40
1.0
 10
21.8822562468
 20
42.0782354076
 30
0.0
 10
21.8874921627
 20
42.0752113392
 30
0.0
 10
21.9080040069
 20
42.0638461035
 30
0.0
 10
21.9293513613
 20
42.05396237
 30
0.0
 10
21.9455830218
 20
42.0476846029
 30
0.0
  0
SPLINE
  5
449
100
AcDbEntity
  8
0
100
AcDbSpline
 62
7
  6
CONTINUOUS
 70
0
 71
3
 72
9
 73
5
 74
0
 42
0.0000001
 43
0.0000001
 44
0.0000000001
 40
0.0
 40
0.0
 40
0.0
 40
0.0
 40
0.257847016
 40
1.0
 40
1.0
 40
1.0
 40
1.0
 10
21.8822562473
 20
20.3021159426
 30
0.0
 10
21.8874921631
 20
20.2990918742
 30
0.0
 10
21.9080040071
 20
20.2877266386
 30
0.0
 10
21.9293513612
 20
20.2778429052
 30
0.0
 10
21.9455830216
 20
20.2715651381
 30
0.0
  0
SPLINE
  5
44A
100
AcDbEntity
  8
0
100
AcDbSpline
 62
7
  6
CONTINUOUS
 70
0
 71
3
 72
10
 73
6
 74
0
 42
0.0000001
 43
0.0000001
 44
0.0000000001
 40
0.0
 40
0.0
 40
0.0
 40
0.0
 40
0.2270144313
 40
0.5955250913
 40
1.0
 40
1.0
 40
1.0
 40
1.0
 10
13.2646927282
 20
30.7871254739
 30
0.0
 10
13.2269539462
 20
30.7881502598
 30
0.0
 10
13.1280791939
 20
30.7988827957
 30
0.0
 10
12.9674806181
 20
30.8458357474
 30
0.0
 10
12.8514985051
 20
30.9026096616
 30
0.0
 10
12.793245391
 20
30.9362413519
 30
0.0
  0
SPLINE
  5
44B
100
AcDbEntity
  8
0
100
AcDbSpline
 62
7
  6
CONTINUOUS
 70
0
 71
3
 72
9
 73
5
 74
0
 42
0.0000001
 43
0.0000001
 44
0.0000000001
 40
0.0
 40
0.0
 40
0.0
 40
0.0
 40
0.2578470158
 40
1.0
 40
1.0
 40
1.0
 40
1.0
 10
21.8822562456
 20
38.9673611987
 30
0.0
 10
21.8874921614
 20
38.9643371302
 30
0.0
 10
21.9080040056
 20
38.9529718946
 30
0.0
 10
21.9293513599
 20
38.943088161
 30
0.0
 10
21.9455830203
 20
38.9368103939
 30
0.0
  0
SPLINE
  5
44C
100
AcDbEntity
  8
0
100
AcDbSpline
 62
7
  6
CONTINUOUS
 70
0
 71
3
 72
11
 73
7
 74
0
 42
0.0000001
 43
0.0000001
 44
0.0000000001
 40
0.0
 40
0.0
 40
0.0
 40
0.0
 40
0.2177286216
 40
0.4508684125
 40
0.7104562937
 40
1.0
 40
1.0
 40
1.0
 40
1.0
 10
19.3288276369
 20
43.5289153587
 30
0.0
 10
19.3106904538
 20
43.5184435633
 30
0.0
 10
19.2690256744
 20
43.5032792794
 30
0.0
 10
19.1997651088
 20
43.5015361615
 30
0.0
 10
19.1259821129
 20
43.5193892784
 30
0.0
 10
19.0779583538
 20
43.5422036639
 30
0.0
 10
19.0538408964
 20
43.556133002
 30
0.0
  0
SPLINE
  5
44D
100
AcDbEntity
  8
0
100
AcDbSpline
 62
7
  6
CONTINUOUS
 70
0
 71
3
 72
20
 73
16
 74
0
 42
0.0000001
 43
0.0000001
 44
0.0000000001
 40
0.0
 40
0.0
 40
0.0
 40
0.0
 40
0.0623910913
 40
0.1288083526
 40
0.2703011622
 40
0.4173628091
 40
0.561615398
 40
0.6302519199
 40
0.6953787476
 40
0.7563612971
 40
0.8128307481
 40
0.8647636093
 40
0.9125656046
 40
0.9571671253
 40
1.0
 40
1.0
 40
1.0
 40
1.0
 10
12.793245391
 20
18.4927445146
 30
0.0
 10
12.7375820926
 20
18.5248810079
 30
0.0
 10
12.6269532818
 20
18.5988449761
 30
0.0
 10
12.4135599859
 20
18.7783842982
 30
0.0
 10
12.1706278306
 20
19.0548254094
 30
0.0
 10
11.9361527137
 20
19.436236427
 30
0.0
 10
11.7963263195
 20
19.7820086692
 30
0.0
 10
11.7273086564
 20
20.0603850637
 30
0.0
 10
11.69912188
 20
20.2594239429
 30
0.0
 10
11.694333711
 20
20.4479260236
 30
0.0
 10
11.7131184964
 20
20.6220112892
 30
0.0
 10
11.755275448
 20
20.7781122358
 30
0.0
 10
11.8204433945
 20
20.9129058543
 30
0.0
 10
11.9075930584
 20
21.0231564756
 30
0.0
 10
11.9800434857
 20
21.0785871172
 30
0.0
 10
12.0182535068
 20
21.1006565909
 30
0.0
  0
SPLINE
  5
44E
100
AcDbEntity
  8
0
100
AcDbSpline
 62
7
  6
CONTINUOUS
 70
0
 71
3
 72
9
 73
5
 74
0
 42
0.0000001
 43
0.0000001
 44
0.0000000001
 40
0.0
 40
0.0
 40
0.0
 40
0.0
 40
0.2578470156
 40
1.0
 40
1.0
 40
1.0
 40
1.0
 10
21.8822562506
 20
35.8564869875
 30
0.0
 10
21.8874921661
 20
35.8534629194
 30
0.0
 10
21.9080040086
 20
35.8420976846
 30
0.0
 10
21.9293513611
 20
35.8322139518
 30
0.0
 10
21.9455830201
 20
35.8259361851
 30
0.0
  0
SPLINE
  5
44F
100
AcDbEntity
  8
0
100
AcDbSpline
 62
7
  6
CONTINUOUS
 70
0
 71
3
 72
11
 73
7
 74
0
 42
0.0000001
 43
0.0000001
 44
0.0000000001
 40
0.0
 40
0.0
 40
0.0
 40
0.0
 40
0.2177286216
 40
0.4508684125
 40
0.7104562937
 40
1.0
 40
1.0
 40
1.0
 40
1.0
 10
19.3288276365
 20
18.6419216855
 30
0.0
 10
19.3106904534
 20
18.6314498902
 30
0.0
 10
19.2690256741
 20
18.6162856064
 30
0.0
 10
19.1997651087
 20
18.6145424886
 30
0.0
 10
19.1259821129
 20
18.6323956054
 30
0.0
 10
19.0779583539
 20
18.6552099909
 30
0.0
 10
19.0538408965
 20
18.6691393289
 30
0.0
  0
SPLINE
  5
450
100
AcDbEntity
  8
0
100
AcDbSpline
 62
7
  6
CONTINUOUS
 70
0
 71
3
 72
20
 73
16
 74
0
 42
0.0000001
 43
0.0000001
 44
0.0000000001
 40
0.0
 40
0.0
 40
0.0
 40
0.0
 40
0.0623910913
 40
0.1288083526
 40
0.2703011622
 40
0.4173628091
 40
0.561615398
 40
0.6302519199
 40
0.6953787477
 40
0.7563612971
 40
0.8128307481
 40
0.8647636093
 40
0.9125656046
 40
0.9571671253
 40
1.0
 40
1.0
 40
1.0
 40
1.0
 10
12.7932453912
 20
46.4906123971
 30
0.0
 10
12.7375820928
 20
46.5227488904
 30
0.0
 10
12.626953282
 20
46.5967128587
 30
0.0
 10
12.413559986
 20
46.7762521807
 30
0.0
 10
12.1706278306
 20
47.052693292
 30
0.0
 10
11.9361527137
 20
47.4341043097
 30
0.0
 10
11.7963263195
 20
47.779876552
 30
0.0
 10
11.7273086563
 20
48.0582529465
 30
0.0
 10
11.69912188
 20
48.2572918258
 30
0.0
 10
11.694333711
 20
48.4457939065
 30
0.0
 10
11.7131184965
 20
48.6198791721
 30
0.0
 10
11.7552754481
 20
48.7759801187
 30
0.0
 10
11.8204433947
 20
48.9107737373
 30
0.0
 10
11.9075930586
 20
49.0210243585
 30
0.0
 10
11.980043486
 20
49.0764550001
 30
0.0
 10
12.0182535071
 20
49.0985244738
 30
0.0
  0
SPLINE
  5
451
100
AcDbEntity
  8
0
100
AcDbSpline
 62
7
  6
CONTINUOUS
 70
0
 71
3
 72
9
 73
5
 74
0
 42
0.0000001
 43
0.0000001
 44
0.0000000001
 40
0.0
 40
0.0
 40
0.0
 40
0.0
 40
0.2578470157
 40
1.0
 40
1.0
 40
1.0
 40
1.0
 10
21.8822562497
 20
23.4129901509
 30
0.0
 10
21.8874921652
 20
23.4099660826
 30
0.0
 10
21.9080040082
 20
23.3986008477
 30
0.0
 10
21.9293513611
 20
23.3887171147
 30
0.0
 10
21.9455830205
 20
23.3824393479
 30
0.0
  0
SPLINE
  5
452
100
AcDbEntity
  8
0
100
AcDbSpline
 62
7
  6
CONTINUOUS
 70
0
 71
3
 72
9
 73
5
 74
0
 42
0.0000001
 43
0.0000001
 44
0.0000000001
 40
0.0
 40
0.0
 40
0.0
 40
0.0
 40
0.2578470157
 40
1.0
 40
1.0
 40
1.0
 40
1.0
 10
21.8822562496
 20
32.7456127785
 30
0.0
 10
21.8874921651
 20
32.7425887102
 30
0.0
 10
21.9080040081
 20
32.7312234753
 30
0.0
 10
21.9293513611
 20
32.7213397422
 30
0.0
 10
21.9455830206
 20
32.7150619754
 30
0.0
  0
SPLINE
  5
453
100
AcDbEntity
  8
0
100
AcDbSpline
 62
7
  6
CONTINUOUS
 70
0
 71
3
 72
10
 73
6
 74
0
 42
0.0000001
 43
0.0000001
 44
0.0000000001
 40
0.0
 40
0.0
 40
0.0
 40
0.0
 40
0.2270144313
 40
0.5955250912
 40
1.0
 40
1.0
 40
1.0
 40
1.0
 10
13.2646927282
 20
46.3414965193
 30
0.0
 10
13.2269539463
 20
46.3425213052
 30
0.0
 10
13.128079194
 20
46.3532538409
 30
0.0
 10
12.9674806182
 20
46.4002067926
 30
0.0
 10
12.8514985054
 20
46.4569807068
 30
0.0
 10
12.7932453912
 20
46.4906123971
 30
0.0
  0
SPLINE
  5
454
100
AcDbEntity
  8
0
100
AcDbSpline
 62
7
  6
CONTINUOUS
 70
0
 71
3
 72
20
 73
16
 74
0
 42
0.0000001
 43
0.0000001
 44
0.0000000001
 40
0.0
 40
0.0
 40
0.0
 40
0.0
 40
0.0623910913
 40
0.1288083526
 40
0.2703011622
 40
0.4173628091
 40
0.561615398
 40
0.6302519199
 40
0.6953787476
 40
0.7563612971
 40
0.8128307481
 40
0.8647636093
 40
0.9125656046
 40
0.9571671253
 40
1.0
 40
1.0
 40
1.0
 40
1.0
 10
12.7932453911
 20
43.3797381875
 30
0.0
 10
12.7375820926
 20
43.4118746808
 30
0.0
 10
12.6269532819
 20
43.4858386492
 30
0.0
 10
12.4135599859
 20
43.6653779714
 30
0.0
 10
12.1706278306
 20
43.9418190827
 30
0.0
 10
11.9361527137
 20
44.3232301005
 30
0.0
 10
11.7963263195
 20
44.6690023429
 30
0.0
 10
11.7273086563
 20
44.9473787374
 30
0.0
 10
11.6991218799
 20
45.1464176166
 30
0.0
 10
11.694333711
 20
45.3349196974
 30
0.0
 10
11.7131184964
 20
45.5090049631
 30
0.0
 10
11.755275448
 20
45.6651059097
 30
0.0
 10
11.8204433945
 20
45.7998995283
 30
0.0
 10
11.9075930584
 20
45.9101501496
 30
0.0
 10
11.9800434857
 20
45.9655807913
 30
0.0
 10
12.0182535068
 20
45.987650265
 30
0.0
  0
SPLINE
  5
455
100
AcDbEntity
  8
0
100
AcDbSpline
 62
7
  6
CONTINUOUS
 70
0
 71
3
 72
11
 73
7
 74
0
 42
0.0000001
 43
0.0000001
 44
0.0000000001
 40
0.0
 40
0.0
 40
0.0
 40
0.0
 40
0.2177286216
 40
0.4508684125
 40
0.7104562936
 40
1.0
 40
1.0
 40
1.0
 40
1.0
 10
19.328827637
 20
21.752795894
 30
0.0
 10
19.3106904539
 20
21.7423240986
 30
0.0
 10
19.2690256745
 20
21.7271598147
 30
0.0
 10
19.1997651089
 20
21.7254166968
 30
0.0
 10
19.125982113
 20
21.7432698136
 30
0.0
 10
19.0779583538
 20
21.7660841991
 30
0.0
 10
19.0538408964
 20
21.7800135372
 30
0.0
  0
SPLINE
  5
456
100
AcDbEntity
  8
0
100
AcDbSpline
 62
7
  6
CONTINUOUS
 70
0
 71
3
 72
9
 73
5
 74
0
 42
0.0000001
 43
0.0000001
 44
0.0000000001
 40
0.0
 40
0.0
 40
0.0
 40
0.0
 40
0.2578470157
 40
1.0
 40
1.0
 40
1.0
 40
1.0
 10
21.8822562472
 20
29.6347385702
 30
0.0
 10
21.8874921628
 20
29.6317145019
 30
0.0
 10
21.9080040063
 20
29.6203492666
 30
0.0
 10
21.9293513598
 20
29.6104655334
 30
0.0
 10
21.9455830196
 20
29.6041877665
 30
0.0
  0
SPLINE
  5
457
100
AcDbEntity
  8
0
100
AcDbSpline
 62
7
  6
CONTINUOUS
 70
0
 71
3
 72
10
 73
6
 74
0
 42
0.0000001
 43
0.0000001
 44
0.0000000001
 40
0.0
 40
0.0
 40
0.0
 40
0.0
 40
0.2270144313
 40
0.5955250912
 40
1.0
 40
1.0
 40
1.0
 40
1.0
 10
13.2646927282
 20
43.2306223096
 30
0.0
 10
13.2269539463
 20
43.2316470955
 30
0.0
 10
13.1280791939
 20
43.2423796312
 30
0.0
 10
12.9674806182
 20
43.289332583
 30
0.0
 10
12.8514985053
 20
43.3461064972
 30
0.0
 10
12.7932453911
 20
43.3797381875
 30
0.0
  0
SPLINE
  5
458
100
AcDbEntity
  8
0
100
AcDbSpline
 62
7
  6
CONTINUOUS
 70
0
 71
3
 72
20
 73
16
 74
0
 42
0.0000001
 43
0.0000001
 44
0.0000000001
 40
0.0
 40
0.0
 40
0.0
 40
0.0
 40
0.0623910913
 40
0.1288083526
 40
0.2703011622
 40
0.4173628091
 40
0.561615398
 40
0.6302519199
 40
0.6953787476
 40
0.7563612971
 40
0.8128307481
 40
0.8647636093
 40
0.9125656046
 40
0.9571671253
 40
1.0
 40
1.0
 40
1.0
 40
1.0
 10
12.793245391
 20
40.2688639794
 30
0.0
 10
12.7375820925
 20
40.3010004727
 30
0.0
 10
12.6269532818
 20
40.374964441
 30
0.0
 10
12.4135599858
 20
40.554503763
 30
0.0
 10
12.1706278306
 20
40.8309448742
 30
0.0
 10
11.9361527137
 20
41.2123558918
 30
0.0
 10
11.7963263195
 20
41.5581281341
 30
0.0
 10
11.7273086564
 20
41.8365045285
 30
0.0
 10
11.69912188
 20
42.0355434077
 30
0.0
 10
11.694333711
 20
42.2240454885
 30
0.0
 10
11.7131184964
 20
42.398130754
 30
0.0
 10
11.755275448
 20
42.5542317006
 30
0.0
 10
11.8204433945
 20
42.6890253192
 30
0.0
 10
11.9075930584
 20
42.7992759404
 30
0.0
 10
11.9800434857
 20
42.854706582
 30
0.0
 10
12.0182535068
 20
42.8767760558
 30
0.0
  0
SPLINE
  5
459
100
AcDbEntity
  8
0
100
AcDbSpline
 62
7
  6
CONTINUOUS
 70
0
 71
3
 72
11
 73
7
 74
0
 42
0.0000001
 43
0.0000001
 44
0.0000000001
 40
0.0
 40
0.0
 40
0.0
 40
0.0
 40
0.2177286216
 40
0.4508684125
 40
0.7104562937
 40
1.0
 40
1.0
 40
1.0
 40
1.0
 10
19.3288276368
 20
24.8636701036
 30
0.0
 10
19.3106904537
 20
24.8531983082
 30
0.0
 10
19.2690256744
 20
24.8380340243
 30
0.0
 10
19.1997651089
 20
24.8362909065
 30
0.0
 10
19.125982113
 20
24.8541440232
 30
0.0
 10
19.0779583539
 20
24.8769584088
 30
0.0
 10
19.0538408965
 20
24.8908877468
 30
0.0
  0
SPLINE
  5
45A
100
AcDbEntity
  8
0
100
AcDbSpline
 62
7
  6
CONTINUOUS
 70
0
 71
3
 72
20
 73
16
 74
0
 42
0.0000001
 43
0.0000001
 44
0.0000000001
 40
0.0
 40
0.0
 40
0.0
 40
0.0
 40
0.0623910913
 40
0.1288083526
 40
0.2703011622
 40
0.4173628091
 40
0.561615398
 40
0.6302519199
 40
0.6953787477
 40
0.7563612971
 40
0.8128307481
 40
0.8647636093
 40
0.9125656046
 40
0.9571671253
 40
1.0
 40
1.0
 40
1.0
 40
1.0
 10
12.793245391
 20
37.1579897698
 30
0.0
 10
12.7375820925
 20
37.1901262631
 30
0.0
 10
12.6269532818
 20
37.2640902313
 30
0.0
 10
12.4135599858
 20
37.4436295534
 30
0.0
 10
12.1706278305
 20
37.7200706646
 30
0.0
 10
11.9361527136
 20
38.1014816823
 30
0.0
 10
11.7963263195
 20
38.4472539246
 30
0.0
 10
11.7273086563
 20
38.725630319
 30
0.0
 10
11.69912188
 20
38.9246691982
 30
0.0
 10
11.694333711
 20
39.113171279
 30
0.0
 10
11.7131184965
 20
39.2872565445
 30
0.0
 10
11.755275448
 20
39.4433574911
 30
0.0
 10
11.8204433946
 20
39.5781511097
 30
0.0
 10
11.9075930585
 20
39.6884017309
 30
0.0
 10
11.9800434859
 20
39.7438323725
 30
0.0
 10
12.018253507
 20
39.7659018462
 30
0.0
  0
SPLINE
  5
45B
100
AcDbEntity
  8
0
100
AcDbSpline
 62
7
  6
CONTINUOUS
 70
0
 71
3
 72
9
 73
5
 74
0
 42
0.0000001
 43
0.0000001
 44
0.0000000001
 40
0.0
 40
0.0
 40
0.0
 40
0.0
 40
0.2578470155
 40
1.0
 40
1.0
 40
1.0
 40
1.0
 10
21.8822562521
 20
26.5238643592
 30
0.0
 10
21.8874921673
 20
26.5208402911
 30
0.0
 10
21.9080040092
 20
26.5094750567
 30
0.0
 10
21.929351361
 20
26.4995913242
 30
0.0
 10
21.9455830195
 20
26.4933135576
 30
0.0
  0
SPLINE
  5
45C
100
AcDbEntity
  8
0
100
AcDbSpline
 62
7
  6
CONTINUOUS
 70
0
 71
3
 72
12
 73
8
 74
0
 42
0.0000001
 43
0.0000001
 44
0.0000000001
 40
0.0
 40
0.0
 40
0.0
 40
0.0
 40
0.1081636651
 40
0.2183744687
 40
0.4513429509
 40
0.7104811987
 40
1.0
 40
1.0
 40
1.0
 40
1.0
 10
12.0182535071
 20
82.1668723675
 30
0.0
 10
12.0436632714
 20
82.1815486255
 30
0.0
 10
12.0976311183
 20
82.2068063444
 30
0.0
 10
12.2161114715
 20
82.2395833917
 30
0.0
 10
12.3820800257
 20
82.2440384992
 30
0.0
 10
12.5899002486
 20
82.1937434392
 30
0.0
 10
12.7252245003
 20
82.129388775
 30
0.0
 10
12.793245391
 20
82.0901177838
 30
0.0
  0
SPLINE
  5
45D
100
AcDbEntity
  8
0
100
AcDbSpline
 62
7
  6
CONTINUOUS
 70
0
 71
3
 72
12
 73
8
 74
0
 42
0.0000001
 43
0.0000001
 44
0.0000000001
 40
0.0
 40
0.0
 40
0.0
 40
0.0
 40
0.1081636651
 40
0.2183744688
 40
0.4513429509
 40
0.7104811987
 40
1.0
 40
1.0
 40
1.0
 40
1.0
 10
12.0182535068
 20
79.0559981588
 30
0.0
 10
12.0436632711
 20
79.0706744167
 30
0.0
 10
12.097631118
 20
79.0959321358
 30
0.0
 10
12.2161114712
 20
79.1287091831
 30
0.0
 10
12.3820800254
 20
79.1331642908
 30
0.0
 10
12.5899002484
 20
79.082869231
 30
0.0
 10
12.7252245001
 20
79.0185145669
 30
0.0
 10
12.7932453908
 20
78.9792435757
 30
0.0
  0
SPLINE
  5
45E
100
AcDbEntity
  8
0
100
AcDbSpline
 62
7
  6
CONTINUOUS
 70
0
 71
3
 72
12
 73
8
 74
0
 42
0.0000001
 43
0.0000001
 44
0.0000000001
 40
0.0
 40
0.0
 40
0.0
 40
0.0
 40
0.1081636651
 40
0.2183744687
 40
0.4513429509
 40
0.7104811987
 40
1.0
 40
1.0
 40
1.0
 40
1.0
 10
12.0182535068
 20
75.9451239495
 30
0.0
 10
12.0436632711
 20
75.9598002074
 30
0.0
 10
12.0976311181
 20
75.9850579265
 30
0.0
 10
12.2161114713
 20
76.0178349738
 30
0.0
 10
12.3820800255
 20
76.0222900813
 30
0.0
 10
12.5899002485
 20
75.9719950213
 30
0.0
 10
12.7252245002
 20
75.9076403571
 30
0.0
 10
12.793245391
 20
75.868369366
 30
0.0
  0
SPLINE
  5
45F
100
AcDbEntity
  8
0
100
AcDbSpline
 62
7
  6
CONTINUOUS
 70
0
 71
3
 72
12
 73
8
 74
0
 42
0.0000001
 43
0.0000001
 44
0.0000000001
 40
0.0
 40
0.0
 40
0.0
 40
0.0
 40
0.1081636651
 40
0.2183744687
 40
0.4513429509
 40
0.7104811987
 40
1.0
 40
1.0
 40
1.0
 40
1.0
 10
12.018253507
 20
72.8342497399
 30
0.0
 10
12.0436632713
 20
72.8489259979
 30
0.0
 10
12.0976311182
 20
72.8741837169
 30
0.0
 10
12.2161114714
 20
72.9069607641
 30
0.0
 10
12.3820800256
 20
72.9114158716
 30
0.0
 10
12.5899002486
 20
72.8611208116
 30
0.0
 10
12.7252245003
 20
72.7967661474
 30
0.0
 10
12.793245391
 20
72.7574951563
 30
0.0
  0
SPLINE
  5
460
100
AcDbEntity
  8
0
100
AcDbSpline
 62
7
  6
CONTINUOUS
 70
0
 71
3
 72
12
 73
8
 74
0
 42
0.0000001
 43
0.0000001
 44
0.0000000001
 40
0.0
 40
0.0
 40
0.0
 40
0.0
 40
0.1081636651
 40
0.2183744688
 40
0.4513429509
 40
0.7104811987
 40
1.0
 40
1.0
 40
1.0
 40
1.0
 10
12.0182535067
 20
69.7233755312
 30
0.0
 10
12.043663271
 20
69.7380517891
 30
0.0
 10
12.0976311179
 20
69.7633095082
 30
0.0
 10
12.2161114711
 20
69.7960865556
 30
0.0
 10
12.3820800253
 20
69.8005416632
 30
0.0
 10
12.5899002483
 20
69.7502466034
 30
0.0
 10
12.7252245
 20
69.6858919394
 30
0.0
 10
12.7932453908
 20
69.6466209482
 30
0.0
  0
SPLINE
  5
461
100
AcDbEntity
  8
0
100
AcDbSpline
 62
7
  6
CONTINUOUS
 70
0
 71
3
 72
12
 73
8
 74
0
 42
0.0000001
 43
0.0000001
 44
0.0000000001
 40
0.0
 40
0.0
 40
0.0
 40
0.0
 40
0.1081636651
 40
0.2183744687
 40
0.4513429509
 40
0.7104811987
 40
1.0
 40
1.0
 40
1.0
 40
1.0
 10
12.0182535067
 20
66.6125013219
 30
0.0
 10
12.043663271
 20
66.6271775798
 30
0.0
 10
12.097631118
 20
66.6524352989
 30
0.0
 10
12.2161114712
 20
66.6852123462
 30
0.0
 10
12.3820800254
 20
66.6896674538
 30
0.0
 10
12.5899002484
 20
66.6393723938
 30
0.0
 10
12.7252245002
 20
66.5750177296
 30
0.0
 10
12.7932453909
 20
66.5357467384
 30
0.0
  0
SPLINE
  5
462
100
AcDbEntity
  8
0
100
AcDbSpline
 62
7
  6
CONTINUOUS
 70
0
 71
3
 72
17
 73
13
 74
0
 42
0.0000001
 43
0.0000001
 44
0.0000000001
 40
0.0
 40
0.0
 40
0.0
 40
0.0
 40
0.1286945273
 40
0.2703193675
 40
0.4174683114
 40
0.5618081439
 40
0.6954640494
 40
0.8127159612
 40
0.864679472
 40
0.9125080404
 40
0.9571388361
 40
1.0
 40
1.0
 40
1.0
 40
1.0
 10
19.0539167184
 20
77.5225897796
 30
0.0
 10
19.094624414
 20
77.4990785429
 30
0.0
 10
19.173644801
 20
77.43824394
 30
0.0
 10
19.2747941526
 20
77.3231646643
 30
0.0
 10
19.3580261706
 20
77.1877362171
 30
0.0
 10
19.4164954054
 20
77.0430063784
 30
0.0
 10
19.4455112639
 20
76.9007082304
 30
0.0
 10
19.4428810677
 20
76.7885963729
 30
0.0
 10
19.4221528335
 20
76.7116866304
 30
0.0
 10
19.3990122105
 20
76.6638714018
 30
0.0
 10
19.3681090126
 20
76.6247398997
 30
0.0
 10
19.3423863141
 20
76.6050915736
 30
0.0
 10
19.3288276369
 20
76.5972632525
 30
0.0
  0
SPLINE
  5
463
100
AcDbEntity
  8
0
100
AcDbSpline
 62
7
  6
CONTINUOUS
 70
0
 71
3
 72
17
 73
13
 74
0
 42
0.0000001
 43
0.0000001
 44
0.0000000001
 40
0.0
 40
0.0
 40
0.0
 40
0.0
 40
0.1286945274
 40
0.2703193676
 40
0.4174683115
 40
0.561808144
 40
0.6954640495
 40
0.8127159612
 40
0.864679472
 40
0.9125080404
 40
0.9571388361
 40
1.0
 40
1.0
 40
1.0
 40
1.0
 10
19.0539167188
 20
74.4117155713
 30
0.0
 10
19.0946244144
 20
74.3882043344
 30
0.0
 10
19.1736448014
 20
74.3273697315
 30
0.0
 10
19.274794153
 20
74.2122904556
 30
0.0
 10
19.3580261709
 20
74.0768620084
 30
0.0
 10
19.4164954055
 20
73.9321321697
 30
0.0
 10
19.445511264
 20
73.7898340217
 30
0.0
 10
19.4428810676
 20
73.6777221642
 30
0.0
 10
19.4221528334
 20
73.6008124218
 30
0.0
 10
19.3990122103
 20
73.5529971933
 30
0.0
 10
19.3681090123
 20
73.5138656912
 30
0.0
 10
19.3423863138
 20
73.4942173652
 30
0.0
 10
19.3288276365
 20
73.4863890441
 30
0.0
  0
SPLINE
  5
464
100
AcDbEntity
  8
0
100
AcDbSpline
 62
7
  6
CONTINUOUS
 70
0
 71
3
 72
17
 73
13
 74
0
 42
0.0000001
 43
0.0000001
 44
0.0000000001
 40
0.0
 40
0.0
 40
0.0
 40
0.0
 40
0.1286945273
 40
0.2703193675
 40
0.4174683114
 40
0.561808144
 40
0.6954640495
 40
0.8127159612
 40
0.864679472
 40
0.9125080404
 40
0.9571388361
 40
1.0
 40
1.0
 40
1.0
 40
1.0
 10
19.0539167184
 20
71.3008413618
 30
0.0
 10
19.094624414
 20
71.277330125
 30
0.0
 10
19.1736448011
 20
71.2164955221
 30
0.0
 10
19.2747941527
 20
71.1014162463
 30
0.0
 10
19.3580261707
 20
70.9659877991
 30
0.0
 10
19.4164954054
 20
70.8212579603
 30
0.0
 10
19.4455112639
 20
70.6789598122
 30
0.0
 10
19.4428810677
 20
70.5668479547
 30
0.0
 10
19.4221528334
 20
70.4899382122
 30
0.0
 10
19.3990122103
 20
70.4421229837
 30
0.0
 10
19.3681090123
 20
70.4029914816
 30
0.0
 10
19.3423863138
 20
70.3833431556
 30
0.0
 10
19.3288276366
 20
70.3755148344
 30
0.0
  0
SPLINE
  5
465
100
AcDbEntity
  8
0
100
AcDbSpline
 62
7
  6
CONTINUOUS
 70
0
 71
3
 72
17
 73
13
 74
0
 42
0.0000001
 43
0.0000001
 44
0.0000000001
 40
0.0
 40
0.0
 40
0.0
 40
0.0
 40
0.1286945274
 40
0.2703193676
 40
0.4174683115
 40
0.5618081439
 40
0.6954640494
 40
0.8127159612
 40
0.864679472
 40
0.9125080404
 40
0.9571388361
 40
1.0
 40
1.0
 40
1.0
 40
1.0
 10
19.0539167189
 20
68.1899671518
 30
0.0
 10
19.0946244145
 20
68.166455915
 30
0.0
 10
19.1736448014
 20
68.1056213121
 30
0.0
 10
19.2747941529
 20
67.9905420363
 30
0.0
 10
19.3580261708
 20
67.8551135892
 30
0.0
 10
19.4164954054
 20
67.7103837506
 30
0.0
 10
19.4455112639
 20
67.5680856027
 30
0.0
 10
19.4428810677
 20
67.4559737452
 30
0.0
 10
19.4221528335
 20
67.3790640028
 30
0.0
 10
19.3990122105
 20
67.3312487742
 30
0.0
 10
19.3681090126
 20
67.2921172722
 30
0.0
 10
19.3423863141
 20
67.2724689461
 30
0.0
 10
19.3288276369
 20
67.2646406249
 30
0.0
  0
SPLINE
  5
466
100
AcDbEntity
  8
0
100
AcDbSpline
 62
7
  6
CONTINUOUS
 70
0
 71
3
 72
17
 73
13
 74
0
 42
0.0000001
 43
0.0000001
 44
0.0000000001
 40
0.0
 40
0.0
 40
0.0
 40
0.0
 40
0.1286945273
 40
0.2703193675
 40
0.4174683114
 40
0.5618081439
 40
0.6954640494
 40
0.8127159612
 40
0.864679472
 40
0.9125080404
 40
0.9571388361
 40
1.0
 40
1.0
 40
1.0
 40
1.0
 10
19.0539167188
 20
65.0790929421
 30
0.0
 10
19.0946244144
 20
65.0555817053
 30
0.0
 10
19.1736448014
 20
64.9947471025
 30
0.0
 10
19.2747941529
 20
64.8796678267
 30
0.0
 10
19.3580261708
 20
64.7442393796
 30
0.0
 10
19.4164954054
 20
64.599509541
 30
0.0
 10
19.4455112639
 20
64.457211393
 30
0.0
 10
19.4428810677
 20
64.3450995356
 30
0.0
 10
19.4221528335
 20
64.2681897932
 30
0.0
 10
19.3990122105
 20
64.2203745646
 30
0.0
 10
19.3681090126
 20
64.1812430625
 30
0.0
 10
19.3423863141
 20
64.1615947364
 30
0.0
 10
19.3288276369
 20
64.1537664153
 30
0.0
  0
SPLINE
  5
467
100
AcDbEntity
  8
0
100
AcDbSpline
 62
7
  6
CONTINUOUS
 70
0
 71
3
 72
17
 73
13
 74
0
 42
0.0000001
 43
0.0000001
 44
0.0000000001
 40
0.0
 40
0.0
 40
0.0
 40
0.0
 40
0.1286945274
 40
0.2703193675
 40
0.4174683115
 40
0.561808144
 40
0.6954640495
 40
0.8127159612
 40
0.864679472
 40
0.9125080404
 40
0.9571388361
 40
1.0
 40
1.0
 40
1.0
 40
1.0
 10
19.0539167184
 20
61.9682187342
 30
0.0
 10
19.094624414
 20
61.9447074974
 30
0.0
 10
19.1736448011
 20
61.8838728945
 30
0.0
 10
19.2747941528
 20
61.7687936187
 30
0.0
 10
19.3580261708
 20
61.6333651715
 30
0.0
 10
19.4164954055
 20
61.4886353327
 30
0.0
 10
19.445511264
 20
61.3463371846
 30
0.0
 10
19.4428810677
 20
61.2342253271
 30
0.0
 10
19.4221528334
 20
61.1573155846
 30
0.0
 10
19.3990122102
 20
61.109500356
 30
0.0
 10
19.3681090123
 20
61.070368854
 30
0.0
 10
19.3423863137
 20
61.0507205279
 30
0.0
 10
19.3288276365
 20
61.0428922068
 30
0.0
  0
SPLINE
  5
468
100
AcDbEntity
  8
0
100
AcDbSpline
 62
7
  6
CONTINUOUS
 70
0
 71
3
 72
17
 73
13
 74
0
 42
0.0000001
 43
0.0000001
 44
0.0000000001
 40
0.0
 40
0.0
 40
0.0
 40
0.0
 40
0.1286945274
 40
0.2703193676
 40
0.4174683115
 40
0.561808144
 40
0.6954640494
 40
0.8127159612
 40
0.864679472
 40
0.9125080404
 40
0.9571388361
 40
1.0
 40
1.0
 40
1.0
 40
1.0
 10
19.0539167189
 20
58.8573445243
 30
0.0
 10
19.0946244145
 20
58.8338332874
 30
0.0
 10
19.1736448015
 20
58.7729986845
 30
0.0
 10
19.274794153
 20
58.6579194087
 30
0.0
 10
19.3580261708
 20
58.5224909616
 30
0.0
 10
19.4164954055
 20
58.377761123
 30
0.0
 10
19.4455112639
 20
58.235462975
 30
0.0
 10
19.4428810677
 20
58.1233511176
 30
0.0
 10
19.4221528335
 20
58.0464413752
 30
0.0
 10
19.3990122104
 20
57.9986261466
 30
0.0
 10
19.3681090125
 20
57.9594946445
 30
0.0
 10
19.342386314
 20
57.9398463185
 30
0.0
 10
19.3288276368
 20
57.9320179973
 30
0.0
  0
SPLINE
  5
469
100
AcDbEntity
  8
0
100
AcDbSpline
 62
7
  6
CONTINUOUS
 70
0
 71
3
 72
17
 73
13
 74
0
 42
0.0000001
 43
0.0000001
 44
0.0000000001
 40
0.0
 40
0.0
 40
0.0
 40
0.0
 40
0.1286945274
 40
0.2703193676
 40
0.4174683115
 40
0.561808144
 40
0.6954640494
 40
0.8127159612
 40
0.864679472
 40
0.9125080404
 40
0.9571388361
 40
1.0
 40
1.0
 40
1.0
 40
1.0
 10
19.0539167194
 20
55.7464703142
 30
0.0
 10
19.0946244149
 20
55.7229590774
 30
0.0
 10
19.1736448018
 20
55.6621244745
 30
0.0
 10
19.2747941532
 20
55.5470451987
 30
0.0
 10
19.358026171
 20
55.4116167517
 30
0.0
 10
19.4164954055
 20
55.2668869132
 30
0.0
 10
19.4455112639
 20
55.1245887653
 30
0.0
 10
19.4428810677
 20
55.012476908
 30
0.0
 10
19.4221528335
 20
54.9355671656
 30
0.0
 10
19.3990122105
 20
54.887751937
 30
0.0
 10
19.3681090126
 20
54.848620435
 30
0.0
 10
19.3423863142
 20
54.8289721089
 30
0.0
 10
19.328827637
 20
54.8211437878
 30
0.0
  0
SPLINE
  5
46A
100
AcDbEntity
  8
0
100
AcDbSpline
 62
7
  6
CONTINUOUS
 70
0
 71
3
 72
17
 73
13
 74
0
 42
0.0000001
 43
0.0000001
 44
0.0000000001
 40
0.0
 40
0.0
 40
0.0
 40
0.0
 40
0.1286945274
 40
0.2703193677
 40
0.4174683116
 40
0.5618081441
 40
0.6954640495
 40
0.8127159613
 40
0.864679472
 40
0.9125080404
 40
0.9571388361
 40
1.0
 40
1.0
 40
1.0
 40
1.0
 10
19.0539167192
 20
52.6355961062
 30
0.0
 10
19.0946244148
 20
52.6120848693
 30
0.0
 10
19.1736448018
 20
52.5512502663
 30
0.0
 10
19.2747941532
 20
52.4361709905
 30
0.0
 10
19.3580261711
 20
52.3007425433
 30
0.0
 10
19.4164954056
 20
52.1560127046
 30
0.0
 10
19.445511264
 20
52.0137145567
 30
0.0
 10
19.4428810676
 20
51.9016026993
 30
0.0
 10
19.4221528333
 20
51.8246929569
 30
0.0
 10
19.3990122102
 20
51.7768777284
 30
0.0
 10
19.3681090122
 20
51.7377462264
 30
0.0
 10
19.3423863137
 20
51.7180979004
 30
0.0
 10
19.3288276365
 20
51.7102695793
 30
0.0
  0
SPLINE
  5
46B
100
AcDbEntity
  8
0
100
AcDbSpline
 62
7
  6
CONTINUOUS
 70
0
 71
3
 72
17
 73
13
 74
0
 42
0.0000001
 43
0.0000001
 44
0.0000000001
 40
0.0
 40
0.0
 40
0.0
 40
0.0
 40
0.1286945274
 40
0.2703193676
 40
0.4174683115
 40
0.561808144
 40
0.6954640495
 40
0.8127159612
 40
0.864679472
 40
0.9125080404
 40
0.9571388361
 40
1.0
 40
1.0
 40
1.0
 40
1.0
 10
19.0539167189
 20
49.5247218967
 30
0.0
 10
19.0946244145
 20
49.5012106599
 30
0.0
 10
19.1736448015
 20
49.4403760569
 30
0.0
 10
19.274794153
 20
49.3252967811
 30
0.0
 10
19.3580261709
 20
49.189868334
 30
0.0
 10
19.4164954055
 20
49.0451384953
 30
0.0
 10
19.4455112639
 20
48.9028403473
 30
0.0
 10
19.4428810677
 20
48.7907284899
 30
0.0
 10
19.4221528334
 20
48.7138187475
 30
0.0
 10
19.3990122103
 20
48.6660035189
 30
0.0
 10
19.3681090124
 20
48.6268720169
 30
0.0
 10
19.3423863139
 20
48.6072236909
 30
0.0
 10
19.3288276367
 20
48.5993953697
 30
0.0
  0
SPLINE
  5
46C
100
AcDbEntity
  8
0
100
AcDbSpline
 62
7
  6
CONTINUOUS
 70
0
 71
3
 72
11
 73
7
 74
0
 42
0.0000001
 43
0.0000001
 44
0.0000000001
 40
0.0
 40
0.0
 40
0.0
 40
0.0
 40
0.2895416726
 40
0.5491189706
 40
0.7822562689
 40
1.0
 40
1.0
 40
1.0
 40
1.0
 10
11.3083132029
 20
83.6006200505
 30
0.0
 10
11.2951572887
 20
83.5930245253
 30
0.0
 10
11.2712836546
 20
83.5765628392
 30
0.0
 10
11.2427260691
 20
83.5465821196
 30
0.0
 10
11.2246580733
 20
83.5133902801
 30
0.0
 10
11.2204629024
 20
83.489571985
 30
0.0
 10
11.2204629057
 20
83.4781478235
 30
0.0
  0
SPLINE
  5
46D
100
AcDbEntity
  8
0
100
AcDbSpline
 62
7
  6
CONTINUOUS
 70
0
 71
3
 72
12
 73
8
 74
0
 42
0.0000001
 43
0.0000001
 44
0.0000000001
 40
0.0
 40
0.0
 40
0.0
 40
0.0
 40
0.1081636651
 40
0.2183744687
 40
0.4513429509
 40
0.7104811987
 40
1.0
 40
1.0
 40
1.0
 40
1.0
 10
12.0182535069
 20
63.5016271123
 30
0.0
 10
12.0436632712
 20
63.5163033703
 30
0.0
 10
12.0976311181
 20
63.5415610893
 30
0.0
 10
12.2161114713
 20
63.5743381365
 30
0.0
 10
12.3820800256
 20
63.5787932441
 30
0.0
 10
12.5899002485
 20
63.5284981841
 30
0.0
 10
12.7252245002
 20
63.4641435199
 30
0.0
 10
12.793245391
 20
63.4248725287
 30
0.0
  0
SPLINE
  5
46E
100
AcDbEntity
  8
0
100
AcDbSpline
 62
7
  6
CONTINUOUS
 70
0
 71
3
 72
11
 73
7
 74
0
 42
0.0000001
 43
0.0000001
 44
0.0000000001
 40
0.0
 40
0.0
 40
0.0
 40
0.0
 40
0.2895418652
 40
0.5491192312
 40
0.7822564511
 40
1.0
 40
1.0
 40
1.0
 40
1.0
 10
11.3083139073
 20
51.601894963
 30
0.0
 10
11.295157895
 20
51.6094904945
 30
0.0
 10
11.2712840801
 20
51.6259522055
 30
0.0
 10
11.2427262636
 20
51.6559330136
 30
0.0
 10
11.2246581118
 20
51.689124981
 30
0.0
 10
11.2204629026
 20
51.7129433856
 30
0.0
 10
11.2204629054
 20
51.7243675962
 30
0.0
  0
SPLINE
  5
46F
100
AcDbEntity
  8
0
100
AcDbSpline
 62
7
  6
CONTINUOUS
 70
0
 71
3
 72
12
 73
8
 74
0
 42
0.0000001
 43
0.0000001
 44
0.0000000001
 40
0.0
 40
0.0
 40
0.0
 40
0.0
 40
0.1081636651
 40
0.2183744687
 40
0.4513429509
 40
0.7104811987
 40
1.0
 40
1.0
 40
1.0
 40
1.0
 10
12.0182535071
 20
60.3907529027
 30
0.0
 10
12.0436632714
 20
60.4054291606
 30
0.0
 10
12.0976311183
 20
60.4306868796
 30
0.0
 10
12.2161114715
 20
60.4634639268
 30
0.0
 10
12.3820800257
 20
60.4679190343
 30
0.0
 10
12.5899002486
 20
60.4176239743
 30
0.0
 10
12.7252245003
 20
60.3532693101
 30
0.0
 10
12.793245391
 20
60.313998319
 30
0.0
  0
SPLINE
  5
470
100
AcDbEntity
  8
0
100
AcDbSpline
 62
7
  6
CONTINUOUS
 70
0
 71
3
 72
11
 73
7
 74
0
 42
0.0000001
 43
0.0000001
 44
0.0000000001
 40
0.0
 40
0.0
 40
0.0
 40
0.0
 40
0.289661552
 40
0.5491335424
 40
0.7822507569
 40
1.0
 40
1.0
 40
1.0
 40
1.0
 10
13.3522828424
 20
49.1971133795
 30
0.0
 10
13.339121012
 20
49.2047121939
 30
0.0
 10
13.3152388129
 20
49.2211659243
 30
0.0
 10
13.2866941879
 20
49.2511622091
 30
0.0
 10
13.2686316615
 20
49.2843466453
 30
0.0
 10
13.2644172994
 20
49.3081618192
 30
0.0
 10
13.2644149895
 20
49.3195866294
 30
0.0
  0
SPLINE
  5
471
100
AcDbEntity
  8
0
100
AcDbSpline
 62
7
  6
CONTINUOUS
 70
0
 71
3
 72
11
 73
7
 74
0
 42
0.0000001
 43
0.0000001
 44
0.0000000001
 40
0.0
 40
0.0
 40
0.0
 40
0.0
 40
0.2372522658
 40
0.4999993256
 40
0.7627467536
 40
1.0
 40
1.0
 40
1.0
 40
1.0
 10
14.9145816321
 20
48.5400846113
 30
0.0
 10
14.8844635105
 20
48.5226960096
 30
0.0
 10
14.814428469
 20
48.4973177815
 30
0.0
 10
14.7024505996
 20
48.4851844244
 30
0.0
 10
14.5904724988
 20
48.4973169877
 30
0.0
 10
14.5204370696
 20
48.5226946533
 30
0.0
 10
14.4903186229
 20
48.5400829793
 30
0.0
  0
SPLINE
  5
472
100
AcDbEntity
  8
0
100
AcDbSpline
 62
7
  6
CONTINUOUS
 70
0
 71
3
 72
11
 73
7
 74
0
 42
0.0000001
 43
0.0000001
 44
0.0000000001
 40
0.0
 40
0.0
 40
0.0
 40
0.0
 40
0.2372531816
 40
0.5000006936
 40
0.7627478297
 40
1.0
 40
1.0
 40
1.0
 40
1.0
 10
15.9752391545
 20
48.907505369
 30
0.0
 10
15.9451207082
 20
48.9248938686
 30
0.0
 10
15.8750851342
 20
48.9502717988
 30
0.0
 10
15.7631067243
 20
48.9624045608
 30
0.0
 10
15.6511285221
 20
48.9502712636
 30
0.0
 10
15.5810932766
 20
48.9248929918
 30
0.0
 10
15.5509750842
 20
48.907504349
 30
0.0
  0
SPLINE
  5
473
100
AcDbEntity
  8
0
100
AcDbSpline
 62
7
  6
CONTINUOUS
 70
0
 71
3
 72
11
 73
7
 74
0
 42
0.0000001
 43
0.0000001
 44
0.0000000001
 40
0.0
 40
0.0
 40
0.0
 40
0.0
 40
0.237242873
 40
0.4999994737
 40
0.7627563608
 40
1.0
 40
1.0
 40
1.0
 40
1.0
 10
18.3794122178
 20
47.5194868034
 30
0.0
 10
18.3593342208
 20
47.5078948355
 30
0.0
 10
18.3126429214
 20
47.4909814901
 30
0.0
 10
18.2379910846
 20
47.4828773897
 30
0.0
 10
18.1633391351
 20
47.4909811492
 30
0.0
 10
18.116647652
 20
47.5078942626
 30
0.0
 10
18.0965695067
 20
47.5194861232
 30
0.0
  0
SPLINE
  5
474
100
AcDbEntity
  8
0
100
AcDbSpline
 62
7
  6
CONTINUOUS
 70
0
 71
3
 72
11
 73
7
 74
0
 42
0.0000001
 43
0.0000001
 44
0.0000000001
 40
0.0
 40
0.0
 40
0.0
 40
0.0
 40
0.2372522641
 40
0.4999993219
 40
0.7627467511
 40
1.0
 40
1.0
 40
1.0
 40
1.0
 10
20.0764737921
 20
46.7846544659
 30
0.0
 10
20.0463556722
 20
46.7672658651
 30
0.0
 10
19.9763206351
 20
46.7418876377
 30
0.0
 10
19.8643427718
 20
46.7297542793
 30
0.0
 10
19.752364676
 20
46.7418868383
 30
0.0
 10
19.6823292483
 20
46.7672644997
 30
0.0
 10
19.6522108027
 20
46.784652825
 30
0.0
  0
SPLINE
  5
475
100
AcDbEntity
  8
0
100
AcDbSpline
 62
7
  6
CONTINUOUS
 70
0
 71
3
 72
9
 73
5
 74
0
 42
0.0000001
 43
0.0000001
 44
0.0000000001
 40
0.0
 40
0.0
 40
0.0
 40
0.0
 40
0.4793952133
 40
1.0
 40
1.0
 40
1.0
 40
1.0
 10
12.793245391
 20
54.0922499012
 30
0.0
 10
12.8786543518
 20
54.0429401302
 30
0.0
 10
13.0466885391
 20
53.9221812074
 30
0.0
 10
13.1936290801
 20
53.7771232635
 30
0.0
 10
13.2646927282
 20
53.6969976003
 30
0.0
  0
SPLINE
  5
476
100
AcDbEntity
  8
0
100
AcDbSpline
 62
7
  6
CONTINUOUS
 70
0
 71
3
 72
10
 73
6
 74
0
 42
0.0000001
 43
0.0000001
 44
0.0000000001
 40
0.0
 40
0.0
 40
0.0
 40
0.0
 40
0.229647907
 40
0.4755534852
 40
1.0
 40
1.0
 40
1.0
 40
1.0
 10
12.793245391
 20
82.0901177838
 30
0.0
 10
12.8568287276
 20
82.0534087578
 30
0.0
 10
12.9829210323
 20
81.9674508712
 30
0.0
 10
13.223325482
 20
81.7559441792
 30
0.0
 10
13.3803096882
 20
81.5631468261
 30
0.0
 10
13.4736638573
 20
81.4238722912
 30
0.0
  0
SPLINE
  5
477
100
AcDbEntity
  8
0
100
AcDbSpline
 62
7
  6
CONTINUOUS
 70
0
 71
3
 72
9
 73
5
 74
0
 42
0.0000001
 43
0.0000001
 44
0.0000000001
 40
0.0
 40
0.0
 40
0.0
 40
0.0
 40
0.4793952132
 40
1.0
 40
1.0
 40
1.0
 40
1.0
 10
12.7932453908
 20
78.9792435757
 30
0.0
 10
12.8786543516
 20
78.9299338048
 30
0.0
 10
13.0466885392
 20
78.809174882
 30
0.0
 10
13.1936290802
 20
78.6641169379
 30
0.0
 10
13.2646927282
 20
78.5839912746
 30
0.0
  0
SPLINE
  5
478
100
AcDbEntity
  8
0
100
AcDbSpline
 62
7
  6
CONTINUOUS
 70
0
 71
3
 72
9
 73
5
 74
0
 42
0.0000001
 43
0.0000001
 44
0.0000000001
 40
0.0
 40
0.0
 40
0.0
 40
0.0
 40
0.4793952133
 40
1.0
 40
1.0
 40
1.0
 40
1.0
 10
12.793245391
 20
75.868369366
 30
0.0
 10
12.8786543518
 20
75.819059595
 30
0.0
 10
13.0466885391
 20
75.6983006721
 30
0.0
 10
13.1936290801
 20
75.5532427282
 30
0.0
 10
13.2646927282
 20
75.473117065
 30
0.0
  0
SPLINE
  5
479
100
AcDbEntity
  8
0
100
AcDbSpline
 62
7
  6
CONTINUOUS
 70
0
 71
3
 72
9
 73
5
 74
0
 42
0.0000001
 43
0.0000001
 44
0.0000000001
 40
0.0
 40
0.0
 40
0.0
 40
0.0
 40
0.4793952133
 40
1.0
 40
1.0
 40
1.0
 40
1.0
 10
12.793245391
 20
72.7574951563
 30
0.0
 10
12.8786543518
 20
72.7081853853
 30
0.0
 10
13.0466885391
 20
72.5874264624
 30
0.0
 10
13.1936290801
 20
72.4423685186
 30
0.0
 10
13.2646927282
 20
72.3622428554
 30
0.0
  0
SPLINE
  5
47A
100
AcDbEntity
  8
0
100
AcDbSpline
 62
7
  6
CONTINUOUS
 70
0
 71
3
 72
9
 73
5
 74
0
 42
0.0000001
 43
0.0000001
 44
0.0000000001
 40
0.0
 40
0.0
 40
0.0
 40
0.0
 40
0.4793952135
 40
1.0
 40
1.0
 40
1.0
 40
1.0
 10
12.7932453908
 20
69.6466209482
 30
0.0
 10
12.8786543517
 20
69.5973111771
 30
0.0
 10
13.0466885389
 20
69.4765522532
 30
0.0
 10
13.1936290801
 20
69.331494309
 30
0.0
 10
13.2646927282
 20
69.2513686456
 30
0.0
  0
SPLINE
  5
47B
100
AcDbEntity
  8
0
100
AcDbSpline
 62
7
  6
CONTINUOUS
 70
0
 71
3
 72
9
 73
5
 74
0
 42
0.0000001
 43
0.0000001
 44
0.0000000001
 40
0.0
 40
0.0
 40
0.0
 40
0.0
 40
0.4793952132
 40
1.0
 40
1.0
 40
1.0
 40
1.0
 10
12.7932453909
 20
66.5357467384
 30
0.0
 10
12.8786543517
 20
66.4864369675
 30
0.0
 10
13.0466885392
 20
66.3656780447
 30
0.0
 10
13.1936290802
 20
66.2206201007
 30
0.0
 10
13.2646927282
 20
66.1404944374
 30
0.0
  0
SPLINE
  5
47C
100
AcDbEntity
  8
0
100
AcDbSpline
 62
7
  6
CONTINUOUS
 70
0
 71
3
 72
9
 73
5
 74
0
 42
0.0000001
 43
0.0000001
 44
0.0000000001
 40
0.0
 40
0.0
 40
0.0
 40
0.0
 40
0.4793952133
 40
1.0
 40
1.0
 40
1.0
 40
1.0
 10
12.793245391
 20
63.4248725287
 30
0.0
 10
12.8786543518
 20
63.3755627578
 30
0.0
 10
13.0466885391
 20
63.2548038349
 30
0.0
 10
13.1936290801
 20
63.109745891
 30
0.0
 10
13.2646927282
 20
63.0296202278
 30
0.0
  0
SPLINE
  5
47D
100
AcDbEntity
  8
0
100
AcDbSpline
 62
7
  6
CONTINUOUS
 70
0
 71
3
 72
9
 73
5
 74
0
 42
0.0000001
 43
0.0000001
 44
0.0000000001
 40
0.0
 40
0.0
 40
0.0
 40
0.0
 40
0.4793952133
 40
1.0
 40
1.0
 40
1.0
 40
1.0
 10
12.793245391
 20
60.313998319
 30
0.0
 10
12.8786543518
 20
60.264688548
 30
0.0
 10
13.0466885391
 20
60.1439296251
 30
0.0
 10
13.1936290801
 20
59.9988716813
 30
0.0
 10
13.2646927282
 20
59.9187460181
 30
0.0
  0
SPLINE
  5
47E
100
AcDbEntity
  8
0
100
AcDbSpline
 62
7
  6
CONTINUOUS
 70
0
 71
3
 72
9
 73
5
 74
0
 42
0.0000001
 43
0.0000001
 44
0.0000000001
 40
0.0
 40
0.0
 40
0.0
 40
0.0
 40
0.4793952132
 40
1.0
 40
1.0
 40
1.0
 40
1.0
 10
12.7932453911
 20
57.2031241108
 30
0.0
 10
12.8786543518
 20
57.1538143398
 30
0.0
 10
13.0466885393
 20
57.0330554171
 30
0.0
 10
13.1936290802
 20
56.8879974731
 30
0.0
 10
13.2646927282
 20
56.8078718099
 30
0.0
  0
SPLINE
  5
47F
100
AcDbEntity
  8
0
100
AcDbSpline
 62
7
  6
CONTINUOUS
 70
0
 71
3
 72
12
 73
8
 74
0
 42
0.0000001
 43
0.0000001
 44
0.0000000001
 40
0.0
 40
0.0
 40
0.0
 40
0.0
 40
0.1081636651
 40
0.2183744688
 40
0.4513429509
 40
0.7104811987
 40
1.0
 40
1.0
 40
1.0
 40
1.0
 10
12.0182535068
 20
57.2798786939
 30
0.0
 10
12.0436632711
 20
57.2945549519
 30
0.0
 10
12.0976311181
 20
57.3198126709
 30
0.0
 10
12.2161114713
 20
57.3525897183
 30
0.0
 10
12.3820800255
 20
57.3570448259
 30
0.0
 10
12.5899002486
 20
57.306749766
 30
0.0
 10
12.7252245004
 20
57.2423951019
 30
0.0
 10
12.7932453911
 20
57.2031241108
 30
0.0
  0
SPLINE
  5
480
100
AcDbEntity
  8
0
100
AcDbSpline
 62
7
  6
CONTINUOUS
 70
0
 71
3
 72
12
 73
8
 74
0
 42
0.0000001
 43
0.0000001
 44
0.0000000001
 40
0.0
 40
0.0
 40
0.0
 40
0.0
 40
0.1081636651
 40
0.2183744687
 40
0.4513429509
 40
0.7104811987
 40
1.0
 40
1.0
 40
1.0
 40
1.0
 10
12.0182535068
 20
54.1690044847
 30
0.0
 10
12.0436632711
 20
54.1836807427
 30
0.0
 10
12.097631118
 20
54.2089384617
 30
0.0
 10
12.2161114713
 20
54.241715509
 30
0.0
 10
12.3820800255
 20
54.2461706166
 30
0.0
 10
12.5899002485
 20
54.1958755566
 30
0.0
 10
12.7252245002
 20
54.1315208923
 30
0.0
 10
12.793245391
 20
54.0922499012
 30
0.0
  0
SPLINE
  5
481
100
AcDbEntity
  8
0
100
AcDbSpline
 62
7
  6
CONTINUOUS
 70
0
 71
3
 72
20
 73
16
 74
0
 42
0.0000001
 43
0.0000001
 44
0.0000000001
 40
0.0
 40
0.0
 40
0.0
 40
0.0
 40
0.0623910913
 40
0.1288083526
 40
0.2703011622
 40
0.4173628091
 40
0.561615398
 40
0.6302519199
 40
0.6953787476
 40
0.7563612971
 40
0.8128307481
 40
0.8647636093
 40
0.9125656046
 40
0.9571671253
 40
1.0
 40
1.0
 40
1.0
 40
1.0
 10
12.7932453911
 20
67.1154634537
 30
0.0
 10
12.7375820926
 20
67.147599947
 30
0.0
 10
12.6269532819
 20
67.2215639153
 30
0.0
 10
12.4135599859
 20
67.4011032376
 30
0.0
 10
12.1706278306
 20
67.6775443489
 30
0.0
 10
11.9361527137
 20
68.0589553666
 30
0.0
 10
11.7963263195
 20
68.404727609
 30
0.0
 10
11.7273086564
 20
68.6831040035
 30
0.0
 10
11.69912188
 20
68.8821428827
 30
0.0
 10
11.694333711
 20
69.0706449635
 30
0.0
 10
11.7131184964
 20
69.2447302291
 30
0.0
 10
11.7552754479
 20
69.4008311758
 30
0.0
 10
11.8204433944
 20
69.5356247944
 30
0.0
 10
11.9075930583
 20
69.6458754158
 30
0.0
 10
11.9800434856
 20
69.7013060574
 30
0.0
 10
12.0182535067
 20
69.7233755312
 30
0.0
  0
SPLINE
  5
482
100
AcDbEntity
  8
0
100
AcDbSpline
 62
7
  6
CONTINUOUS
 70
0
 71
3
 72
20
 73
16
 74
0
 42
0.0000001
 43
0.0000001
 44
0.0000000001
 40
0.0
 40
0.0
 40
0.0
 40
0.0
 40
0.0623910913
 40
0.1288083526
 40
0.2703011622
 40
0.4173628091
 40
0.561615398
 40
0.6302519199
 40
0.6953787476
 40
0.7563612971
 40
0.8128307481
 40
0.8647636093
 40
0.9125656046
 40
0.9571671253
 40
1.0
 40
1.0
 40
1.0
 40
1.0
 10
12.793245391
 20
64.0045892456
 30
0.0
 10
12.7375820925
 20
64.0367257389
 30
0.0
 10
12.6269532818
 20
64.1106897072
 30
0.0
 10
12.4135599859
 20
64.2902290292
 30
0.0
 10
12.1706278306
 20
64.5666701404
 30
0.0
 10
11.9361527137
 20
64.948081158
 30
0.0
 10
11.7963263196
 20
65.2938534002
 30
0.0
 10
11.7273086564
 20
65.5722297946
 30
0.0
 10
11.69912188
 20
65.7712686738
 30
0.0
 10
11.694333711
 20
65.9597707545
 30
0.0
 10
11.7131184964
 20
66.1338560201
 30
0.0
 10
11.7552754479
 20
66.2899569667
 30
0.0
 10
11.8204433945
 20
66.4247505853
 30
0.0
 10
11.9075930583
 20
66.5350012065
 30
0.0
 10
11.9800434856
 20
66.5904318482
 30
0.0
 10
12.0182535067
 20
66.6125013219
 30
0.0
  0
SPLINE
  5
483
100
AcDbEntity
  8
0
100
AcDbSpline
 62
7
  6
CONTINUOUS
 70
0
 71
3
 72
20
 73
16
 74
0
 42
0.0000001
 43
0.0000001
 44
0.0000000001
 40
0.0
 40
0.0
 40
0.0
 40
0.0
 40
0.0623910913
 40
0.1288083526
 40
0.2703011622
 40
0.4173628091
 40
0.561615398
 40
0.6302519199
 40
0.6953787476
 40
0.7563612971
 40
0.8128307481
 40
0.8647636093
 40
0.9125656046
 40
0.9571671253
 40
1.0
 40
1.0
 40
1.0
 40
1.0
 10
12.793245391
 20
60.893715036
 30
0.0
 10
12.7375820925
 20
60.9258515293
 30
0.0
 10
12.6269532818
 20
60.9998154975
 30
0.0
 10
12.4135599858
 20
61.1793548195
 30
0.0
 10
12.1706278305
 20
61.4557959308
 30
0.0
 10
11.9361527137
 20
61.8372069484
 30
0.0
 10
11.7963263195
 20
62.1829791907
 30
0.0
 10
11.7273086563
 20
62.4613555851
 30
0.0
 10
11.69912188
 20
62.6603944643
 30
0.0
 10
11.694333711
 20
62.8488965451
 30
0.0
 10
11.7131184964
 20
63.0229818106
 30
0.0
 10
11.755275448
 20
63.1790827572
 30
0.0
 10
11.8204433946
 20
63.3138763758
 30
0.0
 10
11.9075930585
 20
63.424126997
 30
0.0
 10
11.9800434858
 20
63.4795576386
 30
0.0
 10
12.0182535069
 20
63.5016271123
 30
0.0
  0
SPLINE
  5
484
100
AcDbEntity
  8
0
100
AcDbSpline
 62
7
  6
CONTINUOUS
 70
0
 71
3
 72
20
 73
16
 74
0
 42
0.0000001
 43
0.0000001
 44
0.0000000001
 40
0.0
 40
0.0
 40
0.0
 40
0.0
 40
0.0623910913
 40
0.1288083526
 40
0.2703011622
 40
0.4173628091
 40
0.5616153981
 40
0.6302519199
 40
0.6953787477
 40
0.7563612971
 40
0.8128307481
 40
0.8647636093
 40
0.9125656046
 40
0.9571671253
 40
1.0
 40
1.0
 40
1.0
 40
1.0
 10
12.793245391
 20
57.7828408262
 30
0.0
 10
12.7375820925
 20
57.8149773195
 30
0.0
 10
12.6269532818
 20
57.8889412878
 30
0.0
 10
12.4135599858
 20
58.0684806098
 30
0.0
 10
12.1706278305
 20
58.3449217211
 30
0.0
 10
11.9361527136
 20
58.7263327388
 30
0.0
 10
11.7963263194
 20
59.0721049811
 30
0.0
 10
11.7273086563
 20
59.3504813756
 30
0.0
 10
11.6991218799
 20
59.5495202548
 30
0.0
 10
11.694333711
 20
59.7380223355
 30
0.0
 10
11.7131184965
 20
59.9121076011
 30
0.0
 10
11.7552754481
 20
60.0682085477
 30
0.0
 10
11.8204433947
 20
60.2030021662
 30
0.0
 10
11.9075930586
 20
60.3132527874
 30
0.0
 10
11.980043486
 20
60.368683429
 30
0.0
 10
12.0182535071
 20
60.3907529027
 30
0.0
  0
SPLINE
  5
485
100
AcDbEntity
  8
0
100
AcDbSpline
 62
7
  6
CONTINUOUS
 70
0
 71
3
 72
11
 73
7
 74
0
 42
0.0000001
 43
0.0000001
 44
0.0000000001
 40
0.0
 40
0.0
 40
0.0
 40
0.0
 40
0.2372534942
 40
0.500001013
 40
0.7627479812
 40
1.0
 40
1.0
 40
1.0
 40
1.0
 10
19.652210803
 20
78.5384330519
 30
0.0
 10
19.6823292798
 20
78.5210447087
 30
0.0
 10
19.7523647605
 20
78.4956670412
 30
0.0
 10
19.8643428951
 20
78.4835345062
 30
0.0
 10
19.9763207196
 20
78.4956678887
 30
0.0
 10
20.0463557036
 20
78.52104611
 30
0.0
 10
20.0764737924
 20
78.5384346928
 30
0.0
  0
SPLINE
  5
486
100
AcDbEntity
  8
0
100
AcDbSpline
 62
7
  6
CONTINUOUS
 70
0
 71
3
 72
20
 73
16
 74
0
 42
0.0000001
 43
0.0000001
 44
0.0000000001
 40
0.0
 40
0.0
 40
0.0
 40
0.0
 40
0.0623910913
 40
0.1288083527
 40
0.2703011622
 40
0.4173628091
 40
0.5616153981
 40
0.6302519199
 40
0.6953787477
 40
0.7563612971
 40
0.8128307481
 40
0.8647636093
 40
0.9125656046
 40
0.9571671253
 40
1.0
 40
1.0
 40
1.0
 40
1.0
 10
12.7932453908
 20
54.6719666166
 30
0.0
 10
12.7375820923
 20
54.7041031099
 30
0.0
 10
12.6269532816
 20
54.7780670783
 30
0.0
 10
12.4135599857
 20
54.9576064005
 30
0.0
 10
12.1706278304
 20
55.2340475119
 30
0.0
 10
11.9361527136
 20
55.6154585296
 30
0.0
 10
11.7963263194
 20
55.961230772
 30
0.0
 10
11.7273086563
 20
56.2396071665
 30
0.0
 10
11.6991218799
 20
56.4386460457
 30
0.0
 10
11.694333711
 20
56.6271481264
 30
0.0
 10
11.7131184964
 20
56.801233392
 30
0.0
 10
11.755275448
 20
56.9573343386
 30
0.0
 10
11.8204433945
 20
57.0921279572
 30
0.0
 10
11.9075930584
 20
57.2023785786
 30
0.0
 10
11.9800434857
 20
57.2578092202
 30
0.0
 10
12.0182535068
 20
57.2798786939
 30
0.0
  0
SPLINE
  5
487
100
AcDbEntity
  8
0
100
AcDbSpline
 62
7
  6
CONTINUOUS
 70
0
 71
3
 72
11
 73
7
 74
0
 42
0.0000001
 43
0.0000001
 44
0.0000000001
 40
0.0
 40
0.0
 40
0.0
 40
0.0
 40
0.2372436391
 40
0.500000526
 40
0.7627571267
 40
1.0
 40
1.0
 40
1.0
 40
1.0
 10
18.096569506
 20
79.273266351
 30
0.0
 10
18.1166476514
 20
79.2616744903
 30
0.0
 10
18.1633391345
 20
79.244761377
 30
0.0
 10
18.2379910841
 20
79.2366576174
 30
0.0
 10
18.312642921
 20
79.2447617175
 30
0.0
 10
18.3593342206
 20
79.2616750626
 30
0.0
 10
18.3794122176
 20
79.2732670306
 30
0.0
  0
SPLINE
  5
488
100
AcDbEntity
  8
0
100
AcDbSpline
 62
7
  6
CONTINUOUS
 70
0
 71
3
 72
11
 73
7
 74
0
 42
0.0000001
 43
0.0000001
 44
0.0000000001
 40
0.0
 40
0.0
 40
0.0
 40
0.0
 40
0.2177286216
 40
0.4508684125
 40
0.7104562937
 40
1.0
 40
1.0
 40
1.0
 40
1.0
 10
19.3288276365
 20
61.0428922068
 30
0.0
 10
19.3106904534
 20
61.0324204115
 30
0.0
 10
19.2690256741
 20
61.0172561277
 30
0.0
 10
19.1997651087
 20
61.0155130099
 30
0.0
 10
19.1259821129
 20
61.0333661267
 30
0.0
 10
19.0779583539
 20
61.0561805122
 30
0.0
 10
19.0538408965
 20
61.0701098502
 30
0.0
  0
SPLINE
  5
489
100
AcDbEntity
  8
0
100
AcDbSpline
 62
7
  6
CONTINUOUS
 70
0
 71
3
 72
11
 73
7
 74
0
 42
0.0000001
 43
0.0000001
 44
0.0000000001
 40
0.0
 40
0.0
 40
0.0
 40
0.0
 40
0.2372524154
 40
0.499999641
 40
0.7627470633
 40
1.0
 40
1.0
 40
1.0
 40
1.0
 10
15.5509750849
 20
80.6612845762
 30
0.0
 10
15.5810933083
 20
80.6786732368
 30
0.0
 10
15.6511286066
 20
80.7040515145
 30
0.0
 10
15.763106847
 20
80.7161847878
 30
0.0
 10
15.8750852176
 20
80.7040520018
 30
0.0
 10
15.9451207384
 20
80.6786740782
 30
0.0
 10
15.9752391534
 20
80.6612855967
 30
0.0
  0
SPLINE
  5
48A
100
AcDbEntity
  8
0
100
AcDbSpline
 62
7
  6
CONTINUOUS
 70
0
 71
3
 72
11
 73
7
 74
0
 42
0.0000001
 43
0.0000001
 44
0.0000000001
 40
0.0
 40
0.0
 40
0.0
 40
0.0
 40
0.2372534924
 40
0.5000010099
 40
0.7627479797
 40
1.0
 40
1.0
 40
1.0
 40
1.0
 10
14.4903186231
 20
80.2938632063
 30
0.0
 10
14.5204371012
 20
80.2764748621
 30
0.0
 10
14.5904725843
 20
80.2510971913
 30
0.0
 10
14.7024507245
 20
80.2389646521
 30
0.0
 10
14.8144285556
 20
80.2510980336
 30
0.0
 10
14.8844635441
 20
80.2764762557
 30
0.0
 10
14.9145816347
 20
80.2938648396
 30
0.0
  0
SPLINE
  5
48B
100
AcDbEntity
  8
0
100
AcDbSpline
 62
7
  6
CONTINUOUS
 70
0
 71
3
 72
10
 73
6
 74
0
 42
0.0000001
 43
0.0000001
 44
0.0000000001
 40
0.0
 40
0.0
 40
0.0
 40
0.0
 40
0.2270144313
 40
0.5955250913
 40
1.0
 40
1.0
 40
1.0
 40
1.0
 10
13.2646927282
 20
73.1880959952
 30
0.0
 10
13.2269539462
 20
73.1891207811
 30
0.0
 10
13.1280791939
 20
73.199853317
 30
0.0
 10
12.9674806181
 20
73.2468062687
 30
0.0
 10
12.8514985051
 20
73.3035801829
 30
0.0
 10
12.793245391
 20
73.3372118732
 30
0.0
  0
SPLINE
  5
48C
100
AcDbEntity
  8
0
100
AcDbSpline
 62
7
  6
CONTINUOUS
 70
0
 71
3
 72
11
 73
7
 74
0
 42
0.0000001
 43
0.0000001
 44
0.0000000001
 40
0.0
 40
0.0
 40
0.0
 40
0.0
 40
0.2896615482
 40
0.5491335429
 40
0.7822507587
 40
1.0
 40
1.0
 40
1.0
 40
1.0
 10
13.6480554336
 20
82.0048553497
 30
0.0
 10
13.6612172637
 20
81.9972565355
 30
0.0
 10
13.6850994622
 20
81.9808028045
 30
0.0
 10
13.7136440867
 20
81.9508065197
 30
0.0
 10
13.7317066129
 20
81.9176220835
 30
0.0
 10
13.7359209744
 20
81.8938069098
 30
0.0
 10
13.7359232845
 20
81.8823820998
 30
0.0
  0
SPLINE
  5
48D
100
AcDbEntity
  8
0
100
AcDbSpline
 62
7
  6
CONTINUOUS
 70
0
 71
3
 72
11
 73
7
 74
0
 42
0.0000001
 43
0.0000001
 44
0.0000000001
 40
0.0
 40
0.0
 40
0.0
 40
0.0
 40
0.2177286216
 40
0.4508684125
 40
0.7104562937
 40
1.0
 40
1.0
 40
1.0
 40
1.0
 10
19.3288276369
 20
64.1537664153
 30
0.0
 10
19.3106904539
 20
64.1432946199
 30
0.0
 10
19.2690256745
 20
64.128130336
 30
0.0
 10
19.1997651089
 20
64.1263872181
 30
0.0
 10
19.1259821129
 20
64.1442403349
 30
0.0
 10
19.0779583538
 20
64.1670547204
 30
0.0
 10
19.0538408964
 20
64.1809840585
 30
0.0
  0
SPLINE
  5
48E
100
AcDbEntity
  8
0
100
AcDbSpline
 62
7
  6
CONTINUOUS
 70
0
 71
3
 72
10
 73
6
 74
0
 42
0.0000001
 43
0.0000001
 44
0.0000000001
 40
0.0
 40
0.0
 40
0.0
 40
0.0
 40
0.2270144313
 40
0.5955250912
 40
1.0
 40
1.0
 40
1.0
 40
1.0
 10
13.2646927282
 20
54.5228507386
 30
0.0
 10
13.2269539463
 20
54.5238755245
 30
0.0
 10
13.1280791939
 20
54.5346080602
 30
0.0
 10
12.967480618
 20
54.581561012
 30
0.0
 10
12.851498505
 20
54.6383349263
 30
0.0
 10
12.7932453908
 20
54.6719666166
 30
0.0
  0
SPLINE
  5
48F
100
AcDbEntity
  8
0
100
AcDbSpline
 62
7
  6
CONTINUOUS
 70
0
 71
3
 72
10
 73
6
 74
0
 42
0.0000001
 43
0.0000001
 44
0.0000000001
 40
0.0
 40
0.0
 40
0.0
 40
0.0
 40
0.2270144313
 40
0.5955250913
 40
1.0
 40
1.0
 40
1.0
 40
1.0
 10
13.2646927282
 20
70.0772217856
 30
0.0
 10
13.2269539462
 20
70.0782465715
 30
0.0
 10
13.1280791939
 20
70.0889791073
 30
0.0
 10
12.9674806181
 20
70.135932059
 30
0.0
 10
12.8514985051
 20
70.1927059732
 30
0.0
 10
12.793245391
 20
70.2263376635
 30
0.0
  0
SPLINE
  5
490
100
AcDbEntity
  8
0
100
AcDbSpline
 62
7
  6
CONTINUOUS
 70
0
 71
3
 72
10
 73
6
 74
0
 42
0.0000001
 43
0.0000001
 44
0.0000000001
 40
0.0
 40
0.0
 40
0.0
 40
0.0
 40
0.2270144313
 40
0.5955250913
 40
1.0
 40
1.0
 40
1.0
 40
1.0
 10
13.2646927282
 20
51.4119765305
 30
0.0
 10
13.2269539462
 20
51.4130013164
 30
0.0
 10
13.1280791939
 20
51.4237338522
 30
0.0
 10
12.9674806181
 20
51.4706868039
 30
0.0
 10
12.8514985051
 20
51.5274607181
 30
0.0
 10
12.793245391
 20
51.5610924084
 30
0.0
  0
SPLINE
  5
491
100
AcDbEntity
  8
0
100
AcDbSpline
 62
7
  6
CONTINUOUS
 70
0
 71
3
 72
11
 73
7
 74
0
 42
0.0000001
 43
0.0000001
 44
0.0000000001
 40
0.0
 40
0.0
 40
0.0
 40
0.0
 40
0.2177492431
 40
0.4508664575
 40
0.7103384479
 40
1.0
 40
1.0
 40
1.0
 40
1.0
 10
13.2644149898
 20
81.0733668565
 30
0.0
 10
13.2644172996
 20
81.0619420463
 30
0.0
 10
13.2686316617
 20
81.0381268723
 30
0.0
 10
13.2866941882
 20
81.0049424361
 30
0.0
 10
13.3152388131
 20
80.9749461513
 30
0.0
 10
13.3391210123
 20
80.9584924209
 30
0.0
 10
13.3522828427
 20
80.9508936065
 30
0.0
  0
SPLINE
  5
492
100
AcDbEntity
  8
0
100
AcDbSpline
 62
7
  6
CONTINUOUS
 70
0
 71
3
 72
10
 73
6
 74
0
 42
0.0000001
 43
0.0000001
 44
0.0000000001
 40
0.0
 40
0.0
 40
0.0
 40
0.0
 40
0.2270144313
 40
0.5955250913
 40
1.0
 40
1.0
 40
1.0
 40
1.0
 10
13.2646927282
 20
60.744599158
 30
0.0
 10
13.2269539462
 20
60.7456239439
 30
0.0
 10
13.1280791939
 20
60.7563564798
 30
0.0
 10
12.9674806181
 20
60.8033094315
 30
0.0
 10
12.8514985051
 20
60.8600833457
 30
0.0
 10
12.793245391
 20
60.893715036
 30
0.0
  0
SPLINE
  5
493
100
AcDbEntity
  8
0
100
AcDbSpline
 62
7
  6
CONTINUOUS
 70
0
 71
3
 72
11
 73
7
 74
0
 42
0.0000001
 43
0.0000001
 44
0.0000000001
 40
0.0
 40
0.0
 40
0.0
 40
0.0
 40
0.2177436879
 40
0.4508809312
 40
0.7104580989
 40
1.0
 40
1.0
 40
1.0
 40
1.0
 10
11.2204629057
 20
83.4781478235
 30
0.0
 10
11.220462909
 20
83.4667236054
 30
0.0
 10
11.2246581106
 20
83.4429051904
 30
0.0
 10
11.2427262785
 20
83.4097132326
 30
0.0
 10
11.2712840738
 20
83.3797324153
 30
0.0
 10
11.2951578934
 20
83.3632707224
 30
0.0
 10
11.3083139076
 20
83.3556751899
 30
0.0
  0
SPLINE
  5
494
100
AcDbEntity
  8
0
100
AcDbSpline
 62
7
  6
CONTINUOUS
 70
0
 71
3
 72
10
 73
6
 74
0
 42
0.0000001
 43
0.0000001
 44
0.0000000001
 40
0.0
 40
0.0
 40
0.0
 40
0.0
 40
0.2270144313
 40
0.5955250912
 40
1.0
 40
1.0
 40
1.0
 40
1.0
 10
13.2646927282
 20
66.9663475758
 30
0.0
 10
13.2269539463
 20
66.9673723617
 30
0.0
 10
13.1280791939
 20
66.9781048974
 30
0.0
 10
12.9674806182
 20
67.0250578492
 30
0.0
 10
12.8514985053
 20
67.0818317634
 30
0.0
 10
12.7932453911
 20
67.1154634537
 30
0.0
  0
SPLINE
  5
495
100
AcDbEntity
  8
0
100
AcDbSpline
 62
7
  6
CONTINUOUS
 70
0
 71
3
 72
11
 73
7
 74
0
 42
0.0000001
 43
0.0000001
 44
0.0000000001
 40
0.0
 40
0.0
 40
0.0
 40
0.0
 40
0.2177286216
 40
0.4508684125
 40
0.7104562937
 40
1.0
 40
1.0
 40
1.0
 40
1.0
 10
19.3288276367
 20
48.5993953697
 30
0.0
 10
19.3106904536
 20
48.5889235743
 30
0.0
 10
19.2690256743
 20
48.5737592905
 30
0.0
 10
19.1997651088
 20
48.5720161727
 30
0.0
 10
19.125982113
 20
48.5898692895
 30
0.0
 10
19.0779583539
 20
48.612683675
 30
0.0
 10
19.0538408965
 20
48.626613013
 30
0.0
  0
SPLINE
  5
496
100
AcDbEntity
  8
0
100
AcDbSpline
 62
7
  6
CONTINUOUS
 70
0
 71
3
 72
11
 73
7
 74
0
 42
0.0000001
 43
0.0000001
 44
0.0000000001
 40
0.0
 40
0.0
 40
0.0
 40
0.0
 40
0.2177286216
 40
0.4508684125
 40
0.7104562936
 40
1.0
 40
1.0
 40
1.0
 40
1.0
 10
19.3288276369
 20
67.2646406249
 30
0.0
 10
19.3106904538
 20
67.2541688295
 30
0.0
 10
19.2690256745
 20
67.2390045456
 30
0.0
 10
19.1997651089
 20
67.2372614278
 30
0.0
 10
19.125982113
 20
67.2551145445
 30
0.0
 10
19.0779583539
 20
67.27792893
 30
0.0
 10
19.0538408965
 20
67.2918582681
 30
0.0
  0
SPLINE
  5
497
100
AcDbEntity
  8
0
100
AcDbSpline
 62
7
  6
CONTINUOUS
 70
0
 71
3
 72
10
 73
6
 74
0
 42
0.0000001
 43
0.0000001
 44
0.0000000001
 40
0.0
 40
0.0
 40
0.0
 40
0.0
 40
0.2270144313
 40
0.5955250913
 40
1.0
 40
1.0
 40
1.0
 40
1.0
 10
13.2646927282
 20
57.6337249483
 30
0.0
 10
13.2269539462
 20
57.6347497342
 30
0.0
 10
13.1280791939
 20
57.64548227
 30
0.0
 10
12.9674806181
 20
57.6924352217
 30
0.0
 10
12.8514985051
 20
57.7492091359
 30
0.0
 10
12.793245391
 20
57.7828408262
 30
0.0
  0
SPLINE
  5
498
100
AcDbEntity
  8
0
100
AcDbSpline
 62
7
  6
CONTINUOUS
 70
0
 71
3
 72
11
 73
7
 74
0
 42
0.0000001
 43
0.0000001
 44
0.0000000001
 40
0.0
 40
0.0
 40
0.0
 40
0.0
 40
0.2177286216
 40
0.4508684125
 40
0.7104562937
 40
1.0
 40
1.0
 40
1.0
 40
1.0
 10
19.3288276366
 20
70.3755148344
 30
0.0
 10
19.3106904535
 20
70.3650430391
 30
0.0
 10
19.2690256742
 20
70.3498787553
 30
0.0
 10
19.1997651087
 20
70.3481356374
 30
0.0
 10
19.1259821129
 20
70.3659887543
 30
0.0
 10
19.0779583539
 20
70.3888031398
 30
0.0
 10
19.0538408965
 20
70.4027324778
 30
0.0
  0
SPLINE
  5
499
100
AcDbEntity
  8
0
100
AcDbSpline
 62
7
  6
CONTINUOUS
 70
0
 71
3
 72
11
 73
7
 74
0
 42
0.0000001
 43
0.0000001
 44
0.0000000001
 40
0.0
 40
0.0
 40
0.0
 40
0.0
 40
0.2177286216
 40
0.4508684125
 40
0.7104562937
 40
1.0
 40
1.0
 40
1.0
 40
1.0
 10
19.3288276365
 20
73.4863890441
 30
0.0
 10
19.3106904535
 20
73.4759172487
 30
0.0
 10
19.2690256742
 20
73.4607529649
 30
0.0
 10
19.1997651087
 20
73.4590098471
 30
0.0
 10
19.1259821129
 20
73.4768629639
 30
0.0
 10
19.0779583539
 20
73.4996773494
 30
0.0
 10
19.0538408965
 20
73.5136066875
 30
0.0
  0
SPLINE
  5
49A
100
AcDbEntity
  8
0
100
AcDbSpline
 62
7
  6
CONTINUOUS
 70
0
 71
3
 72
9
 73
5
 74
0
 42
0.0000001
 43
0.0000001
 44
0.0000000001
 40
0.0
 40
0.0
 40
0.0
 40
0.0
 40
0.2578470156
 40
1.0
 40
1.0
 40
1.0
 40
1.0
 10
21.8822562505
 20
78.2574575089
 30
0.0
 10
21.887492166
 20
78.2544334407
 30
0.0
 10
21.9080040086
 20
78.243068206
 30
0.0
 10
21.9293513611
 20
78.2331844731
 30
0.0
 10
21.9455830202
 20
78.2269067064
 30
0.0
  0
SPLINE
  5
49B
100
AcDbEntity
  8
0
100
AcDbSpline
 62
7
  6
CONTINUOUS
 70
0
 71
3
 72
9
 73
5
 74
0
 42
0.0000001
 43
0.0000001
 44
0.0000000001
 40
0.0
 40
0.0
 40
0.0
 40
0.0
 40
0.2578470153
 40
1.0
 40
1.0
 40
1.0
 40
1.0
 10
21.8822562535
 20
50.2595896245
 30
0.0
 10
21.8874921686
 20
50.2565655565
 30
0.0
 10
21.9080040098
 20
50.2452003225
 30
0.0
 10
21.9293513609
 20
50.2353165903
 30
0.0
 10
21.9455830189
 20
50.2290388239
 30
0.0
  0
SPLINE
  5
49C
100
AcDbEntity
  8
0
100
AcDbSpline
 62
7
  6
CONTINUOUS
 70
0
 71
3
 72
9
 73
5
 74
0
 42
0.0000001
 43
0.0000001
 44
0.0000000001
 40
0.0
 40
0.0
 40
0.0
 40
0.0
 40
0.257847016
 40
1.0
 40
1.0
 40
1.0
 40
1.0
 10
21.8822562468
 20
75.1465833014
 30
0.0
 10
21.8874921627
 20
75.1435592329
 30
0.0
 10
21.9080040069
 20
75.1321939973
 30
0.0
 10
21.9293513613
 20
75.1223102637
 30
0.0
 10
21.9455830218
 20
75.1160324966
 30
0.0
  0
SPLINE
  5
49D
100
AcDbEntity
  8
0
100
AcDbSpline
 62
7
  6
CONTINUOUS
 70
0
 71
3
 72
9
 73
5
 74
0
 42
0.0000001
 43
0.0000001
 44
0.0000000001
 40
0.0
 40
0.0
 40
0.0
 40
0.0
 40
0.257847016
 40
1.0
 40
1.0
 40
1.0
 40
1.0
 10
21.8822562473
 20
53.3704638364
 30
0.0
 10
21.8874921631
 20
53.3674397679
 30
0.0
 10
21.9080040071
 20
53.3560745324
 30
0.0
 10
21.9293513612
 20
53.3461907989
 30
0.0
 10
21.9455830216
 20
53.3399130319
 30
0.0
  0
SPLINE
  5
49E
100
AcDbEntity
  8
0
100
AcDbSpline
 62
7
  6
CONTINUOUS
 70
0
 71
3
 72
10
 73
6
 74
0
 42
0.0000001
 43
0.0000001
 44
0.0000000001
 40
0.0
 40
0.0
 40
0.0
 40
0.0
 40
0.2270144313
 40
0.5955250913
 40
1.0
 40
1.0
 40
1.0
 40
1.0
 10
13.2646927282
 20
63.8554733677
 30
0.0
 10
13.2269539462
 20
63.8564981536
 30
0.0
 10
13.1280791939
 20
63.8672306895
 30
0.0
 10
12.9674806181
 20
63.9141836412
 30
0.0
 10
12.8514985051
 20
63.9709575553
 30
0.0
 10
12.793245391
 20
64.0045892456
 30
0.0
  0
SPLINE
  5
49F
100
AcDbEntity
  8
0
100
AcDbSpline
 62
7
  6
CONTINUOUS
 70
0
 71
3
 72
9
 73
5
 74
0
 42
0.0000001
 43
0.0000001
 44
0.0000000001
 40
0.0
 40
0.0
 40
0.0
 40
0.0
 40
0.2578470158
 40
1.0
 40
1.0
 40
1.0
 40
1.0
 10
21.8822562456
 20
72.0357090924
 30
0.0
 10
21.8874921614
 20
72.032685024
 30
0.0
 10
21.9080040056
 20
72.0213197883
 30
0.0
 10
21.9293513599
 20
72.0114360548
 30
0.0
 10
21.9455830203
 20
72.0051582877
 30
0.0
  0
SPLINE
  5
4A0
100
AcDbEntity
  8
0
100
AcDbSpline
 62
7
  6
CONTINUOUS
 70
0
 71
3
 72
11
 73
7
 74
0
 42
0.0000001
 43
0.0000001
 44
0.0000000001
 40
0.0
 40
0.0
 40
0.0
 40
0.0
 40
0.2177286216
 40
0.4508684125
 40
0.7104562937
 40
1.0
 40
1.0
 40
1.0
 40
1.0
 10
19.3288276369
 20
76.5972632525
 30
0.0
 10
19.3106904538
 20
76.586791457
 30
0.0
 10
19.2690256744
 20
76.5716271732
 30
0.0
 10
19.1997651088
 20
76.5698840553
 30
0.0
 10
19.1259821129
 20
76.5877371721
 30
0.0
 10
19.0779583538
 20
76.6105515577
 30
0.0
 10
19.0538408964
 20
76.6244808957
 30
0.0
  0
SPLINE
  5
4A1
100
AcDbEntity
  8
0
100
AcDbSpline
 62
7
  6
CONTINUOUS
 70
0
 71
3
 72
20
 73
16
 74
0
 42
0.0000001
 43
0.0000001
 44
0.0000000001
 40
0.0
 40
0.0
 40
0.0
 40
0.0
 40
0.0623910913
 40
0.1288083526
 40
0.2703011622
 40
0.4173628091
 40
0.561615398
 40
0.6302519199
 40
0.6953787476
 40
0.7563612971
 40
0.8128307481
 40
0.8647636093
 40
0.9125656046
 40
0.9571671253
 40
1.0
 40
1.0
 40
1.0
 40
1.0
 10
12.793245391
 20
51.5610924084
 30
0.0
 10
12.7375820925
 20
51.5932289017
 30
0.0
 10
12.6269532818
 20
51.6671928699
 30
0.0
 10
12.4135599858
 20
51.846732192
 30
0.0
 10
12.1706278306
 20
52.1231733032
 30
0.0
 10
11.9361527137
 20
52.5045843208
 30
0.0
 10
11.7963263195
 20
52.850356563
 30
0.0
 10
11.7273086564
 20
53.1287329575
 30
0.0
 10
11.69912188
 20
53.3277718366
 30
0.0
 10
11.694333711
 20
53.5162739174
 30
0.0
 10
11.7131184964
 20
53.690359183
 30
0.0
 10
11.755275448
 20
53.8464601295
 30
0.0
 10
11.8204433945
 20
53.9812537481
 30
0.0
 10
11.9075930584
 20
54.0915043694
 30
0.0
 10
11.9800434857
 20
54.146935011
 30
0.0
 10
12.0182535068
 20
54.1690044847
 30
0.0
  0
SPLINE
  5
4A2
100
AcDbEntity
  8
0
100
AcDbSpline
 62
7
  6
CONTINUOUS
 70
0
 71
3
 72
9
 73
5
 74
0
 42
0.0000001
 43
0.0000001
 44
0.0000000001
 40
0.0
 40
0.0
 40
0.0
 40
0.0
 40
0.2578470156
 40
1.0
 40
1.0
 40
1.0
 40
1.0
 10
21.8822562506
 20
68.9248348813
 30
0.0
 10
21.8874921661
 20
68.9218108131
 30
0.0
 10
21.9080040086
 20
68.9104455784
 30
0.0
 10
21.9293513611
 20
68.9005618456
 30
0.0
 10
21.9455830201
 20
68.8942840789
 30
0.0
  0
SPLINE
  5
4A3
100
AcDbEntity
  8
0
100
AcDbSpline
 62
7
  6
CONTINUOUS
 70
0
 71
3
 72
11
 73
7
 74
0
 42
0.0000001
 43
0.0000001
 44
0.0000000001
 40
0.0
 40
0.0
 40
0.0
 40
0.0
 40
0.2177286216
 40
0.4508684125
 40
0.7104562937
 40
1.0
 40
1.0
 40
1.0
 40
1.0
 10
19.3288276365
 20
51.7102695793
 30
0.0
 10
19.3106904534
 20
51.6997977839
 30
0.0
 10
19.2690256741
 20
51.6846335002
 30
0.0
 10
19.1997651087
 20
51.6828903824
 30
0.0
 10
19.1259821129
 20
51.7007434992
 30
0.0
 10
19.0779583539
 20
51.7235578847
 30
0.0
 10
19.0538408965
 20
51.7374872227
 30
0.0
  0
SPLINE
  5
4A4
100
AcDbEntity
  8
0
100
AcDbSpline
 62
7
  6
CONTINUOUS
 70
0
 71
3
 72
20
 73
16
 74
0
 42
0.0000001
 43
0.0000001
 44
0.0000000001
 40
0.0
 40
0.0
 40
0.0
 40
0.0
 40
0.0623910913
 40
0.1288083526
 40
0.2703011622
 40
0.4173628091
 40
0.561615398
 40
0.6302519199
 40
0.6953787477
 40
0.7563612971
 40
0.8128307481
 40
0.8647636093
 40
0.9125656046
 40
0.9571671253
 40
1.0
 40
1.0
 40
1.0
 40
1.0
 10
12.7932453912
 20
79.5589602909
 30
0.0
 10
12.7375820928
 20
79.5910967842
 30
0.0
 10
12.626953282
 20
79.6650607524
 30
0.0
 10
12.413559986
 20
79.8446000745
 30
0.0
 10
12.1706278306
 20
80.1210411858
 30
0.0
 10
11.9361527137
 20
80.5024522034
 30
0.0
 10
11.7963263195
 20
80.8482244458
 30
0.0
 10
11.7273086563
 20
81.1266008403
 30
0.0
 10
11.69912188
 20
81.3256397195
 30
0.0
 10
11.694333711
 20
81.5141418003
 30
0.0
 10
11.7131184965
 20
81.6882270659
 30
0.0
 10
11.7552754481
 20
81.8443280125
 30
0.0
 10
11.8204433947
 20
81.979121631
 30
0.0
 10
11.9075930586
 20
82.0893722523
 30
0.0
 10
11.980043486
 20
82.1448028938
 30
0.0
 10
12.0182535071
 20
82.1668723675
 30
0.0
  0
SPLINE
  5
4A5
100
AcDbEntity
  8
0
100
AcDbSpline
 62
7
  6
CONTINUOUS
 70
0
 71
3
 72
9
 73
5
 74
0
 42
0.0000001
 43
0.0000001
 44
0.0000000001
 40
0.0
 40
0.0
 40
0.0
 40
0.0
 40
0.2578470157
 40
1.0
 40
1.0
 40
1.0
 40
1.0
 10
21.8822562497
 20
56.4813380446
 30
0.0
 10
21.8874921652
 20
56.4783139764
 30
0.0
 10
21.9080040082
 20
56.4669487414
 30
0.0
 10
21.9293513611
 20
56.4570650084
 30
0.0
 10
21.9455830205
 20
56.4507872416
 30
0.0
  0
SPLINE
  5
4A6
100
AcDbEntity
  8
0
100
AcDbSpline
 62
7
  6
CONTINUOUS
 70
0
 71
3
 72
9
 73
5
 74
0
 42
0.0000001
 43
0.0000001
 44
0.0000000001
 40
0.0
 40
0.0
 40
0.0
 40
0.0
 40
0.2578470157
 40
1.0
 40
1.0
 40
1.0
 40
1.0
 10
21.8822562496
 20
65.8139606722
 30
0.0
 10
21.8874921651
 20
65.810936604
 30
0.0
 10
21.9080040081
 20
65.799571369
 30
0.0
 10
21.9293513611
 20
65.789687636
 30
0.0
 10
21.9455830206
 20
65.7834098692
 30
0.0
  0
SPLINE
  5
4A7
100
AcDbEntity
  8
0
100
AcDbSpline
 62
7
  6
CONTINUOUS
 70
0
 71
3
 72
10
 73
6
 74
0
 42
0.0000001
 43
0.0000001
 44
0.0000000001
 40
0.0
 40
0.0
 40
0.0
 40
0.0
 40
0.2270144313
 40
0.5955250912
 40
1.0
 40
1.0
 40
1.0
 40
1.0
 10
13.2646927282
 20
79.4098444131
 30
0.0
 10
13.2269539463
 20
79.4108691989
 30
0.0
 10
13.128079194
 20
79.4216017347
 30
0.0
 10
12.9674806182
 20
79.4685546863
 30
0.0
 10
12.8514985054
 20
79.5253286006
 30
0.0
 10
12.7932453912
 20
79.5589602909
 30
0.0
  0
SPLINE
  5
4A8
100
AcDbEntity
  8
0
100
AcDbSpline
 62
7
  6
CONTINUOUS
 70
0
 71
3
 72
20
 73
16
 74
0
 42
0.0000001
 43
0.0000001
 44
0.0000000001
 40
0.0
 40
0.0
 40
0.0
 40
0.0
 40
0.0623910913
 40
0.1288083526
 40
0.2703011622
 40
0.4173628091
 40
0.561615398
 40
0.6302519199
 40
0.6953787476
 40
0.7563612971
 40
0.8128307481
 40
0.8647636093
 40
0.9125656046
 40
0.9571671253
 40
1.0
 40
1.0
 40
1.0
 40
1.0
 10
12.7932453911
 20
76.4480860813
 30
0.0
 10
12.7375820926
 20
76.4802225746
 30
0.0
 10
12.6269532819
 20
76.5541865429
 30
0.0
 10
12.4135599859
 20
76.7337258651
 30
0.0
 10
12.1706278306
 20
77.0101669765
 30
0.0
 10
11.9361527137
 20
77.3915779942
 30
0.0
 10
11.7963263195
 20
77.7373502366
 30
0.0
 10
11.7273086563
 20
78.0157266311
 30
0.0
 10
11.6991218799
 20
78.2147655104
 30
0.0
 10
11.694333711
 20
78.4032675912
 30
0.0
 10
11.7131184964
 20
78.5773528568
 30
0.0
 10
11.755275448
 20
78.7334538034
 30
0.0
 10
11.8204433945
 20
78.8682474221
 30
0.0
 10
11.9075930584
 20
78.9784980434
 30
0.0
 10
11.9800434857
 20
79.033928685
 30
0.0
 10
12.0182535068
 20
79.0559981588
 30
0.0
  0
SPLINE
  5
4A9
100
AcDbEntity
  8
0
100
AcDbSpline
 62
7
  6
CONTINUOUS
 70
0
 71
3
 72
11
 73
7
 74
0
 42
0.0000001
 43
0.0000001
 44
0.0000000001
 40
0.0
 40
0.0
 40
0.0
 40
0.0
 40
0.2177286216
 40
0.4508684125
 40
0.7104562936
 40
1.0
 40
1.0
 40
1.0
 40
1.0
 10
19.328827637
 20
54.8211437878
 30
0.0
 10
19.3106904539
 20
54.8106719923
 30
0.0
 10
19.2690256745
 20
54.7955077084
 30
0.0
 10
19.1997651089
 20
54.7937645905
 30
0.0
 10
19.125982113
 20
54.8116177073
 30
0.0
 10
19.0779583538
 20
54.8344320929
 30
0.0
 10
19.0538408964
 20
54.8483614309
 30
0.0
  0
SPLINE
  5
4AA
100
AcDbEntity
  8
0
100
AcDbSpline
 62
7
  6
CONTINUOUS
 70
0
 71
3
 72
9
 73
5
 74
0
 42
0.0000001
 43
0.0000001
 44
0.0000000001
 40
0.0
 40
0.0
 40
0.0
 40
0.0
 40
0.2578470157
 40
1.0
 40
1.0
 40
1.0
 40
1.0
 10
21.8822562472
 20
62.703086464
 30
0.0
 10
21.8874921628
 20
62.7000623956
 30
0.0
 10
21.9080040063
 20
62.6886971604
 30
0.0
 10
21.9293513598
 20
62.6788134271
 30
0.0
 10
21.9455830196
 20
62.6725356602
 30
0.0
  0
SPLINE
  5
4AB
100
AcDbEntity
  8
0
100
AcDbSpline
 62
7
  6
CONTINUOUS
 70
0
 71
3
 72
10
 73
6
 74
0
 42
0.0000001
 43
0.0000001
 44
0.0000000001
 40
0.0
 40
0.0
 40
0.0
 40
0.0
 40
0.2270144313
 40
0.5955250912
 40
1.0
 40
1.0
 40
1.0
 40
1.0
 10
13.2646927282
 20
76.2989702034
 30
0.0
 10
13.2269539463
 20
76.2999949892
 30
0.0
 10
13.1280791939
 20
76.310727525
 30
0.0
 10
12.9674806182
 20
76.3576804767
 30
0.0
 10
12.8514985053
 20
76.414454391
 30
0.0
 10
12.7932453911
 20
76.4480860813
 30
0.0
  0
SPLINE
  5
4AC
100
AcDbEntity
  8
0
100
AcDbSpline
 62
7
  6
CONTINUOUS
 70
0
 71
3
 72
20
 73
16
 74
0
 42
0.0000001
 43
0.0000001
 44
0.0000000001
 40
0.0
 40
0.0
 40
0.0
 40
0.0
 40
0.0623910913
 40
0.1288083526
 40
0.2703011622
 40
0.4173628091
 40
0.561615398
 40
0.6302519199
 40
0.6953787476
 40
0.7563612971
 40
0.8128307481
 40
0.8647636093
 40
0.9125656046
 40
0.9571671253
 40
1.0
 40
1.0
 40
1.0
 40
1.0
 10
12.793245391
 20
73.3372118732
 30
0.0
 10
12.7375820925
 20
73.3693483665
 30
0.0
 10
12.6269532818
 20
73.4433123347
 30
0.0
 10
12.4135599858
 20
73.6228516568
 30
0.0
 10
12.1706278306
 20
73.899292768
 30
0.0
 10
11.9361527137
 20
74.2807037856
 30
0.0
 10
11.7963263195
 20
74.6264760278
 30
0.0
 10
11.7273086564
 20
74.9048524223
 30
0.0
 10
11.69912188
 20
75.1038913015
 30
0.0
 10
11.694333711
 20
75.2923933822
 30
0.0
 10
11.7131184964
 20
75.4664786478
 30
0.0
 10
11.755275448
 20
75.6225795943
 30
0.0
 10
11.8204433945
 20
75.7573732129
 30
0.0
 10
11.9075930584
 20
75.8676238342
 30
0.0
 10
11.9800434857
 20
75.9230544758
 30
0.0
 10
12.0182535068
 20
75.9451239495
 30
0.0
  0
SPLINE
  5
4AD
100
AcDbEntity
  8
0
100
AcDbSpline
 62
7
  6
CONTINUOUS
 70
0
 71
3
 72
11
 73
7
 74
0
 42
0.0000001
 43
0.0000001
 44
0.0000000001
 40
0.0
 40
0.0
 40
0.0
 40
0.0
 40
0.2177286216
 40
0.4508684125
 40
0.7104562937
 40
1.0
 40
1.0
 40
1.0
 40
1.0
 10
19.3288276368
 20
57.9320179973
 30
0.0
 10
19.3106904537
 20
57.9215462019
 30
0.0
 10
19.2690256744
 20
57.9063819181
 30
0.0
 10
19.1997651089
 20
57.9046388002
 30
0.0
 10
19.125982113
 20
57.922491917
 30
0.0
 10
19.0779583539
 20
57.9453063025
 30
0.0
 10
19.0538408965
 20
57.9592356406
 30
0.0
  0
SPLINE
  5
4AE
100
AcDbEntity
  8
0
100
AcDbSpline
 62
7
  6
CONTINUOUS
 70
0
 71
3
 72
20
 73
16
 74
0
 42
0.0000001
 43
0.0000001
 44
0.0000000001
 40
0.0
 40
0.0
 40
0.0
 40
0.0
 40
0.0623910913
 40
0.1288083526
 40
0.2703011622
 40
0.4173628091
 40
0.561615398
 40
0.6302519199
 40
0.6953787477
 40
0.7563612971
 40
0.8128307481
 40
0.8647636093
 40
0.9125656046
 40
0.9571671253
 40
1.0
 40
1.0
 40
1.0
 40
1.0
 10
12.793245391
 20
70.2263376635
 30
0.0
 10
12.7375820925
 20
70.2584741568
 30
0.0
 10
12.6269532818
 20
70.332438125
 30
0.0
 10
12.4135599858
 20
70.5119774471
 30
0.0
 10
12.1706278305
 20
70.7884185584
 30
0.0
 10
11.9361527136
 20
71.169829576
 30
0.0
 10
11.7963263195
 20
71.5156018183
 30
0.0
 10
11.7273086563
 20
71.7939782128
 30
0.0
 10
11.69912188
 20
71.993017092
 30
0.0
 10
11.694333711
 20
72.1815191727
 30
0.0
 10
11.7131184965
 20
72.3556044383
 30
0.0
 10
11.755275448
 20
72.5117053848
 30
0.0
 10
11.8204433946
 20
72.6464990034
 30
0.0
 10
11.9075930585
 20
72.7567496246
 30
0.0
 10
11.9800434859
 20
72.8121802662
 30
0.0
 10
12.018253507
 20
72.8342497399
 30
0.0
  0
SPLINE
  5
4AF
100
AcDbEntity
  8
0
100
AcDbSpline
 62
7
  6
CONTINUOUS
 70
0
 71
3
 72
9
 73
5
 74
0
 42
0.0000001
 43
0.0000001
 44
0.0000000001
 40
0.0
 40
0.0
 40
0.0
 40
0.0
 40
0.2578470155
 40
1.0
 40
1.0
 40
1.0
 40
1.0
 10
21.8822562521
 20
59.5922122529
 30
0.0
 10
21.8874921673
 20
59.5891881848
 30
0.0
 10
21.9080040092
 20
59.5778229504
 30
0.0
 10
21.929351361
 20
59.5679392179
 30
0.0
 10
21.9455830195
 20
59.5616614514
 30
0.0
  0
SPLINE
  5
4B0
100
AcDbEntity
  8
0
100
AcDbSpline
 62
7
  6
CONTINUOUS
 70
0
 71
3
 72
11
 73
7
 74
0
 42
0.0000001
 43
0.0000001
 44
0.0000000001
 40
0.0
 40
0.0
 40
0.0
 40
0.0
 40
0.2367285467
 40
0.498910011
 40
0.7616834296
 40
1.0
 40
1.0
 40
1.0
 40
1.0
 10
16.8237090011
 20
92.4806242324
 30
0.0
 10
16.8237090011
 20
92.5493553887
 30
0.0
 10
16.8492090227
 20
92.6943055632
 30
0.0
 10
16.9383342105
 20
92.8984515205
 30
0.0
 10
17.0690742888
 20
93.079372529
 30
0.0
 10
17.1811697195
 20
93.1756326936
 30
0.0
 10
17.2405669056
 20
93.2111226563
 30
0.0
  0
SPLINE
  5
4B1
100
AcDbEntity
  8
0
100
AcDbSpline
 62
7
  6
CONTINUOUS
 70
0
 71
3
 72
11
 73
7
 74
0
 42
0.0000001
 43
0.0000001
 44
0.0000000001
 40
0.0
 40
0.0
 40
0.0
 40
0.0
 40
0.2177231375
 40
0.4508717887
 40
0.7104673698
 40
1.0
 40
1.0
 40
1.0
 40
1.0
 10
79.7321670361
 20
38.9819396246
 30
0.0
 10
79.6909447165
 20
39.0057366896
 30
0.0
 10
79.6137510428
 20
39.0705152426
 30
0.0
 10
79.5316052661
 20
39.2048579019
 30
0.0
 10
79.4829156402
 20
39.3703802944
 30
0.0
 10
79.4732494054
 20
39.490828037
 30
0.0
 10
79.4732494054
 20
39.5541249641
 30
0.0
  0
SPLINE
  5
4B2
100
AcDbEntity
  8
0
100
AcDbSpline
 62
7
  6
CONTINUOUS
 70
0
 71
3
 72
11
 73
7
 74
0
 42
0.0000001
 43
0.0000001
 44
0.0000000001
 40
0.0
 40
0.0
 40
0.0
 40
0.0
 40
0.2177231375
 40
0.4508717887
 40
0.7104673698
 40
1.0
 40
1.0
 40
1.0
 40
1.0
 10
79.7321670361
 20
105.9351378293
 30
0.0
 10
79.6909447165
 20
105.9589348942
 30
0.0
 10
79.6137510428
 20
106.0237134472
 30
0.0
 10
79.5316052661
 20
106.1580561065
 30
0.0
 10
79.4829156402
 20
106.323578499
 30
0.0
 10
79.4732494054
 20
106.4440262417
 30
0.0
 10
79.4732494054
 20
106.5073231687
 30
0.0
  0
SPLINE
  5
4B3
100
AcDbEntity
  8
0
100
AcDbSpline
 62
7
  6
CONTINUOUS
 70
0
 71
3
 72
11
 73
7
 74
0
 42
0.0000001
 43
0.0000001
 44
0.0000000001
 40
0.0
 40
0.0
 40
0.0
 40
0.0
 40
0.2177231375
 40
0.4508717887
 40
0.7104673698
 40
1.0
 40
1.0
 40
1.0
 40
1.0
 10
52.844767214
 20
90.3916280745
 30
0.0
 10
52.8023936332
 20
90.4160897464
 30
0.0
 10
52.7230440865
 20
90.4826774415
 30
0.0
 10
52.638604134
 20
90.6207720365
 30
0.0
 10
52.5885546993
 20
90.7909171555
 30
0.0
 10
52.5786185049
 20
90.9147287752
 30
0.0
 10
52.5786185049
 20
90.9797934654
 30
0.0
  0
SPLINE
  5
4B4
100
AcDbEntity
  8
0
100
AcDbSpline
 62
7
  6
CONTINUOUS
 70
0
 71
3
 72
11
 73
7
 74
0
 42
0.0000001
 43
0.0000001
 44
0.0000000001
 40
0.0
 40
0.0
 40
0.0
 40
0.0
 40
0.2177231375
 40
0.4508717887
 40
0.7104673698
 40
1.0
 40
1.0
 40
1.0
 40
1.0
 10
52.844767214
 20
23.4384298699
 30
0.0
 10
52.8023936332
 20
23.4628915418
 30
0.0
 10
52.7230440865
 20
23.5294792369
 30
0.0
 10
52.638604134
 20
23.6675738318
 30
0.0
 10
52.5885546993
 20
23.8377189509
 30
0.0
 10
52.5786185049
 20
23.9615305706
 30
0.0
 10
52.5786185049
 20
24.0265952607
 30
0.0
  0
SPLINE
  5
4B5
100
AcDbEntity
  8
0
100
AcDbSpline
 62
7
  6
CONTINUOUS
 70
0
 71
3
 72
11
 73
7
 74
0
 42
0.0000001
 43
0.0000001
 44
0.0000000001
 40
0.0
 40
0.0
 40
0.0
 40
0.0
 40
0.2897030561
 40
0.5490557368
 40
0.782281652
 40
1.0
 40
1.0
 40
1.0
 40
1.0
 10
29.2733017094
 20
53.0274716676
 30
0.0
 10
29.3829842093
 20
52.9641474734
 30
0.0
 10
29.6011726174
 20
52.8603885142
 30
0.0
 10
29.9365537142
 20
52.7792929035
 30
0.0
 10
30.251223235
 20
52.7873826738
 30
0.0
 10
30.4407013167
 20
52.8560728752
 30
0.0
 10
30.5231313485
 20
52.9036603988
 30
0.0
  0
SPLINE
  5
4B6
100
AcDbEntity
  8
0
100
AcDbSpline
 62
7
  6
CONTINUOUS
 70
0
 71
3
 72
11
 73
7
 74
0
 42
0.0000001
 43
0.0000001
 44
0.0000000001
 40
0.0
 40
0.0
 40
0.0
 40
0.0
 40
0.2659550191
 40
0.5253187655
 40
0.7717145493
 40
1.0
 40
1.0
 40
1.0
 40
1.0
 10
25.5297823419
 20
55.7865065732
 30
0.0
 10
25.6112029094
 20
55.6455867936
 30
0.0
 10
25.787846121
 20
55.3760427444
 30
0.0
 10
26.0907943994
 20
55.0123448457
 30
0.0
 10
26.4197581662
 20
54.7047354163
 30
0.0
 10
26.6586604922
 20
54.5370746182
 30
0.0
 10
26.7796119809
 20
54.4671715332
 30
0.0
  0
SPLINE
  5
4B7
100
AcDbEntity
  8
0
100
AcDbSpline
 62
7
  6
CONTINUOUS
 70
0
 71
3
 72
11
 73
7
 74
0
 42
0.0000001
 43
0.0000001
 44
0.0000000001
 40
0.0
 40
0.0
 40
0.0
 40
0.0
 40
0.2282542418
 40
0.4746490733
 40
0.7340291959
 40
1.0
 40
1.0
 40
1.0
 40
1.0
 10
25.0121069087
 20
57.5285631258
 30
0.0
 10
25.0121065211
 20
57.3888790761
 30
0.0
 10
25.0377720687
 20
57.0981516006
 30
0.0
 10
25.1396582295
 20
56.659440789
 30
0.0
 10
25.3032094446
 20
56.2152109683
 30
0.0
 10
25.4484014021
 20
55.9274664901
 30
0.0
 10
25.5297823419
 20
55.7865065732
 30
0.0
  0
SPLINE
  5
4B8
100
AcDbEntity
  8
0
100
AcDbSpline
 62
7
  6
CONTINUOUS
 70
0
 71
3
 72
11
 73
7
 74
0
 42
0.0000001
 43
0.0000001
 44
0.0000000001
 40
0.0
 40
0.0
 40
0.0
 40
0.0
 40
0.2177451069
 40
0.4509974878
 40
0.7103438645
 40
1.0
 40
1.0
 40
1.0
 40
1.0
 10
25.5297823421
 20
83.8966072884
 30
0.0
 10
25.4473988555
 20
83.8489364568
 30
0.0
 10
25.293272017
 20
83.7190880256
 30
0.0
 10
25.1289933112
 20
83.4506143694
 30
0.0
 10
25.0314899068
 20
83.1196895715
 30
0.0
 10
25.0121644653
 20
82.8789130037
 30
0.0
 10
25.0121069087
 20
82.7522973141
 30
0.0
  0
SPLINE
  5
4B9
100
AcDbEntity
  8
0
100
AcDbSpline
 62
7
  6
CONTINUOUS
 70
0
 71
3
 72
17
 73
13
 74
0
 42
0.0000001
 43
0.0000001
 44
0.0000000001
 40
0.0
 40
0.0
 40
0.0
 40
0.0
 40
0.1286849204
 40
0.270303802
 40
0.4174438806
 40
0.5617821443
 40
0.6954492858
 40
0.8127130377
 40
0.8646795618
 40
0.9125091497
 40
0.9571393989
 40
1.0
 40
1.0
 40
1.0
 40
1.0
 10
52.5786185049
 20
24.0265952607
 30
0.0
 10
52.5786185049
 20
24.1364182975
 30
0.0
 10
52.6093656929
 20
24.3673617081
 30
0.0
 10
52.7240132097
 20
24.7064462398
 30
0.0
 10
52.9007625936
 20
25.0330638424
 30
0.0
 10
53.1252751639
 20
25.3204578703
 30
0.0
 10
53.3792932576
 20
25.5454302626
 30
0.0
 10
53.6092176449
 20
25.6711045616
 30
0.0
 10
53.789057382
 20
25.719022774
 30
0.0
 10
53.9128393357
 20
25.7280667714
 30
0.0
 10
54.0281168825
 20
25.7112529719
 30
0.0
 10
54.0979209033
 20
25.6821623924
 30
0.0
 10
54.1295995616
 20
25.6638747488
 30
0.0
  0
SPLINE
  5
4BA
100
AcDbEntity
  8
0
100
AcDbSpline
 62
7
  6
CONTINUOUS
 70
0
 71
3
 72
17
 73
13
 74
0
 42
0.0000001
 43
0.0000001
 44
0.0000000001
 40
0.0
 40
0.0
 40
0.0
 40
0.0
 40
0.1286865535
 40
0.2703065218
 40
0.4174612681
 40
0.5617989266
 40
0.6954528234
 40
0.8127091351
 40
0.8646746914
 40
0.9125055669
 40
0.957137259
 40
1.0
 40
1.0
 40
1.0
 40
1.0
 10
52.5786185049
 20
90.9797934654
 30
0.0
 10
52.5786185049
 20
91.0896178701
 30
0.0
 10
52.6093671865
 20
91.3205632625
 30
0.0
 10
52.7240173763
 20
91.6596628309
 30
0.0
 10
52.9007829408
 20
91.9862866983
 30
0.0
 10
53.12529765
 20
92.2736796429
 30
0.0
 10
53.3793049315
 20
92.4986357246
 30
0.0
 10
53.609212252
 20
92.624303109
 30
0.0
 10
53.7890465464
 20
92.672216356
 30
0.0
 10
53.9128295234
 20
92.6812663491
 30
0.0
 10
54.0281114294
 20
92.6644506941
 30
0.0
 10
54.0979179939
 20
92.635359092
 30
0.0
 10
54.1295988064
 20
92.6170715444
 30
0.0
  0
SPLINE
  5
4BB
100
AcDbEntity
  8
0
100
AcDbSpline
 62
7
  6
CONTINUOUS
 70
0
 71
3
 72
17
 73
13
 74
0
 42
0.0000001
 43
0.0000001
 44
0.0000000001
 40
0.0
 40
0.0
 40
0.0
 40
0.0
 40
0.1286865535
 40
0.2703065218
 40
0.4174612681
 40
0.5617989266
 40
0.6954528234
 40
0.8127091351
 40
0.8646746914
 40
0.9125055669
 40
0.957137259
 40
1.0
 40
1.0
 40
1.0
 40
1.0
 10
79.4732494054
 20
106.5073231687
 30
0.0
 10
79.4732494054
 20
106.6141637195
 30
0.0
 10
79.5031626664
 20
106.8388344836
 30
0.0
 10
79.6146978889
 20
107.1687209486
 30
0.0
 10
79.786660854
 20
107.486470669
 30
0.0
 10
80.0050756521
 20
107.7660553437
 30
0.0
 10
80.2521817295
 20
107.9848995226
 30
0.0
 10
80.4758426254
 20
108.1071526102
 30
0.0
 10
80.650790945
 20
108.153764087
 30
0.0
 10
80.7712108231
 20
108.162568198
 30
0.0
 10
80.8833605986
 20
108.1462094128
 30
0.0
 10
80.9512705665
 20
108.1179082096
 30
0.0
 10
80.982090633
 20
108.1001175222
 30
0.0
  0
SPLINE
  5
4BC
100
AcDbEntity
  8
0
100
AcDbSpline
 62
7
  6
CONTINUOUS
 70
0
 71
3
 72
17
 73
13
 74
0
 42
0.0000001
 43
0.0000001
 44
0.0000000001
 40
0.0
 40
0.0
 40
0.0
 40
0.0
 40
0.1286849204
 40
0.270303802
 40
0.4174438806
 40
0.5617821443
 40
0.6954492858
 40
0.8127130377
 40
0.8646795618
 40
0.9125091497
 40
0.9571393989
 40
1.0
 40
1.0
 40
1.0
 40
1.0
 10
79.4732494054
 20
39.5541249641
 30
0.0
 10
79.4732494054
 20
39.6609641841
 30
0.0
 10
79.5031612134
 20
39.8856330201
 30
0.0
 10
79.6146938356
 20
40.2155048571
 30
0.0
 10
79.7866410596
 20
40.5332484828
 30
0.0
 10
80.005053777
 20
40.8128342115
 30
0.0
 10
80.2521703727
 20
41.0316942578
 30
0.0
 10
80.4758478717
 20
41.153954072
 30
0.0
 10
80.6508014862
 20
41.2005703793
 30
0.0
 10
80.7712203689
 20
41.2093686575
 30
0.0
 10
80.8833659035
 20
41.1930116774
 30
0.0
 10
80.9512733969
 20
41.1647114691
 30
0.0
 10
80.9820913677
 20
41.1469206883
 30
0.0
  0
SPLINE
  5
4BD
100
AcDbEntity
  8
0
100
AcDbSpline
 62
7
  6
CONTINUOUS
 70
0
 71
3
 72
11
 73
7
 74
0
 42
0.0000001
 43
0.0000001
 44
0.0000000001
 40
0.0
 40
0.0
 40
0.0
 40
0.0
 40
0.2177157843
 40
0.4509568843
 40
0.7103209748
 40
1.0
 40
1.0
 40
1.0
 40
1.0
 10
30.5231313485
 20
52.9036603988
 30
0.0
 10
30.6055704146
 20
52.9513633913
 30
0.0
 10
30.7597876519
 20
53.0813346284
 30
0.0
 10
30.9241434888
 20
53.3500527011
 30
0.0
 10
31.0215483568
 20
53.6813226402
 30
0.0
 10
31.0407491739
 20
53.9223124629
 30
0.0
 10
31.0408067817
 20
54.0490406514
 30
0.0
  0
SPLINE
  5
4BE
100
AcDbEntity
  8
0
100
AcDbSpline
 62
7
  6
CONTINUOUS
 70
0
 71
3
 72
11
 73
7
 74
0
 42
0.0000001
 43
0.0000001
 44
0.0000000001
 40
0.0
 40
0.0
 40
0.0
 40
0.0
 40
0.2177231993
 40
0.4508753011
 40
0.7104743705
 40
1.0
 40
1.0
 40
1.0
 40
1.0
 10
54.1295988064
 20
92.6170715444
 30
0.0
 10
54.1719731197
 20
92.5926112416
 30
0.0
 10
54.2513223978
 20
92.5260217043
 30
0.0
 10
54.3357640319
 20
92.3879267552
 30
0.0
 10
54.3858109506
 20
92.2177809664
 30
0.0
 10
54.3957482708
 20
92.0939705944
 30
0.0
 10
54.3957482708
 20
92.0289075625
 30
0.0
  0
SPLINE
  5
4BF
100
AcDbEntity
  8
0
100
AcDbSpline
 62
7
  6
CONTINUOUS
 70
0
 71
3
 72
11
 73
7
 74
0
 42
0.0000001
 43
0.0000001
 44
0.0000000001
 40
0.0
 40
0.0
 40
0.0
 40
0.0
 40
0.2897030561
 40
0.5490557368
 40
0.782281652
 40
1.0
 40
1.0
 40
1.0
 40
1.0
 10
26.779611981
 20
83.7727960196
 30
0.0
 10
26.6699294811
 20
83.8361202138
 30
0.0
 10
26.451741073
 20
83.9398791729
 30
0.0
 10
26.1163599762
 20
84.0209747837
 30
0.0
 10
25.8016904555
 20
84.0128850134
 30
0.0
 10
25.6122123738
 20
83.944194812
 30
0.0
 10
25.5297823421
 20
83.8966072884
 30
0.0
  0
SPLINE
  5
4C0
100
AcDbEntity
  8
0
100
AcDbSpline
 62
7
  6
CONTINUOUS
 70
0
 71
3
 72
11
 73
7
 74
0
 42
0.0000001
 43
0.0000001
 44
0.0000000001
 40
0.0
 40
0.0
 40
0.0
 40
0.0
 40
0.2659550191
 40
0.5253187655
 40
0.7717145493
 40
1.0
 40
1.0
 40
1.0
 40
1.0
 10
30.5231313485
 20
81.013761114
 30
0.0
 10
30.441710781
 20
81.1546808936
 30
0.0
 10
30.2650675694
 20
81.4242249428
 30
0.0
 10
29.962119291
 20
81.7879228414
 30
0.0
 10
29.6331555242
 20
82.0955322708
 30
0.0
 10
29.3942531983
 20
82.2631930688
 30
0.0
 10
29.2733017096
 20
82.3330961539
 30
0.0
  0
SPLINE
  5
4C1
100
AcDbEntity
  8
0
100
AcDbSpline
 62
7
  6
CONTINUOUS
 70
0
 71
3
 72
11
 73
7
 74
0
 42
0.0000001
 43
0.0000001
 44
0.0000000001
 40
0.0
 40
0.0
 40
0.0
 40
0.0
 40
0.2282543647
 40
0.4746493079
 40
0.7340293194
 40
1.0
 40
1.0
 40
1.0
 40
1.0
 10
31.0408067817
 20
79.2717111022
 30
0.0
 10
31.0408071693
 20
79.4113947317
 30
0.0
 10
31.0151407392
 20
79.7021212755
 30
0.0
 10
30.9132542324
 20
80.1408303839
 30
0.0
 10
30.7497034426
 20
80.5850584907
 30
0.0
 10
30.6045119619
 20
80.8728017625
 30
0.0
 10
30.5231313485
 20
81.013761114
 30
0.0
  0
SPLINE
  5
4C2
100
AcDbEntity
  8
0
100
AcDbSpline
 62
7
  6
CONTINUOUS
 70
0
 71
3
 72
17
 73
13
 74
0
 42
0.0000001
 43
0.0000001
 44
0.0000000001
 40
0.0
 40
0.0
 40
0.0
 40
0.0
 40
0.1286849204
 40
0.270303802
 40
0.4174438806
 40
0.5617821443
 40
0.6954492858
 40
0.8127130378
 40
0.8646795618
 40
0.9125091497
 40
0.9571393989
 40
1.0
 40
1.0
 40
1.0
 40
1.0
 10
54.3957482708
 20
25.0757093579
 30
0.0
 10
54.3957482708
 20
24.9658863211
 30
0.0
 10
54.3650010827
 20
24.7349429105
 30
0.0
 10
54.2503535659
 20
24.3958583788
 30
0.0
 10
54.073604182
 20
24.0692407762
 30
0.0
 10
53.8490916117
 20
23.7818467483
 30
0.0
 10
53.595073518
 20
23.556874356
 30
0.0
 10
53.3651491307
 20
23.431200057
 30
0.0
 10
53.1853093936
 20
23.3832818447
 30
0.0
 10
53.0615274398
 20
23.3742378473
 30
0.0
 10
52.9462498931
 20
23.3910516468
 30
0.0
 10
52.8764458723
 20
23.4201422263
 30
0.0
 10
52.844767214
 20
23.4384298699
 30
0.0
  0
SPLINE
  5
4C3
100
AcDbEntity
  8
0
100
AcDbSpline
 62
7
  6
CONTINUOUS
 70
0
 71
3
 72
17
 73
13
 74
0
 42
0.0000001
 43
0.0000001
 44
0.0000000001
 40
0.0
 40
0.0
 40
0.0
 40
0.0
 40
0.1286849204
 40
0.270303802
 40
0.4174438806
 40
0.5617821443
 40
0.6954492858
 40
0.8127130378
 40
0.8646795618
 40
0.9125091497
 40
0.9571393989
 40
1.0
 40
1.0
 40
1.0
 40
1.0
 10
54.3957482708
 20
92.0289075625
 30
0.0
 10
54.3957482708
 20
91.9190845257
 30
0.0
 10
54.3650010827
 20
91.6881411152
 30
0.0
 10
54.2503535659
 20
91.3490565834
 30
0.0
 10
54.073604182
 20
91.0224389808
 30
0.0
 10
53.8490916117
 20
90.7350449529
 30
0.0
 10
53.595073518
 20
90.5100725606
 30
0.0
 10
53.3651491307
 20
90.3843982617
 30
0.0
 10
53.1853093936
 20
90.3364800493
 30
0.0
 10
53.0615274398
 20
90.3274360519
 30
0.0
 10
52.9462498931
 20
90.3442498514
 30
0.0
 10
52.8764458723
 20
90.3733404309
 30
0.0
 10
52.844767214
 20
90.3916280745
 30
0.0
  0
SPLINE
  5
4C4
100
AcDbEntity
  8
0
100
AcDbSpline
 62
7
  6
CONTINUOUS
 70
0
 71
3
 72
17
 73
13
 74
0
 42
0.0000001
 43
0.0000001
 44
0.0000000001
 40
0.0
 40
0.0
 40
0.0
 40
0.0
 40
0.1286849204
 40
0.270303802
 40
0.4174438806
 40
0.5617821443
 40
0.6954492858
 40
0.8127130378
 40
0.8646795618
 40
0.9125091497
 40
0.9571393989
 40
1.0
 40
1.0
 40
1.0
 40
1.0
 10
81.2410089985
 20
107.5279335534
 30
0.0
 10
81.2410089985
 20
107.4210943334
 30
0.0
 10
81.2110971905
 20
107.1964254973
 30
0.0
 10
81.0995645683
 20
106.8665536604
 30
0.0
 10
80.9276173443
 20
106.5488100347
 30
0.0
 10
80.7092046269
 20
106.2692243059
 30
0.0
 10
80.4620880311
 20
106.0503642596
 30
0.0
 10
80.2384105321
 20
105.9281044455
 30
0.0
 10
80.0634569177
 20
105.8814881381
 30
0.0
 10
79.9430380349
 20
105.87268986
 30
0.0
 10
79.8308925003
 20
105.8890468401
 30
0.0
 10
79.762985007
 20
105.9173470484
 30
0.0
 10
79.7321670361
 20
105.9351378293
 30
0.0
  0
SPLINE
  5
4C5
100
AcDbEntity
  8
0
100
AcDbSpline
 62
7
  6
CONTINUOUS
 70
0
 71
3
 72
11
 73
7
 74
0
 42
0.0000001
 43
0.0000001
 44
0.0000000001
 40
0.0
 40
0.0
 40
0.0
 40
0.0
 40
0.2177231375
 40
0.4508717887
 40
0.7104673698
 40
1.0
 40
1.0
 40
1.0
 40
1.0
 10
54.1295995616
 20
25.6638747488
 30
0.0
 10
54.1719731424
 20
25.6394130769
 30
0.0
 10
54.2513226891
 20
25.5728253818
 30
0.0
 10
54.3357626416
 20
25.4347307868
 30
0.0
 10
54.3858120764
 20
25.2645856678
 30
0.0
 10
54.3957482708
 20
25.1407740481
 30
0.0
 10
54.3957482708
 20
25.0757093579
 30
0.0
  0
SPLINE
  5
4C6
100
AcDbEntity
  8
0
100
AcDbSpline
 62
7
  6
CONTINUOUS
 70
0
 71
3
 72
17
 73
13
 74
0
 42
0.0000001
 43
0.0000001
 44
0.0000000001
 40
0.0
 40
0.0
 40
0.0
 40
0.0
 40
0.1286849204
 40
0.270303802
 40
0.4174438806
 40
0.5617821443
 40
0.6954492858
 40
0.8127130378
 40
0.8646795618
 40
0.9125091497
 40
0.9571393989
 40
1.0
 40
1.0
 40
1.0
 40
1.0
 10
81.2410089985
 20
40.5747353488
 30
0.0
 10
81.2410089985
 20
40.4678961288
 30
0.0
 10
81.2110971905
 20
40.2432272927
 30
0.0
 10
81.0995645683
 20
39.9133554558
 30
0.0
 10
80.9276173443
 20
39.59561183
 30
0.0
 10
80.7092046269
 20
39.3160261013
 30
0.0
 10
80.4620880311
 20
39.097166055
 30
0.0
 10
80.2384105321
 20
38.9749062408
 30
0.0
 10
80.0634569177
 20
38.9282899335
 30
0.0
 10
79.9430380349
 20
38.9194916553
 30
0.0
 10
79.8308925003
 20
38.9358486354
 30
0.0
 10
79.762985007
 20
38.9641488438
 30
0.0
 10
79.7321670361
 20
38.9819396246
 30
0.0
  0
SPLINE
  5
4C7
100
AcDbEntity
  8
0
100
AcDbSpline
 62
7
  6
CONTINUOUS
 70
0
 71
3
 72
11
 73
7
 74
0
 42
0.0000001
 43
0.0000001
 44
0.0000000001
 40
0.0
 40
0.0
 40
0.0
 40
0.0
 40
0.2177231375
 40
0.4508717887
 40
0.7104673698
 40
1.0
 40
1.0
 40
1.0
 40
1.0
 10
80.9820913677
 20
41.1469206883
 30
0.0
 10
81.0233136873
 20
41.1231236233
 30
0.0
 10
81.100507361
 20
41.0583450703
 30
0.0
 10
81.1826531378
 20
40.9240024111
 30
0.0
 10
81.2313427636
 20
40.7584800185
 30
0.0
 10
81.2410089985
 20
40.6380322758
 30
0.0
 10
81.2410089985
 20
40.5747353488
 30
0.0
  0
SPLINE
  5
4C8
100
AcDbEntity
  8
0
100
AcDbSpline
 62
7
  6
CONTINUOUS
 70
0
 71
3
 72
11
 73
7
 74
0
 42
0.0000001
 43
0.0000001
 44
0.0000000001
 40
0.0
 40
0.0
 40
0.0
 40
0.0
 40
0.2896790252
 40
0.5490431156
 40
0.7822842157
 40
1.0
 40
1.0
 40
1.0
 40
1.0
 10
33.3744520603
 20
55.3963633405
 30
0.0
 10
33.3743944526
 20
55.2696351519
 30
0.0
 10
33.3551936354
 20
55.0286453289
 30
0.0
 10
33.2577887674
 20
54.6973753894
 30
0.0
 10
33.0934329305
 20
54.4286573163
 30
0.0
 10
32.9392156932
 20
54.2986860789
 30
0.0
 10
32.8567766271
 20
54.2509830863
 30
0.0
  0
SPLINE
  5
4C9
100
AcDbEntity
  8
0
100
AcDbSpline
 62
7
  6
CONTINUOUS
 70
0
 71
3
 72
11
 73
7
 74
0
 42
0.0000001
 43
0.0000001
 44
0.0000000001
 40
0.0
 40
0.0
 40
0.0
 40
0.0
 40
0.2659706806
 40
0.5253506921
 40
0.7717456353
 40
1.0
 40
1.0
 40
1.0
 40
1.0
 10
32.8567766272
 20
82.361083801
 30
0.0
 10
32.9381572407
 20
82.2201244494
 30
0.0
 10
33.0833487214
 20
81.9323811772
 30
0.0
 10
33.2468995111
 20
81.4881530699
 30
0.0
 10
33.3487860179
 20
81.049443961
 30
0.0
 10
33.374452448
 20
80.758717417
 30
0.0
 10
33.3744520603
 20
80.6190337874
 30
0.0
  0
SPLINE
  5
4CA
100
AcDbEntity
  8
0
100
AcDbSpline
 62
7
  6
CONTINUOUS
 70
0
 71
3
 72
11
 73
7
 74
0
 42
0.0000001
 43
0.0000001
 44
0.0000000001
 40
0.0
 40
0.0
 40
0.0
 40
0.0
 40
0.2282854506
 40
0.4746812344
 40
0.7340449808
 40
1.0
 40
1.0
 40
1.0
 40
1.0
 10
31.6069469877
 20
83.6804188412
 30
0.0
 10
31.7278984765
 20
83.6105157562
 30
0.0
 10
31.9668008026
 20
83.4428549584
 30
0.0
 10
32.2957645698
 20
83.1352455291
 30
0.0
 10
32.5987128481
 20
82.7715476302
 30
0.0
 10
32.7753560597
 20
82.5020035807
 30
0.0
 10
32.8567766272
 20
82.361083801
 30
0.0
  0
SPLINE
  5
4CB
100
AcDbEntity
  8
0
100
AcDbSpline
 62
7
  6
CONTINUOUS
 70
0
 71
3
 72
11
 73
7
 74
0
 42
0.0000001
 43
0.0000001
 44
0.0000000001
 40
0.0
 40
0.0
 40
0.0
 40
0.0
 40
0.2177183479
 40
0.4509442629
 40
0.7102969437
 40
1.0
 40
1.0
 40
1.0
 40
1.0
 10
27.8634276208
 20
85.2439299754
 30
0.0
 10
27.9458576526
 20
85.291517499
 30
0.0
 10
28.135335734
 20
85.3602077012
 30
0.0
 10
28.4500052551
 20
85.3682974721
 30
0.0
 10
28.7853863522
 20
85.2872018604
 30
0.0
 10
29.0035747603
 20
85.1834429005
 30
0.0
 10
29.1132572604
 20
85.1201187062
 30
0.0
  0
SPLINE
  5
4CC
100
AcDbEntity
  8
0
100
AcDbSpline
 62
7
  6
CONTINUOUS
 70
0
 71
3
 72
11
 73
7
 74
0
 42
0.0000001
 43
0.0000001
 44
0.0000000001
 40
0.0
 40
0.0
 40
0.0
 40
0.0
 40
0.2177231993
 40
0.4508753011
 40
0.7104743705
 40
1.0
 40
1.0
 40
1.0
 40
1.0
 10
80.982090633
 20
108.1001175222
 30
0.0
 10
81.0233136652
 20
108.0763217891
 30
0.0
 10
81.1005070776
 20
108.0115414439
 30
0.0
 10
81.1826544903
 20
107.8771984402
 30
0.0
 10
81.2313416685
 20
107.7116753961
 30
0.0
 10
81.2410089985
 20
107.5912288672
 30
0.0
 10
81.2410089985
 20
107.5279335534
 30
0.0
  0
SPLINE
  5
4CD
100
AcDbEntity
  8
0
100
AcDbSpline
 62
7
  6
CONTINUOUS
 70
0
 71
3
 72
11
 73
7
 74
0
 42
0.0000001
 43
0.0000001
 44
0.0000000001
 40
0.0
 40
0.0
 40
0.0
 40
0.0
 40
0.2383165703
 40
0.5010899889
 40
0.7632714532
 40
1.0
 40
1.0
 40
1.0
 40
1.0
 10
34.10513385
 20
83.4745806605
 30
0.0
 10
34.045736664
 20
83.4390906979
 30
0.0
 10
33.9336412333
 20
83.3428305336
 30
0.0
 10
33.8029011551
 20
83.1619095255
 30
0.0
 10
33.7137759674
 20
82.9577635685
 30
0.0
 10
33.6882759458
 20
82.8128133942
 30
0.0
 10
33.6882759458
 20
82.744082238
 30
0.0
  0
ENDSEC
  0
SECTION
  2
OBJECTS
  0
DICTIONARY
  5
C
100
AcDbDictionary
280
0
281
1
  3
ACAD_GROUP
350
D
  3
ACAD_MLINESTYLE
350
17
  3
ACAD_LAYOUT
350
1A
  3
ACAD_PLOTSETTINGS
350
19
  3
ACAD_PLOTSTYLENAME
350
E
  0
DICTIONARY
  5
D
102
{ACAD_REACTORS
330
C
102
}
100
AcDbDictionary
280
0
281
1
  0
ACDBDICTIONARYWDFLT
  5
E
102
{ACAD_REACTORS
330
C
102
}
100
AcDbDictionary
281
1
  3
Normal
350
F
100
AcDbDictionaryWithDefault
340
F
  0
DICTIONARY
  5
17
102
{ACAD_REACTORS
330
C
102
}
100
AcDbDictionary
280
0
281
1
  3
Standard
350
18
  0
DICTIONARY
  5
19
102
{ACAD_REACTORS
330
C
102
}
100
AcDbDictionary
281
1
  0
DICTIONARY
  5
1A
102
{ACAD_REACTORS
330
C
102
}
100
AcDbDictionary
281
1
  3
Model
350
4CE
  3
Layout1
350
4CF
  0
ACDBPLACEHOLDER
  5
F
102
{ACAD_REACTORS
330
E
102
}
  0
MLINESTYLE
  5
18
102
{ACAD_REACTORS
330
17
102
}
100
AcDbMlineStyle
  2
STANDARD
 70
0
  3

 62
256
 51
90.0
 52
90.0
 71
2
 49
0.5
 62
256
  6
BYLAYER
 49
-0.5
 62
256
  6
BYLAYER
  0
LAYOUT
  5
4CE
102
{ACAD_REACTORS
330
1A
102
}
100
AcDbPlotSettings
  1

  2
none_device
  4

  6

 40
0.0
 41
0.0
 42
0.0
 43
0.0
 44
210.0
 45
297.0
 46
0.0
 47
0.0
 48
0.0
 49
0.0
140
0.0
141
0.0
142
1.0
143
1.0
 70
1024
 72
1
 73
0
 74
0
  7

 75
0
147
1.0
148
0.0
149
0.0
100
AcDbLayout
  1
Model
 70
0
 71
0
 10
0.0
 20
0.0
 11
210.0
 21
297.0
 12
0.0
 22
0.0
 32
0.0
 14
0.0
 24
0.0
 34
0.0
 15
0.0
 25
0.0
 35
0.0
146
0.0
 13
0.0
 23
0.0
 33
0.0
 16
1.0
 26
0.0
 36
0.0
 17
0.0
 27
1.0
 37
0.0
 76
0
330
210
345
0
346
0
  0
LAYOUT
  5
4CF
102
{ACAD_REACTORS
330
1A
102
}
100
AcDbPlotSettings
  1

  2
none_device
  4

  6

 40
0.0
 41
0.0
 42
0.0
 43
0.0
 44
210.0
 45
297.0
 46
0.0
 47
0.0
 48
0.0
 49
0.0
140
0.0
141
0.0
142
1.0
143
1.0
 70
0
 72
1
 73
0
 74
0
  7

 75
0
147
1.0
148
0.0
149
0.0
100
AcDbLayout
  1
Layout1
 70
0
 71
1
 10
0.0
 20
0.0
 11
210.0
 21
297.0
 12
0.0
 22
0.0
 32
0.0
 14
0.0
 24
0.0
 34
0.0
 15
0.0
 25
0.0
 35
0.0
146
0.0
 13
0.0
 23
0.0
 33
0.0
 16
1.0
 26
0.0
 36
0.0
 17
0.0
 27
1.0
 37
0.0
 76
0
330
211
345
0
346
0
  0
ENDSEC
  0
EOF
