999
DXF file: C:\Users\sesa63760\Dev\_Creo\CAD\MCADID0004116_3D-CAD\drw0001_7.dxf
999
Pro/ENGINEER 2019471 by Parametric Technology Corporation
  0
SECTION
  2
HEADER
  9
$ACADVER
  1
AC1024
  9
$DWGCODEPAGE
  3
ANSI_1252
  9
$EXTMAX
 10
93.5406582234
 20
132.2932166302
 30
0.0
  9
$EXTMIN
 10
0.0
 20
0.0
 30
0.0
  9
$LIMMIN
 10
0.0
 20
0.0
  9
$LIMMAX
 10
93.5406582234
 20
132.2932166302
  9
$VIEWCTR
 10
46.7703291117
 20
66.1466083151
  9
$VIEWSIZE
 40
132.2932166302
  9
$CLAYER
  8
0
  9
$LTSCALE
 40
8.6235578248
  9
$CELTYPE
  6
BYLAYER
  9
$DIMSCALE
 40
1.0
  9
$DIMASZ
 40
1.1135792646
  9
$DIMEXO
 40
1.0
  9
$DIMDLI
 40
5.9580944971
  9
$DIMEXE
 40
1.0
  9
$DIMCEN
 40
1.4111276441
  9
$DIMLFAC
 40
1.0
  9
$DIMBLK
  1
_FILLED
  9
$DIMALT
 70
0
  9
$DIMALTF
 40
0.0393700787
  9
$DIMTXT
 40
1.5590109704
  9
$DIMTOL
 70
1
  9
$DIMLIM
 70
0
  9
$DIMTFAC
 40
1.0
  9
$DIMTP
 40
0.01
  9
$DIMTM
 40
0.01
  9
$DIMGAP
 40
0.625
  9
$DIMDSEP
 70
46
  9
$AUNITS
 70
0
  9
$PDMODE
 70
3
  9
$PDSIZE
 40
0.3125
  9
$HANDSEED
  5
28B
  9
$TILEMODE
 70
1
  9
$MEASUREMENT
 70
1
  9
$INSUNITS
 70
4
  0
ENDSEC
  0
SECTION
  2
CLASSES
  0
CLASS
  1
ACDBDICTIONARYWDFLT
  2
AcDbDictionaryWithDefault
  3
AutoCAD 2000
 90
0
 91
1
280
0
281
0
  0
CLASS
  1
ACDBPLACEHOLDER
  2
AcDbPlaceHolder
  3
AutoCAD 2000
 90
0
 91
1
280
0
281
0
  0
CLASS
  1
LAYOUT
  2
AcDbLayout
  3
AutoCAD 2000
 90
0
 91
0
280
0
281
0
  0
ENDSEC
  0
SECTION
  2
TABLES
  0
TABLE
  2
VPORT
  5
8
100
AcDbSymbolTable
 70
2
  0
VPORT
  5
1F4
100
AcDbSymbolTableRecord
100
AcDbViewportTableRecord
  2
*ACTIVE
 70
0
 10
0.0
 20
0.0
 11
1.0
 21
1.0
 12
46.7703291117
 22
66.1466083151
 13
0.0
 23
0.0
 14
1.0
 24
1.0
 15
0.0
 25
0.0
 16
0.0
 26
0.0
 36
1.0
 17
0.0
 27
0.0
 37
0.0
 40
132.2932166302
 41
0.7070707071
 42
50.0
 43
0.0
 44
0.0
 50
0.0
 51
0.0
 71
0
 72
100
 73
1
 74
1
 75
0
 76
0
 77
0
 78
0
  0
ENDTAB
  0
TABLE
  2
LTYPE
  5
5
100
AcDbSymbolTable
 70
6
  0
LTYPE
  5
14
100
AcDbSymbolTableRecord
100
AcDbLinetypeTableRecord
  2
BYBLOCK
 70
0
  3

 72
65
 73
0
 40
0.0
  0
LTYPE
  5
15
100
AcDbSymbolTableRecord
100
AcDbLinetypeTableRecord
  2
BYLAYER
 70
0
  3

 72
65
 73
0
 40
0.0
  0
LTYPE
  5
16
100
AcDbSymbolTableRecord
100
AcDbLinetypeTableRecord
  2
CONTINUOUS
 70
64
  3
Solid line
 72
65
 73
0
 40
0.0
  0
LTYPE
  5
1F5
100
AcDbSymbolTableRecord
100
AcDbLinetypeTableRecord
  2
CENTER
 70
64
  3
____ _ ____ _ ____ _ ____ _ ____ _ ____ _ ____
 72
65
 73
4
 40
0.6
 49
0.375
 74
0
 49
-0.075
 74
0
 49
0.075
 74
0
 49
-0.075
 74
0
  0
LTYPE
  5
1F6
100
AcDbSymbolTableRecord
100
AcDbLinetypeTableRecord
  2
HIDDEN
 70
64
  3
- - - - - - - - - - - - - - - - - - - -
 72
65
 73
2
 40
0.2
 49
0.1
 74
0
 49
-0.1
 74
0
  0
LTYPE
  5
1F7
100
AcDbSymbolTableRecord
100
AcDbLinetypeTableRecord
  2
PHANTOM
 70
64
  3
_____ _ _ _____ _ _ _____ _ _ _____
 72
65
 73
6
 40
0.8
 49
0.45
 74
0
 49
-0.05
 74
0
 49
0.1
 74
0
 49
-0.05
 74
0
 49
0.1
 74
0
 49
-0.05
 74
0
  0
LTYPE
  5
1F8
100
AcDbSymbolTableRecord
100
AcDbLinetypeTableRecord
  2
DOT
 70
64
  3
. . . . . . . . . . . . . . . . . . . .
 72
65
 73
2
 40
0.2
 49
0.1
 74
0
 49
-0.1
 74
0
  0
LTYPE
  5
1F9
100
AcDbSymbolTableRecord
100
AcDbLinetypeTableRecord
  2
DASHED
 70
64
  3
- - - - - - - - - - - - - - - - - - - -
 72
65
 73
2
 40
0.2
 49
0.1
 74
0
 49
-0.1
 74
0
  0
ENDTAB
  0
TABLE
  2
LAYER
  5
2
100
AcDbSymbolTable
 70
36
  0
LAYER
  5
10
100
AcDbSymbolTableRecord
100
AcDbLayerTableRecord
  2
0
 70
0
 62
7
  6
CONTINUOUS
370
-3
390
F
  0
LAYER
  5
1FA
100
AcDbSymbolTableRecord
100
AcDbLayerTableRecord
  2
DEFAULT_1
 70
0
 62
7
  6
CENTER
370
-3
390
F
  0
LAYER
  5
1FB
100
AcDbSymbolTableRecord
100
AcDbLayerTableRecord
  2
DEFAULT_2
 70
0
 62
7
  6
HIDDEN
370
-3
390
F
  0
LAYER
  5
1FC
100
AcDbSymbolTableRecord
100
AcDbLayerTableRecord
  2
DEFAULT_3
 70
0
 62
7
  6
PHANTOM
370
-3
390
F
  0
LAYER
  5
1FD
100
AcDbSymbolTableRecord
100
AcDbLayerTableRecord
  2
00_COMPONENTS
 70
0
 62
7
  6
CONTINUOUS
370
-3
390
F
  0
LAYER
  5
1FE
100
AcDbSymbolTableRecord
100
AcDbLayerTableRecord
  2
01_1_DEFAULT_DATUMS
 70
0
 62
7
  6
CONTINUOUS
370
-3
390
F
  0
LAYER
  5
1FF
100
AcDbSymbolTableRecord
100
AcDbLayerTableRecord
  2
01_PLANES
 70
0
 62
7
  6
CONTINUOUS
370
-3
390
F
  0
LAYER
  5
200
100
AcDbSymbolTableRecord
100
AcDbLayerTableRecord
  2
02_COORD_SYS
 70
0
 62
7
  6
CONTINUOUS
370
-3
390
F
  0
LAYER
  5
201
100
AcDbSymbolTableRecord
100
AcDbLayerTableRecord
  2
03_AXES
 70
0
 62
7
  6
CONTINUOUS
370
-3
390
F
  0
LAYER
  5
202
100
AcDbSymbolTableRecord
100
AcDbLayerTableRecord
  2
04_POINTS
 70
0
 62
7
  6
CONTINUOUS
370
-3
390
F
  0
LAYER
  5
203
100
AcDbSymbolTableRecord
100
AcDbLayerTableRecord
  2
05_CURVES
 70
0
 62
7
  6
CONTINUOUS
370
-3
390
F
  0
LAYER
  5
204
100
AcDbSymbolTableRecord
100
AcDbLayerTableRecord
  2
06_SURFS
 70
0
 62
7
  6
CONTINUOUS
370
-3
390
F
  0
LAYER
  5
205
100
AcDbSymbolTableRecord
100
AcDbLayerTableRecord
  2
07_COSMETICS
 70
0
 62
7
  6
CONTINUOUS
370
-3
390
F
  0
LAYER
  5
206
100
AcDbSymbolTableRecord
100
AcDbLayerTableRecord
  2
10_NOTES
 70
0
 62
7
  6
CONTINUOUS
370
-3
390
F
  0
LAYER
  5
207
100
AcDbSymbolTableRecord
100
AcDbLayerTableRecord
  2
11_NOTES_PUB
 70
0
 62
7
  6
CONTINUOUS
370
-3
390
F
  0
LAYER
  5
208
100
AcDbSymbolTableRecord
100
AcDbLayerTableRecord
  2
13_REF_GTOL
 70
0
 62
7
  6
CONTINUOUS
370
-3
390
F
  0
LAYER
  5
209
100
AcDbSymbolTableRecord
100
AcDbLayerTableRecord
  2
16_MISC
 70
0
 62
7
  6
CONTINUOUS
370
-3
390
F
  0
LAYER
  5
20A
100
AcDbSymbolTableRecord
100
AcDbLayerTableRecord
  2
17_NO_PRINT
 70
0
 62
7
  6
CONTINUOUS
370
-3
390
F
  0
LAYER
  5
20B
100
AcDbSymbolTableRecord
100
AcDbLayerTableRecord
  2
18_DATUM_CAMS_JOINTS
 70
0
 62
7
  6
CONTINUOUS
370
-3
390
F
  0
LAYER
  5
20C
100
AcDbSymbolTableRecord
100
AcDbLayerTableRecord
  2
19_DATUM_FUNCTIONAL
 70
0
 62
7
  6
CONTINUOUS
370
-3
390
F
  0
LAYER
  5
20D
100
AcDbSymbolTableRecord
100
AcDbLayerTableRecord
  2
20_DATUM_KINEMATIC_SCHEME
 70
0
 62
7
  6
CONTINUOUS
370
-3
390
F
  0
ENDTAB
  0
TABLE
  2
STYLE
  5
3
100
AcDbSymbolTable
 70
1
  0
STYLE
  5
11
100
AcDbSymbolTableRecord
100
AcDbTextStyleTableRecord
  2
STANDARD
 70
0
 40
0.0
 41
1.0
 50
0.0
 71
0
 42
0.2
  3
ARIAL.TTF
  4

  0
STYLE
  5
20E
100
AcDbSymbolTableRecord
100
AcDbTextStyleTableRecord
  2
TEXTSTYLE_1
 70
0
 40
0.0
 41
0.8
 50
0.0
 71
0
 42
0.2
  3
gdt
  4

  0
ENDTAB
  0
TABLE
  2
VIEW
  5
6
100
AcDbSymbolTable
 70
0
  0
ENDTAB
  0
TABLE
  2
UCS
  5
7
100
AcDbSymbolTable
 70
0
  0
ENDTAB
  0
TABLE
  2
APPID
  5
9
100
AcDbSymbolTable
 70
1
  0
APPID
  5
20F
100
AcDbSymbolTableRecord
100
AcDbRegAppTableRecord
  2
ACAD
 70
0
  0
ENDTAB
  0
TABLE
  2
BLOCK_RECORD
  5
1
100
AcDbSymbolTable
 70
0
  0
BLOCK_RECORD
  5
210
100
AcDbSymbolTableRecord
100
AcDbBlockTableRecord
  2
*Model_Space
  0
BLOCK_RECORD
  5
211
100
AcDbSymbolTableRecord
100
AcDbBlockTableRecord
  2
*Paper_Space
  0
BLOCK_RECORD
  5
212
100
AcDbSymbolTableRecord
100
AcDbBlockTableRecord
  2
_FILLED
  0
ENDTAB
  0
TABLE
  2
DIMSTYLE
  5
A
100
AcDbSymbolTable
 70
1
100
AcDbDimStyleTable
 71
0
  0
DIMSTYLE
105
213
100
AcDbSymbolTableRecord
100
AcDbDimStyleTableRecord
  2
STANDARD
 70
0
  3

  4

 40
1.0
 41
1.1135792646
 42
1.0
 43
0.38
 44
1.0
 45
0.0
 46
0.0
 47
0.01
 48
0.01
140
1.5590109704
141
0.09
142
0.0
143
25.4
144
1.0
145
0.0
146
1.0
147
0.625
 71
1
 72
0
 73
0
 74
0
 75
0
 76
0
 77
1
 78
8
 79
2
170
0
171
1
172
0
173
0
174
0
175
0
176
0
177
0
178
0
270
2
179
2
271
2
272
2
273
2
274
2
275
0
280
0
281
0
282
0
283
1
284
8
285
0
286
0
287
3
288
0
340
11
278
46
341
212
342
212
343
212
344
212
  0
ENDTAB
  0
ENDSEC
  0
SECTION
  2
BLOCKS
  0
BLOCK
  5
20
100
AcDbEntity
  8
0
100
AcDbBlockBegin
  2
*Model_Space
 70
0
 10
0.0
 20
0.0
 30
0.0
  3
*Model_Space
  1

  0
ENDBLK
  5
21
100
AcDbEntity
  8
0
100
AcDbBlockEnd
  0
BLOCK
  5
1C
100
AcDbEntity
  8
0
100
AcDbBlockBegin
  2
*Paper_Space
 70
0
 10
0.0
 20
0.0
 30
0.0
  3
*Paper_Space
  1

  0
ENDBLK
  5
1D
100
AcDbEntity
  8
0
100
AcDbBlockEnd
  0
BLOCK
  5
214
100
AcDbEntity
  8
0
100
AcDbBlockBegin
  2
_FILLED
 70
64
 10
0.0
 20
0.0
  3
_FILLED
  1

  0
SOLID
  5
215
100
AcDbEntity
  8
0
  6
BYBLOCK
 62
0
100
AcDbTrace
 10
0.0
 20
0.0
 11
-1.0
 21
0.25
 12
-1.0
 22
-0.25
 13
-1.0
 23
-0.25
  0
ENDBLK
  5
216
100
AcDbEntity
  8
0
  6
BYBLOCK
 62
0
100
AcDbBlockEnd
  0
ENDSEC
  0
SECTION
  2
ENTITIES
  0
LINE
  5
217
100
AcDbEntity
  8
0
100
AcDbLine
 62
7
  6
BYLAYER
 10
20.3322547134
 20
59.1496431599
 11
20.3322547134
 21
73.7912758773
  0
LINE
  5
218
100
AcDbEntity
  8
0
100
AcDbLine
 62
7
  6
BYLAYER
 10
24.5993263532
 20
74.4776955648
 11
24.5993263532
 21
71.089544892
  0
LINE
  5
219
100
AcDbEntity
  8
0
100
AcDbLine
 62
7
  6
BYLAYER
 10
24.5993263532
 20
61.8513741452
 11
24.5993263532
 21
58.4632234724
  0
LINE
  5
21A
100
AcDbEntity
  8
0
100
AcDbLine
 62
7
  6
BYLAYER
 10
24.7048947311
 20
71.0625510805
 11
24.7048947311
 21
61.8783679567
  0
LINE
  5
21B
100
AcDbEntity
  8
0
100
AcDbLine
 62
7
  6
BYLAYER
 10
28.8312377266
 20
58.2259838683
 11
28.8312377266
 21
74.7149351689
  0
LINE
  5
21C
100
AcDbEntity
  8
0
100
AcDbLine
 62
7
  6
BYLAYER
 10
29.8282004301
 20
74.7149351689
 11
29.8282004301
 21
58.2259838683
  0
LINE
  5
21D
100
AcDbEntity
  8
0
100
AcDbLine
 62
7
  6
BYLAYER
 10
30.1291703029
 20
58.2259838683
 11
30.1291703029
 21
74.7149351689
  0
LINE
  5
21E
100
AcDbEntity
  8
0
100
AcDbLine
 62
7
  6
BYLAYER
 10
36.1222328941
 20
74.7151529704
 11
36.8708954526
 21
75.4638155289
  0
LINE
  5
21F
100
AcDbEntity
  8
0
100
AcDbLine
 62
7
  6
BYLAYER
 10
36.1222328941
 20
58.2257660668
 11
36.8708954526
 21
57.4771035083
  0
LINE
  5
220
100
AcDbEntity
  8
0
100
AcDbLine
 62
7
  6
BYLAYER
 10
36.1222328941
 20
74.7151529704
 11
36.1222328941
 21
58.2257660668
  0
LINE
  5
221
100
AcDbEntity
  8
0
100
AcDbLine
 62
7
  6
BYLAYER
 10
36.8708954526
 20
57.4771035083
 11
36.8708954526
 21
75.4638155289
  0
LINE
  5
222
100
AcDbEntity
  8
0
100
AcDbLine
 62
7
  6
BYLAYER
 10
48.5322547134
 20
54.4654595186
 11
51.5322547134
 21
54.4654595186
  0
LINE
  5
223
100
AcDbEntity
  8
0
100
AcDbLine
 62
7
  6
BYLAYER
 10
68.5322547134
 20
54.4654595186
 11
71.5322547134
 21
54.4654595186
  0
LINE
  5
224
100
AcDbEntity
  8
0
100
AcDbLine
 62
7
  6
BYLAYER
 10
70.669116061
 20
55.1202982307
 11
69.3953933659
 21
55.1202982307
  0
LINE
  5
225
100
AcDbEntity
  8
0
100
AcDbLine
 62
7
  6
BYLAYER
 10
50.669116061
 20
55.1202982307
 11
49.3953933659
 21
55.1202982307
  0
LINE
  5
226
100
AcDbEntity
  8
0
100
AcDbLine
 62
7
  6
BYLAYER
 10
20.3322547134
 20
59.1496431599
 11
24.5993263532
 21
58.4632234724
  0
LINE
  5
227
100
AcDbEntity
  8
0
100
AcDbLine
 62
7
  6
BYLAYER
 10
79.0377321577
 20
57.4771035083
 11
71.5322547134
 21
57.4771035083
  0
LINE
  5
228
100
AcDbEntity
  8
0
100
AcDbLine
 62
7
  6
BYLAYER
 10
67.8336126605
 20
57.4771035083
 11
52.2308967664
 21
57.4771035083
  0
LINE
  5
229
100
AcDbEntity
  8
0
100
AcDbLine
 62
7
  6
BYLAYER
 10
48.5322547134
 20
57.4771035083
 11
36.8708954526
 21
57.4771035083
  0
LINE
  5
22A
100
AcDbEntity
  8
0
100
AcDbLine
 62
7
  6
BYLAYER
 10
82.7358994692
 20
58.1768584624
 11
80.8360271474
 21
58.1768584624
  0
LINE
  5
22B
100
AcDbEntity
  8
0
100
AcDbLine
 62
7
  6
BYLAYER
 10
80.6366346067
 20
58.1768584624
 11
79.6396719032
 21
58.1768584624
  0
LINE
  5
22C
100
AcDbEntity
  8
0
100
AcDbLine
 62
7
  6
BYLAYER
 10
36.1222328941
 20
58.2257660668
 11
30.1291703029
 21
58.2257660668
  0
LINE
  5
22D
100
AcDbEntity
  8
0
100
AcDbLine
 62
7
  6
BYLAYER
 10
29.8282004301
 20
58.2257660668
 11
28.8312377266
 21
58.2257660668
  0
LINE
  5
22E
100
AcDbEntity
  8
0
100
AcDbLine
 62
7
  6
BYLAYER
 10
80.8360271474
 20
58.3762510031
 11
80.6366346067
 21
58.3762510031
  0
LINE
  5
22F
100
AcDbEntity
  8
0
100
AcDbLine
 62
7
  6
BYLAYER
 10
30.1291703029
 20
59.027098353
 11
29.8282004301
 21
59.027098353
  0
LINE
  5
230
100
AcDbEntity
  8
0
100
AcDbLine
 62
7
  6
BYLAYER
 10
24.5993263532
 20
58.4632234724
 11
28.8312377266
 21
58.237052437
  0
LINE
  5
231
100
AcDbEntity
  8
0
100
AcDbLine
 62
7
  6
BYLAYER
 10
67.8336126605
 20
77.5192952471
 11
68.5322547134
 21
77.7708875719
  0
LINE
  5
232
100
AcDbEntity
  8
0
100
AcDbLine
 62
7
  6
BYLAYER
 10
67.8336126605
 20
55.4216237901
 11
68.5322547134
 21
55.1700314653
  0
LINE
  5
233
100
AcDbEntity
  8
0
100
AcDbLine
 62
7
  6
BYLAYER
 10
10.3965482644
 20
64.3704595186
 11
20.3322328187
 21
64.3704595186
  0
LINE
  5
234
100
AcDbEntity
  8
0
100
AcDbLine
 62
7
  6
BYLAYER
 10
49.3953933659
 20
65.8156208065
 11
50.669116061
 21
65.8156208065
  0
LINE
  5
235
100
AcDbEntity
  8
0
100
AcDbLine
 62
7
  6
BYLAYER
 10
69.3953933659
 20
65.8156208065
 11
70.669116061
 21
65.8156208065
  0
LINE
  5
236
100
AcDbEntity
  8
0
100
AcDbLine
 62
7
  6
BYLAYER
 10
48.5322547134
 20
54.4654595186
 11
48.5322547134
 21
78.4754595186
  0
LINE
  5
237
100
AcDbEntity
  8
0
100
AcDbLine
 62
7
  6
BYLAYER
 10
49.3953933659
 20
54.4654595186
 11
49.3953933659
 21
55.1202982307
  0
LINE
  5
238
100
AcDbEntity
  8
0
100
AcDbLine
 62
7
  6
BYLAYER
 10
49.3953933659
 20
65.8156208065
 11
49.3953933659
 21
67.1252982307
  0
LINE
  5
239
100
AcDbEntity
  8
0
100
AcDbLine
 62
7
  6
BYLAYER
 10
49.3953933659
 20
77.8206208065
 11
49.3953933659
 21
78.4754595186
  0
LINE
  5
23A
100
AcDbEntity
  8
0
100
AcDbLine
 62
7
  6
BYLAYER
 10
70.669116061
 20
67.1252982307
 11
69.3953933659
 21
67.1252982307
  0
LINE
  5
23B
100
AcDbEntity
  8
0
100
AcDbLine
 62
7
  6
BYLAYER
 10
50.669116061
 20
67.1252982307
 11
49.3953933659
 21
67.1252982307
  0
LINE
  5
23C
100
AcDbEntity
  8
0
100
AcDbLine
 62
7
  6
BYLAYER
 10
20.3322328187
 20
68.5704595186
 11
10.3965482644
 21
68.5704595186
  0
LINE
  5
23D
100
AcDbEntity
  8
0
100
AcDbLine
 62
7
  6
BYLAYER
 10
50.669116061
 20
78.4754595186
 11
50.669116061
 21
77.8206208065
  0
LINE
  5
23E
100
AcDbEntity
  8
0
100
AcDbLine
 62
7
  6
BYLAYER
 10
50.669116061
 20
67.1252982307
 11
50.669116061
 21
65.8156208065
  0
LINE
  5
23F
100
AcDbEntity
  8
0
100
AcDbLine
 62
7
  6
BYLAYER
 10
50.669116061
 20
55.1202982307
 11
50.669116061
 21
54.4654595186
  0
LINE
  5
240
100
AcDbEntity
  8
0
100
AcDbLine
 62
7
  6
BYLAYER
 10
51.5322547134
 20
78.4754595186
 11
51.5322547134
 21
54.4654595186
  0
LINE
  5
241
100
AcDbEntity
  8
0
100
AcDbLine
 62
7
  6
BYLAYER
 10
52.2308967664
 20
77.5192891078
 11
52.2308967664
 21
55.4216299294
  0
LINE
  5
242
100
AcDbEntity
  8
0
100
AcDbLine
 62
7
  6
BYLAYER
 10
30.1291703029
 20
73.9138206842
 11
29.8282004301
 21
73.9138206842
  0
LINE
  5
243
100
AcDbEntity
  8
0
100
AcDbLine
 62
7
  6
BYLAYER
 10
80.8360271474
 20
74.5646680341
 11
80.6366346067
 21
74.5646680341
  0
LINE
  5
244
100
AcDbEntity
  8
0
100
AcDbLine
 62
7
  6
BYLAYER
 10
24.5993263532
 20
74.4776955648
 11
28.8312377266
 21
74.7038666002
  0
LINE
  5
245
100
AcDbEntity
  8
0
100
AcDbLine
 62
7
  6
BYLAYER
 10
36.1222328941
 20
74.7151529704
 11
30.1291703029
 21
74.7151529704
  0
LINE
  5
246
100
AcDbEntity
  8
0
100
AcDbLine
 62
7
  6
BYLAYER
 10
29.8282004301
 20
74.7151529704
 11
28.8312377266
 21
74.7151529704
  0
LINE
  5
247
100
AcDbEntity
  8
0
100
AcDbLine
 62
7
  6
BYLAYER
 10
82.7358994692
 20
74.7640605748
 11
80.8360271474
 21
74.7640605748
  0
LINE
  5
248
100
AcDbEntity
  8
0
100
AcDbLine
 62
7
  6
BYLAYER
 10
80.6366346067
 20
74.7640605748
 11
79.6396719032
 21
74.7640605748
  0
LINE
  5
249
100
AcDbEntity
  8
0
100
AcDbLine
 62
7
  6
BYLAYER
 10
79.0377321577
 20
75.4638155289
 11
71.5322547134
 21
75.4638155289
  0
LINE
  5
24A
100
AcDbEntity
  8
0
100
AcDbLine
 62
7
  6
BYLAYER
 10
67.8336126605
 20
75.4638155289
 11
52.2308967664
 21
75.4638155289
  0
LINE
  5
24B
100
AcDbEntity
  8
0
100
AcDbLine
 62
7
  6
BYLAYER
 10
48.5322547134
 20
75.4638155289
 11
36.8708954526
 21
75.4638155289
  0
LINE
  5
24C
100
AcDbEntity
  8
0
100
AcDbLine
 62
7
  6
BYLAYER
 10
52.2308967664
 20
55.4216237901
 11
51.5322547134
 21
55.1700314653
  0
LINE
  5
24D
100
AcDbEntity
  8
0
100
AcDbLine
 62
7
  6
BYLAYER
 10
20.3322547134
 20
73.7912758773
 11
24.5993263532
 21
74.4776955648
  0
LINE
  5
24E
100
AcDbEntity
  8
0
100
AcDbLine
 62
7
  6
BYLAYER
 10
49.3953933659
 20
77.8206208065
 11
50.669116061
 21
77.8206208065
  0
LINE
  5
24F
100
AcDbEntity
  8
0
100
AcDbLine
 62
7
  6
BYLAYER
 10
69.3953933659
 20
77.8206208065
 11
70.669116061
 21
77.8206208065
  0
LINE
  5
250
100
AcDbEntity
  8
0
100
AcDbLine
 62
7
  6
BYLAYER
 10
71.5322547134
 20
78.4754595186
 11
68.5322547134
 21
78.4754595186
  0
LINE
  5
251
100
AcDbEntity
  8
0
100
AcDbLine
 62
7
  6
BYLAYER
 10
51.5322547134
 20
78.4754595186
 11
48.5322547134
 21
78.4754595186
  0
LINE
  5
252
100
AcDbEntity
  8
0
100
AcDbLine
 62
7
  6
BYLAYER
 10
52.2308967664
 20
77.5192952471
 11
51.5322547134
 21
77.7708875719
  0
LINE
  5
253
100
AcDbEntity
  8
0
100
AcDbLine
 62
7
  6
BYLAYER
 10
67.8336126605
 20
55.4216299294
 11
67.8336126605
 21
77.5192891078
  0
LINE
  5
254
100
AcDbEntity
  8
0
100
AcDbLine
 62
7
  6
BYLAYER
 10
83.7855319005
 20
59.1211514382
 11
83.0827970771
 21
58.8295912455
  0
LINE
  5
255
100
AcDbEntity
  8
0
100
AcDbLine
 62
7
  6
BYLAYER
 10
83.7855319005
 20
73.819767599
 11
83.0827970771
 21
74.1113277917
  0
LINE
  5
256
100
AcDbEntity
  8
0
100
AcDbLine
 62
7
  6
BYLAYER
 10
68.5322547134
 20
54.4654595186
 11
68.5322547134
 21
78.4754595186
  0
LINE
  5
257
100
AcDbEntity
  8
0
100
AcDbLine
 62
7
  6
BYLAYER
 10
69.3953933659
 20
54.4654595186
 11
69.3953933659
 21
55.1202982307
  0
LINE
  5
258
100
AcDbEntity
  8
0
100
AcDbLine
 62
7
  6
BYLAYER
 10
69.3953933659
 20
65.8156208065
 11
69.3953933659
 21
67.1252982307
  0
LINE
  5
259
100
AcDbEntity
  8
0
100
AcDbLine
 62
7
  6
BYLAYER
 10
69.3953933659
 20
77.8206208065
 11
69.3953933659
 21
78.4754595186
  0
LINE
  5
25A
100
AcDbEntity
  8
0
100
AcDbLine
 62
7
  6
BYLAYER
 10
70.669116061
 20
78.4754595186
 11
70.669116061
 21
77.8206208065
  0
LINE
  5
25B
100
AcDbEntity
  8
0
100
AcDbLine
 62
7
  6
BYLAYER
 10
70.669116061
 20
67.1252982307
 11
70.669116061
 21
65.8156208065
  0
LINE
  5
25C
100
AcDbEntity
  8
0
100
AcDbLine
 62
7
  6
BYLAYER
 10
70.669116061
 20
55.1202982307
 11
70.669116061
 21
54.4654595186
  0
LINE
  5
25D
100
AcDbEntity
  8
0
100
AcDbLine
 62
7
  6
BYLAYER
 10
71.5322547134
 20
78.4754595186
 11
71.5322547134
 21
54.4654595186
  0
LINE
  5
25E
100
AcDbEntity
  8
0
100
AcDbLine
 62
7
  6
BYLAYER
 10
79.6396719032
 20
58.0752811304
 11
79.0377321577
 21
57.4771035083
  0
LINE
  5
25F
100
AcDbEntity
  8
0
100
AcDbLine
 62
7
  6
BYLAYER
 10
79.6396719032
 20
74.8656379068
 11
79.0377321577
 21
75.4638155289
  0
LINE
  5
260
100
AcDbEntity
  8
0
100
AcDbLine
 62
7
  6
BYLAYER
 10
79.0377321577
 20
75.4638155289
 11
79.0377321577
 21
57.4771035083
  0
LINE
  5
261
100
AcDbEntity
  8
0
100
AcDbLine
 62
7
  6
BYLAYER
 10
79.6396719032
 20
74.8654145222
 11
79.6396719032
 21
58.075504515
  0
LINE
  5
262
100
AcDbEntity
  8
0
100
AcDbLine
 62
7
  6
BYLAYER
 10
80.6366346067
 20
74.76384099
 11
80.6366346067
 21
58.1770780472
  0
LINE
  5
263
100
AcDbEntity
  8
0
100
AcDbLine
 62
7
  6
BYLAYER
 10
80.8360271474
 20
58.1770780472
 11
80.8360271474
 21
74.76384099
  0
LINE
  5
264
100
AcDbEntity
  8
0
100
AcDbLine
 62
7
  6
BYLAYER
 10
82.7358994692
 20
74.7640605748
 11
82.7358994692
 21
58.1768584624
  0
LINE
  5
265
100
AcDbEntity
  8
0
100
AcDbLine
 62
7
  6
BYLAYER
 10
82.9352920099
 20
74.5646680341
 11
82.9352920099
 21
58.3762510031
  0
LINE
  5
266
100
AcDbEntity
  8
0
100
AcDbLine
 62
7
  6
BYLAYER
 10
83.0827970771
 20
74.1113277917
 11
83.0827970771
 21
58.8295912455
  0
LINE
  5
267
100
AcDbEntity
  8
0
100
AcDbLine
 62
7
  6
BYLAYER
 10
83.7855319005
 20
73.819767599
 11
83.7855319005
 21
59.1211514382
  0
LINE
  5
268
100
AcDbEntity
  8
0
100
AcDbLine
 62
7
  6
BYLAYER
 10
83.9322547134
 20
73.4659441018
 11
83.9322547134
 21
59.4749749354
  0
LINE
  5
269
100
AcDbEntity
  8
0
100
AcDbLine
 62
7
  6
BYLAYER
 10
83.0827970771
 20
58.8295912455
 11
82.9352920099
 21
58.4740662118
  0
LINE
  5
26A
100
AcDbEntity
  8
0
100
AcDbLine
 62
7
  6
BYLAYER
 10
83.9322547134
 20
59.4747910387
 11
83.7855319005
 21
59.1211514382
  0
LINE
  5
26B
100
AcDbEntity
  8
0
100
AcDbLine
 62
7
  6
BYLAYER
 10
83.0827970771
 20
74.1113277917
 11
82.9352920099
 21
74.4668528254
  0
LINE
  5
26C
100
AcDbEntity
  8
0
100
AcDbLine
 62
7
  6
BYLAYER
 10
83.9322547134
 20
73.4661279985
 11
83.7855319005
 21
73.819767599
  0
ARC
  5
26D
100
AcDbEntity
  8
0
100
AcDbCircle
 62
7
  6
BYLAYER
 10
82.7362414804
 20
74.5650100453
 40
0.1990508233
100
AcDbArc
 50
359.9015537403
 51
90.0984462597
  0
ARC
  5
26E
100
AcDbEntity
  8
0
100
AcDbCircle
 62
7
  6
BYLAYER
 10
82.7362414804
 20
58.3759089919
 40
0.1990508233
100
AcDbArc
 50
269.9015537403
 51
0.0984462597
  0
SPLINE
  5
26F
100
AcDbEntity
  8
0
100
AcDbSpline
 62
7
  6
BYLAYER
 70
0
 71
3
 72
11
 73
7
 74
0
 42
0.0000001
 43
0.0000001
 44
0.0000000001
 40
0.0
 40
0.0
 40
0.0
 40
0.0
 40
0.249047688
 40
0.4985365606
 40
0.7487968618
 40
1.0
 40
1.0
 40
1.0
 40
1.0
 10
68.5322547134
 20
72.4729595186
 30
0.0
 10
68.5322547134
 20
72.9242263446
 30
0.0
 10
68.5716471492
 20
73.8280359859
 30
0.0
 10
68.7451342612
 20
75.1751108731
 30
0.0
 10
69.0208059153
 20
76.5087387582
 30
0.0
 10
69.2626304034
 20
77.385240579
 30
0.0
 10
69.3953933659
 20
77.8206208065
 30
0.0
  0
SPLINE
  5
270
100
AcDbEntity
  8
0
100
AcDbSpline
 62
7
  6
BYLAYER
 70
0
 71
3
 72
11
 73
7
 74
0
 42
0.0000001
 43
0.0000001
 44
0.0000000001
 40
0.0
 40
0.0
 40
0.0
 40
0.0
 40
0.2511976629
 40
0.5014566469
 40
0.750949112
 40
1.0
 40
1.0
 40
1.0
 40
1.0
 10
70.669116061
 20
65.8156208065
 30
0.0
 10
70.8018761208
 20
65.3802500978
 30
0.0
 10
71.0436195737
 20
64.5037410026
 30
0.0
 10
71.3194326938
 20
63.1701486589
 30
0.0
 10
71.4928450384
 20
61.8230511659
 30
0.0
 10
71.5322547134
 20
60.9192321129
 30
0.0
 10
71.5322547134
 20
60.4679595186
 30
0.0
  0
SPLINE
  5
271
100
AcDbEntity
  8
0
100
AcDbSpline
 62
7
  6
BYLAYER
 70
0
 71
3
 72
11
 73
7
 74
0
 42
0.0000001
 43
0.0000001
 44
0.0000000001
 40
0.0
 40
0.0
 40
0.0
 40
0.0
 40
0.249047688
 40
0.4985365606
 40
0.7487968618
 40
1.0
 40
1.0
 40
1.0
 40
1.0
 10
71.5322547134
 20
72.4729595186
 30
0.0
 10
71.5322547134
 20
72.0216926926
 30
0.0
 10
71.4928622777
 20
71.1178830513
 30
0.0
 10
71.3193751656
 20
69.7708081641
 30
0.0
 10
71.0437035116
 20
68.437180279
 30
0.0
 10
70.8018790235
 20
67.5606784582
 30
0.0
 10
70.669116061
 20
67.1252982307
 30
0.0
  0
SPLINE
  5
272
100
AcDbEntity
  8
0
100
AcDbSpline
 62
7
  6
BYLAYER
 70
0
 71
3
 72
11
 73
7
 74
0
 42
0.0000001
 43
0.0000001
 44
0.0000000001
 40
0.0
 40
0.0
 40
0.0
 40
0.0
 40
0.2511976629
 40
0.5014566469
 40
0.750949112
 40
1.0
 40
1.0
 40
1.0
 40
1.0
 10
69.3953933659
 20
55.1202982307
 30
0.0
 10
69.262633306
 20
55.5556689394
 30
0.0
 10
69.0208898532
 20
56.4321780346
 30
0.0
 10
68.745076733
 20
57.7657703783
 30
0.0
 10
68.5716643884
 20
59.1128678713
 30
0.0
 10
68.5322547134
 20
60.0166869243
 30
0.0
 10
68.5322547134
 20
60.4679595186
 30
0.0
  0
SPLINE
  5
273
100
AcDbEntity
  8
0
100
AcDbSpline
 62
7
  6
BYLAYER
 70
0
 71
3
 72
11
 73
7
 74
0
 42
0.0000001
 43
0.0000001
 44
0.0000000001
 40
0.0
 40
0.0
 40
0.0
 40
0.0
 40
0.249047688
 40
0.4985365606
 40
0.7487968618
 40
1.0
 40
1.0
 40
1.0
 40
1.0
 10
71.5322547134
 20
60.4679595186
 30
0.0
 10
71.5322547134
 20
60.0166926926
 30
0.0
 10
71.4928622777
 20
59.1128830513
 30
0.0
 10
71.3193751656
 20
57.7658081641
 30
0.0
 10
71.0437035116
 20
56.432180279
 30
0.0
 10
70.8018790235
 20
55.5556784582
 30
0.0
 10
70.669116061
 20
55.1202982307
 30
0.0
  0
SPLINE
  5
274
100
AcDbEntity
  8
0
100
AcDbSpline
 62
7
  6
BYLAYER
 70
0
 71
3
 72
11
 73
7
 74
0
 42
0.0000001
 43
0.0000001
 44
0.0000000001
 40
0.0
 40
0.0
 40
0.0
 40
0.0
 40
0.2511976629
 40
0.5014566469
 40
0.750949112
 40
1.0
 40
1.0
 40
1.0
 40
1.0
 10
70.669116061
 20
77.8206208065
 30
0.0
 10
70.8018761208
 20
77.3852500978
 30
0.0
 10
71.0436195737
 20
76.5087410026
 30
0.0
 10
71.3194326938
 20
75.1751486589
 30
0.0
 10
71.4928450384
 20
73.8280511659
 30
0.0
 10
71.5322547134
 20
72.9242321129
 30
0.0
 10
71.5322547134
 20
72.4729595186
 30
0.0
  0
SPLINE
  5
275
100
AcDbEntity
  8
0
100
AcDbSpline
 62
7
  6
BYLAYER
 70
0
 71
3
 72
11
 73
7
 74
0
 42
0.0000001
 43
0.0000001
 44
0.0000000001
 40
0.0
 40
0.0
 40
0.0
 40
0.0
 40
0.249047688
 40
0.4985365606
 40
0.7487968618
 40
1.0
 40
1.0
 40
1.0
 40
1.0
 10
68.5322547134
 20
60.4679595186
 30
0.0
 10
68.5322547134
 20
60.9192263446
 30
0.0
 10
68.5716471492
 20
61.8230359859
 30
0.0
 10
68.7451342612
 20
63.1701108731
 30
0.0
 10
69.0208059153
 20
64.5037387582
 30
0.0
 10
69.2626304034
 20
65.380240579
 30
0.0
 10
69.3953933659
 20
65.8156208065
 30
0.0
  0
SPLINE
  5
276
100
AcDbEntity
  8
0
100
AcDbSpline
 62
7
  6
BYLAYER
 70
0
 71
3
 72
11
 73
7
 74
0
 42
0.0000001
 43
0.0000001
 44
0.0000000001
 40
0.0
 40
0.0
 40
0.0
 40
0.0
 40
0.2511976629
 40
0.5014566469
 40
0.750949112
 40
1.0
 40
1.0
 40
1.0
 40
1.0
 10
69.3953933659
 20
67.1252982307
 30
0.0
 10
69.262633306
 20
67.5606689394
 30
0.0
 10
69.0208898532
 20
68.4371780346
 30
0.0
 10
68.745076733
 20
69.7707703783
 30
0.0
 10
68.5716643884
 20
71.1178678713
 30
0.0
 10
68.5322547134
 20
72.0216869243
 30
0.0
 10
68.5322547134
 20
72.4729595186
 30
0.0
  0
SPLINE
  5
277
100
AcDbEntity
  8
0
100
AcDbSpline
 62
7
  6
BYLAYER
 70
0
 71
3
 72
11
 73
7
 74
0
 42
0.0000001
 43
0.0000001
 44
0.0000000001
 40
0.0
 40
0.0
 40
0.0
 40
0.0
 40
0.249047688
 40
0.4985365606
 40
0.7487968618
 40
1.0
 40
1.0
 40
1.0
 40
1.0
 10
51.5322547134
 20
60.4679595186
 30
0.0
 10
51.5322547134
 20
60.0166926926
 30
0.0
 10
51.4928622777
 20
59.1128830513
 30
0.0
 10
51.3193751656
 20
57.7658081641
 30
0.0
 10
51.0437035116
 20
56.432180279
 30
0.0
 10
50.8018790235
 20
55.5556784582
 30
0.0
 10
50.669116061
 20
55.1202982307
 30
0.0
  0
SPLINE
  5
278
100
AcDbEntity
  8
0
100
AcDbSpline
 62
7
  6
BYLAYER
 70
0
 71
3
 72
11
 73
7
 74
0
 42
0.0000001
 43
0.0000001
 44
0.0000000001
 40
0.0
 40
0.0
 40
0.0
 40
0.0
 40
0.2511976629
 40
0.5014566469
 40
0.750949112
 40
1.0
 40
1.0
 40
1.0
 40
1.0
 10
49.3953933659
 20
67.1252982307
 30
0.0
 10
49.262633306
 20
67.5606689394
 30
0.0
 10
49.0208898532
 20
68.4371780346
 30
0.0
 10
48.745076733
 20
69.7707703783
 30
0.0
 10
48.5716643884
 20
71.1178678713
 30
0.0
 10
48.5322547134
 20
72.0216869243
 30
0.0
 10
48.5322547134
 20
72.4729595186
 30
0.0
  0
SPLINE
  5
279
100
AcDbEntity
  8
0
100
AcDbSpline
 62
7
  6
BYLAYER
 70
0
 71
3
 72
11
 73
7
 74
0
 42
0.0000001
 43
0.0000001
 44
0.0000000001
 40
0.0
 40
0.0
 40
0.0
 40
0.0
 40
0.249047688
 40
0.4985365606
 40
0.7487968618
 40
1.0
 40
1.0
 40
1.0
 40
1.0
 10
48.5322547134
 20
60.4679595186
 30
0.0
 10
48.5322547134
 20
60.9192263446
 30
0.0
 10
48.5716471492
 20
61.8230359859
 30
0.0
 10
48.7451342612
 20
63.1701108731
 30
0.0
 10
49.0208059153
 20
64.5037387582
 30
0.0
 10
49.2626304034
 20
65.380240579
 30
0.0
 10
49.3953933659
 20
65.8156208065
 30
0.0
  0
SPLINE
  5
27A
100
AcDbEntity
  8
0
100
AcDbSpline
 62
7
  6
BYLAYER
 70
0
 71
3
 72
11
 73
7
 74
0
 42
0.0000001
 43
0.0000001
 44
0.0000000001
 40
0.0
 40
0.0
 40
0.0
 40
0.0
 40
0.2511976629
 40
0.5014566469
 40
0.750949112
 40
1.0
 40
1.0
 40
1.0
 40
1.0
 10
50.669116061
 20
77.8206208065
 30
0.0
 10
50.8018761208
 20
77.3852500978
 30
0.0
 10
51.0436195737
 20
76.5087410026
 30
0.0
 10
51.3194326938
 20
75.1751486589
 30
0.0
 10
51.4928450384
 20
73.8280511659
 30
0.0
 10
51.5322547134
 20
72.9242321129
 30
0.0
 10
51.5322547134
 20
72.4729595186
 30
0.0
  0
SPLINE
  5
27B
100
AcDbEntity
  8
0
100
AcDbSpline
 62
7
  6
BYLAYER
 70
0
 71
3
 72
11
 73
7
 74
0
 42
0.0000001
 43
0.0000001
 44
0.0000000001
 40
0.0
 40
0.0
 40
0.0
 40
0.0
 40
0.249047688
 40
0.4985365606
 40
0.7487968618
 40
1.0
 40
1.0
 40
1.0
 40
1.0
 10
48.5322547134
 20
72.4729595186
 30
0.0
 10
48.5322547134
 20
72.9242263446
 30
0.0
 10
48.5716471492
 20
73.8280359859
 30
0.0
 10
48.7451342612
 20
75.1751108731
 30
0.0
 10
49.0208059153
 20
76.5087387582
 30
0.0
 10
49.2626304034
 20
77.385240579
 30
0.0
 10
49.3953933659
 20
77.8206208065
 30
0.0
  0
SPLINE
  5
27C
100
AcDbEntity
  8
0
100
AcDbSpline
 62
7
  6
BYLAYER
 70
0
 71
3
 72
11
 73
7
 74
0
 42
0.0000001
 43
0.0000001
 44
0.0000000001
 40
0.0
 40
0.0
 40
0.0
 40
0.0
 40
0.2511976629
 40
0.5014566469
 40
0.750949112
 40
1.0
 40
1.0
 40
1.0
 40
1.0
 10
49.3953933659
 20
55.1202982307
 30
0.0
 10
49.262633306
 20
55.5556689394
 30
0.0
 10
49.0208898532
 20
56.4321780346
 30
0.0
 10
48.745076733
 20
57.7657703783
 30
0.0
 10
48.5716643884
 20
59.1128678713
 30
0.0
 10
48.5322547134
 20
60.0166869243
 30
0.0
 10
48.5322547134
 20
60.4679595186
 30
0.0
  0
SPLINE
  5
27D
100
AcDbEntity
  8
0
100
AcDbSpline
 62
7
  6
BYLAYER
 70
0
 71
3
 72
11
 73
7
 74
0
 42
0.0000001
 43
0.0000001
 44
0.0000000001
 40
0.0
 40
0.0
 40
0.0
 40
0.0
 40
0.249047688
 40
0.4985365606
 40
0.7487968618
 40
1.0
 40
1.0
 40
1.0
 40
1.0
 10
51.5322547134
 20
72.4729595186
 30
0.0
 10
51.5322547134
 20
72.0216926926
 30
0.0
 10
51.4928622777
 20
71.1178830513
 30
0.0
 10
51.3193751656
 20
69.7708081641
 30
0.0
 10
51.0437035116
 20
68.437180279
 30
0.0
 10
50.8018790235
 20
67.5606784582
 30
0.0
 10
50.669116061
 20
67.1252982307
 30
0.0
  0
SPLINE
  5
27E
100
AcDbEntity
  8
0
100
AcDbSpline
 62
7
  6
BYLAYER
 70
0
 71
3
 72
11
 73
7
 74
0
 42
0.0000001
 43
0.0000001
 44
0.0000000001
 40
0.0
 40
0.0
 40
0.0
 40
0.0
 40
0.2511976629
 40
0.5014566469
 40
0.750949112
 40
1.0
 40
1.0
 40
1.0
 40
1.0
 10
50.669116061
 20
65.8156208065
 30
0.0
 10
50.8018761208
 20
65.3802500978
 30
0.0
 10
51.0436195737
 20
64.5037410026
 30
0.0
 10
51.3194326938
 20
63.1701486589
 30
0.0
 10
51.4928450384
 20
61.8230511659
 30
0.0
 10
51.5322547134
 20
60.9192321129
 30
0.0
 10
51.5322547134
 20
60.4679595186
 30
0.0
  0
SPLINE
  5
27F
100
AcDbEntity
  8
0
100
AcDbSpline
 62
7
  6
BYLAYER
 70
0
 71
3
 72
11
 73
7
 74
0
 42
0.0000001
 43
0.0000001
 44
0.0000000001
 40
0.0
 40
0.0
 40
0.0
 40
0.0
 40
0.3215961624
 40
0.583004081
 40
0.8042605629
 40
1.0
 40
1.0
 40
1.0
 40
1.0
 10
9.9322547134
 20
67.9553837591
 30
0.0
 10
9.9322547134
 20
68.0465514472
 30
0.0
 10
9.9534668351
 20
68.2142235827
 30
0.0
 10
10.0666839653
 20
68.418877735
 30
0.0
 10
10.2219427676
 20
68.5406837603
 30
0.0
 10
10.3410590701
 20
68.5704595186
 30
0.0
 10
10.3965482644
 20
68.5704595186
 30
0.0
  0
SPLINE
  5
280
100
AcDbEntity
  8
0
100
AcDbSpline
 62
7
  6
BYLAYER
 70
0
 71
3
 72
15
 73
11
 74
0
 42
0.0000001
 43
0.0000001
 44
0.0000000001
 40
0.0
 40
0.0
 40
0.0
 40
0.0
 40
0.1069493484
 40
0.2296911255
 40
0.3624766872
 40
0.4998282162
 40
0.6371179001
 40
0.7699362793
 40
0.8929841918
 40
1.0
 40
1.0
 40
1.0
 40
1.0
 10
10.7898261849
 20
64.9855352781
 30
0.0
 10
10.7898261849
 20
65.0963212525
 30
0.0
 10
10.7643884284
 20
65.3342196142
 30
0.0
 10
10.6767560433
 20
65.6998522232
 30
0.0
 10
10.5483314881
 20
66.086402033
 30
0.0
 10
10.3945079037
 20
66.4794965887
 30
0.0
 10
10.2325246122
 20
66.869212876
 30
0.0
 10
10.0823668092
 20
67.247954529
 30
0.0
 10
9.9684309754
 20
67.6065137586
 30
0.0
 10
9.9322547134
 20
67.8445289408
 30
0.0
 10
9.9322547134
 20
67.9553837591
 30
0.0
  0
SPLINE
  5
281
100
AcDbEntity
  8
0
100
AcDbSpline
 62
7
  6
BYLAYER
 70
0
 71
3
 72
11
 73
7
 74
0
 42
0.0000001
 43
0.0000001
 44
0.0000000001
 40
0.0
 40
0.0
 40
0.0
 40
0.0
 40
0.3215961624
 40
0.583004081
 40
0.8042605629
 40
1.0
 40
1.0
 40
1.0
 40
1.0
 10
9.9322547134
 20
64.9855352781
 30
0.0
 10
9.9322547134
 20
64.89436759
 30
0.0
 10
9.9534668351
 20
64.7266954545
 30
0.0
 10
10.0666839653
 20
64.5220413022
 30
0.0
 10
10.2219427676
 20
64.4002352769
 30
0.0
 10
10.3410590701
 20
64.3704595186
 30
0.0
 10
10.3965482644
 20
64.3704595186
 30
0.0
  0
SPLINE
  5
282
100
AcDbEntity
  8
0
100
AcDbSpline
 62
7
  6
BYLAYER
 70
0
 71
3
 72
11
 73
7
 74
0
 42
0.0000001
 43
0.0000001
 44
0.0000000001
 40
0.0
 40
0.0
 40
0.0
 40
0.0
 40
0.2744142701
 40
0.5399920319
 40
0.7860665009
 40
1.0
 40
1.0
 40
1.0
 40
1.0
 10
10.3964657352
 20
66.4702603255
 30
0.0
 10
10.3430349069
 20
66.3376196003
 30
0.0
 10
10.2350358521
 20
66.0778067352
 30
0.0
 10
10.0837930821
 20
65.6969554597
 30
0.0
 10
9.968836605
 20
65.3364143269
 30
0.0
 10
9.9322547134
 20
65.0970165545
 30
0.0
 10
9.9322547134
 20
64.9855352781
 30
0.0
  0
SPLINE
  5
283
100
AcDbEntity
  8
0
100
AcDbSpline
 62
7
  6
BYLAYER
 70
0
 71
3
 72
15
 73
11
 74
0
 42
0.0000001
 43
0.0000001
 44
0.0000000001
 40
0.0
 40
0.0
 40
0.0
 40
0.0
 40
0.0968700474
 40
0.1943203478
 40
0.2959922812
 40
0.4060774583
 40
0.5287368323
 40
0.6673286353
 40
0.8242188722
 40
1.0
 40
1.0
 40
1.0
 40
1.0
 10
10.3965482644
 20
64.3704595186
 30
0.0
 10
10.4228083822
 20
64.3704595186
 30
0.0
 10
10.4757315686
 20
64.3766396559
 30
0.0
 10
10.5514220952
 20
64.405669898
 30
0.0
 10
10.6203678852
 20
64.4548566727
 30
0.0
 10
10.6800720589
 20
64.5241120536
 30
0.0
 10
10.7284311546
 20
64.6131366504
 30
0.0
 10
10.7640675602
 20
64.7212757554
 30
0.0
 10
10.785518787
 20
64.8475962896
 30
0.0
 10
10.7898261849
 20
64.9378834678
 30
0.0
 10
10.7898261849
 20
64.9855352781
 30
0.0
  0
ELLIPSE
  5
284
100
AcDbEntity
  8
0
100
AcDbEllipse
 62
7
  6
BYLAYER
 10
4.0556985298
 20
66.4704595186
 30
0.0
 11
28.199195141
 21
0.0
 31
0.0
 40
0.2391178298
 41
0.749158954
 42
0.7546399513
  0
ELLIPSE
  5
285
100
AcDbEntity
  8
0
100
AcDbEllipse
 62
7
  6
BYLAYER
 10
4.0556985298
 20
66.4704595186
 30
0.0
 11
28.199195141
 21
-0.0
 31
0.0
 40
0.2391178298
 41
-0.7546399513
 42
-0.749158954
  0
ELLIPSE
  5
286
100
AcDbEntity
  8
0
100
AcDbEllipse
 62
7
  6
BYLAYER
 10
10.9716984983
 20
66.4704595186
 30
0.0
 11
17.8026564402
 21
-0.0
 31
0.0
 40
0.4053590251
 41
-0.6897380114
 42
0.6897380114
  0
ELLIPSE
  5
287
100
AcDbEntity
  8
0
100
AcDbEllipse
 62
7
  6
BYLAYER
 10
15.3919036007
 20
66.4704595186
 30
0.0
 11
26.6351903247
 21
-0.0
 31
0.0
 40
0.1848141749
 41
-1.3842338709
 42
-1.2178261556
  0
ELLIPSE
  5
288
100
AcDbEntity
  8
0
100
AcDbEllipse
 62
7
  6
BYLAYER
 10
15.3919036007
 20
66.4704595186
 30
0.0
 11
26.6351903247
 21
-0.0
 31
0.0
 40
0.1848141749
 41
1.2178261556
 42
1.3842338709
  0
ENDSEC
  0
SECTION
  2
OBJECTS
  0
DICTIONARY
  5
C
100
AcDbDictionary
280
0
281
1
  3
ACAD_GROUP
350
D
  3
ACAD_MLINESTYLE
350
17
  3
ACAD_LAYOUT
350
1A
  3
ACAD_PLOTSETTINGS
350
19
  3
ACAD_PLOTSTYLENAME
350
E
  0
DICTIONARY
  5
D
102
{ACAD_REACTORS
330
C
102
}
100
AcDbDictionary
280
0
281
1
  0
ACDBDICTIONARYWDFLT
  5
E
102
{ACAD_REACTORS
330
C
102
}
100
AcDbDictionary
281
1
  3
Normal
350
F
100
AcDbDictionaryWithDefault
340
F
  0
DICTIONARY
  5
17
102
{ACAD_REACTORS
330
C
102
}
100
AcDbDictionary
280
0
281
1
  3
Standard
350
18
  0
DICTIONARY
  5
19
102
{ACAD_REACTORS
330
C
102
}
100
AcDbDictionary
281
1
  0
DICTIONARY
  5
1A
102
{ACAD_REACTORS
330
C
102
}
100
AcDbDictionary
281
1
  3
Model
350
289
  3
Layout1
350
28A
  0
ACDBPLACEHOLDER
  5
F
102
{ACAD_REACTORS
330
E
102
}
  0
MLINESTYLE
  5
18
102
{ACAD_REACTORS
330
17
102
}
100
AcDbMlineStyle
  2
STANDARD
 70
0
  3

 62
256
 51
90.0
 52
90.0
 71
2
 49
0.5
 62
256
  6
BYLAYER
 49
-0.5
 62
256
  6
BYLAYER
  0
LAYOUT
  5
289
102
{ACAD_REACTORS
330
1A
102
}
100
AcDbPlotSettings
  1

  2
none_device
  4

  6

 40
0.0
 41
0.0
 42
0.0
 43
0.0
 44
210.0
 45
297.0
 46
0.0
 47
0.0
 48
0.0
 49
0.0
140
0.0
141
0.0
142
1.0
143
1.0
 70
1024
 72
1
 73
0
 74
0
  7

 75
0
147
1.0
148
0.0
149
0.0
100
AcDbLayout
  1
Model
 70
0
 71
0
 10
0.0
 20
0.0
 11
210.0
 21
297.0
 12
0.0
 22
0.0
 32
0.0
 14
0.0
 24
0.0
 34
0.0
 15
0.0
 25
0.0
 35
0.0
146
0.0
 13
0.0
 23
0.0
 33
0.0
 16
1.0
 26
0.0
 36
0.0
 17
0.0
 27
1.0
 37
0.0
 76
0
330
210
345
0
346
0
  0
LAYOUT
  5
28A
102
{ACAD_REACTORS
330
1A
102
}
100
AcDbPlotSettings
  1

  2
none_device
  4

  6

 40
0.0
 41
0.0
 42
0.0
 43
0.0
 44
210.0
 45
297.0
 46
0.0
 47
0.0
 48
0.0
 49
0.0
140
0.0
141
0.0
142
1.0
143
1.0
 70
0
 72
1
 73
0
 74
0
  7

 75
0
147
1.0
148
0.0
149
0.0
100
AcDbLayout
  1
Layout1
 70
0
 71
1
 10
0.0
 20
0.0
 11
210.0
 21
297.0
 12
0.0
 22
0.0
 32
0.0
 14
0.0
 24
0.0
 34
0.0
 15
0.0
 25
0.0
 35
0.0
146
0.0
 13
0.0
 23
0.0
 33
0.0
 16
1.0
 26
0.0
 36
0.0
 17
0.0
 27
1.0
 37
0.0
 76
0
330
211
345
0
346
0
  0
ENDSEC
  0
EOF
