999
DXF file: C:\Users\sesa63760\Dev\_Creo\CAD\MCADPD0005302_3D-CAD\drw0001_7.dxf
999
Pro/ENGINEER 2019471 by Parametric Technology Corporation
  0
SECTION
  2
HEADER
  9
$ACADVER
  1
AC1024
  9
$DWGCODEPAGE
  3
ANSI_1252
  9
$EXTMAX
 10
75.717370643
 20
107.0859956236
 30
0.0
  9
$EXTMIN
 10
0.0
 20
0.0
 30
0.0
  9
$LIMMIN
 10
0.0
 20
0.0
  9
$LIMMAX
 10
75.717370643
 20
107.0859956236
  9
$VIEWCTR
 10
37.8586853215
 20
53.5429978118
  9
$VIEWSIZE
 40
107.0859956236
  9
$CLAYER
  8
0
  9
$LTSCALE
 40
6.9804204555
  9
$CELTYPE
  6
BYLAYER
  9
$DIMSCALE
 40
1.0
  9
$DIMASZ
 40
0.9013972696
  9
$DIMEXO
 40
1.0
  9
$DIMDLI
 40
4.822835951
  9
$DIMEXE
 40
1.0
  9
$DIMCEN
 40
1.14225062
  9
$DIMLFAC
 40
1.0
  9
$DIMBLK
  1
_FILLED
  9
$DIMALT
 70
0
  9
$DIMALTF
 40
0.0393700787
  9
$DIMTXT
 40
1.2619561774
  9
$DIMTOL
 70
1
  9
$DIMLIM
 70
0
  9
$DIMTFAC
 40
1.0
  9
$DIMTP
 40
0.01
  9
$DIMTM
 40
0.01
  9
$DIMGAP
 40
0.625
  9
$DIMDSEP
 70
46
  9
$AUNITS
 70
0
  9
$PDMODE
 70
3
  9
$PDSIZE
 40
0.3125
  9
$HANDSEED
  5
2D7
  9
$TILEMODE
 70
1
  9
$MEASUREMENT
 70
1
  9
$INSUNITS
 70
4
  0
ENDSEC
  0
SECTION
  2
CLASSES
  0
CLASS
  1
ACDBDICTIONARYWDFLT
  2
AcDbDictionaryWithDefault
  3
AutoCAD 2000
 90
0
 91
1
280
0
281
0
  0
CLASS
  1
ACDBPLACEHOLDER
  2
AcDbPlaceHolder
  3
AutoCAD 2000
 90
0
 91
1
280
0
281
0
  0
CLASS
  1
LAYOUT
  2
AcDbLayout
  3
AutoCAD 2000
 90
0
 91
0
280
0
281
0
  0
ENDSEC
  0
SECTION
  2
TABLES
  0
TABLE
  2
VPORT
  5
8
100
AcDbSymbolTable
 70
2
  0
VPORT
  5
1F4
100
AcDbSymbolTableRecord
100
AcDbViewportTableRecord
  2
*ACTIVE
 70
0
 10
0.0
 20
0.0
 11
1.0
 21
1.0
 12
37.8586853215
 22
53.5429978118
 13
0.0
 23
0.0
 14
1.0
 24
1.0
 15
0.0
 25
0.0
 16
0.0
 26
0.0
 36
1.0
 17
0.0
 27
0.0
 37
0.0
 40
107.0859956236
 41
0.7070707071
 42
50.0
 43
0.0
 44
0.0
 50
0.0
 51
0.0
 71
0
 72
100
 73
1
 74
1
 75
0
 76
0
 77
0
 78
0
  0
ENDTAB
  0
TABLE
  2
LTYPE
  5
5
100
AcDbSymbolTable
 70
6
  0
LTYPE
  5
14
100
AcDbSymbolTableRecord
100
AcDbLinetypeTableRecord
  2
BYBLOCK
 70
0
  3

 72
65
 73
0
 40
0.0
  0
LTYPE
  5
15
100
AcDbSymbolTableRecord
100
AcDbLinetypeTableRecord
  2
BYLAYER
 70
0
  3

 72
65
 73
0
 40
0.0
  0
LTYPE
  5
16
100
AcDbSymbolTableRecord
100
AcDbLinetypeTableRecord
  2
CONTINUOUS
 70
64
  3
Solid line
 72
65
 73
0
 40
0.0
  0
LTYPE
  5
1F5
100
AcDbSymbolTableRecord
100
AcDbLinetypeTableRecord
  2
CENTER
 70
64
  3
____ _ ____ _ ____ _ ____ _ ____ _ ____ _ ____
 72
65
 73
4
 40
0.6
 49
0.375
 74
0
 49
-0.075
 74
0
 49
0.075
 74
0
 49
-0.075
 74
0
  0
LTYPE
  5
1F6
100
AcDbSymbolTableRecord
100
AcDbLinetypeTableRecord
  2
HIDDEN
 70
64
  3
- - - - - - - - - - - - - - - - - - - -
 72
65
 73
2
 40
0.2
 49
0.1
 74
0
 49
-0.1
 74
0
  0
LTYPE
  5
1F7
100
AcDbSymbolTableRecord
100
AcDbLinetypeTableRecord
  2
PHANTOM
 70
64
  3
_____ _ _ _____ _ _ _____ _ _ _____
 72
65
 73
6
 40
0.8
 49
0.45
 74
0
 49
-0.05
 74
0
 49
0.1
 74
0
 49
-0.05
 74
0
 49
0.1
 74
0
 49
-0.05
 74
0
  0
LTYPE
  5
1F8
100
AcDbSymbolTableRecord
100
AcDbLinetypeTableRecord
  2
DOT
 70
64
  3
. . . . . . . . . . . . . . . . . . . .
 72
65
 73
2
 40
0.2
 49
0.1
 74
0
 49
-0.1
 74
0
  0
LTYPE
  5
1F9
100
AcDbSymbolTableRecord
100
AcDbLinetypeTableRecord
  2
DASHED
 70
64
  3
- - - - - - - - - - - - - - - - - - - -
 72
65
 73
2
 40
0.2
 49
0.1
 74
0
 49
-0.1
 74
0
  0
ENDTAB
  0
TABLE
  2
LAYER
  5
2
100
AcDbSymbolTable
 70
36
  0
LAYER
  5
10
100
AcDbSymbolTableRecord
100
AcDbLayerTableRecord
  2
0
 70
0
 62
7
  6
CONTINUOUS
370
-3
390
F
  0
LAYER
  5
1FA
100
AcDbSymbolTableRecord
100
AcDbLayerTableRecord
  2
DEFAULT_1
 70
0
 62
7
  6
CENTER
370
-3
390
F
  0
LAYER
  5
1FB
100
AcDbSymbolTableRecord
100
AcDbLayerTableRecord
  2
DEFAULT_2
 70
0
 62
7
  6
HIDDEN
370
-3
390
F
  0
LAYER
  5
1FC
100
AcDbSymbolTableRecord
100
AcDbLayerTableRecord
  2
DEFAULT_3
 70
0
 62
7
  6
PHANTOM
370
-3
390
F
  0
LAYER
  5
1FD
100
AcDbSymbolTableRecord
100
AcDbLayerTableRecord
  2
00_COMPONENTS
 70
0
 62
7
  6
CONTINUOUS
370
-3
390
F
  0
LAYER
  5
1FE
100
AcDbSymbolTableRecord
100
AcDbLayerTableRecord
  2
01_1_DEFAULT_DATUMS
 70
0
 62
7
  6
CONTINUOUS
370
-3
390
F
  0
LAYER
  5
1FF
100
AcDbSymbolTableRecord
100
AcDbLayerTableRecord
  2
01_PLANES
 70
0
 62
7
  6
CONTINUOUS
370
-3
390
F
  0
LAYER
  5
200
100
AcDbSymbolTableRecord
100
AcDbLayerTableRecord
  2
02_COORD_SYS
 70
0
 62
7
  6
CONTINUOUS
370
-3
390
F
  0
LAYER
  5
201
100
AcDbSymbolTableRecord
100
AcDbLayerTableRecord
  2
03_AXES
 70
0
 62
7
  6
CONTINUOUS
370
-3
390
F
  0
LAYER
  5
202
100
AcDbSymbolTableRecord
100
AcDbLayerTableRecord
  2
04_POINTS
 70
0
 62
7
  6
CONTINUOUS
370
-3
390
F
  0
LAYER
  5
203
100
AcDbSymbolTableRecord
100
AcDbLayerTableRecord
  2
05_CURVES
 70
0
 62
7
  6
CONTINUOUS
370
-3
390
F
  0
LAYER
  5
204
100
AcDbSymbolTableRecord
100
AcDbLayerTableRecord
  2
06_SURFS
 70
0
 62
7
  6
CONTINUOUS
370
-3
390
F
  0
LAYER
  5
205
100
AcDbSymbolTableRecord
100
AcDbLayerTableRecord
  2
07_COSMETICS
 70
0
 62
7
  6
CONTINUOUS
370
-3
390
F
  0
LAYER
  5
206
100
AcDbSymbolTableRecord
100
AcDbLayerTableRecord
  2
10_NOTES
 70
0
 62
7
  6
CONTINUOUS
370
-3
390
F
  0
LAYER
  5
207
100
AcDbSymbolTableRecord
100
AcDbLayerTableRecord
  2
11_NOTES_PUB
 70
0
 62
7
  6
CONTINUOUS
370
-3
390
F
  0
LAYER
  5
208
100
AcDbSymbolTableRecord
100
AcDbLayerTableRecord
  2
13_REF_GTOL
 70
0
 62
7
  6
CONTINUOUS
370
-3
390
F
  0
LAYER
  5
209
100
AcDbSymbolTableRecord
100
AcDbLayerTableRecord
  2
16_MISC
 70
0
 62
7
  6
CONTINUOUS
370
-3
390
F
  0
LAYER
  5
20A
100
AcDbSymbolTableRecord
100
AcDbLayerTableRecord
  2
17_NO_PRINT
 70
0
 62
7
  6
CONTINUOUS
370
-3
390
F
  0
LAYER
  5
20B
100
AcDbSymbolTableRecord
100
AcDbLayerTableRecord
  2
18_DATUM_CAMS_JOINTS
 70
0
 62
7
  6
CONTINUOUS
370
-3
390
F
  0
LAYER
  5
20C
100
AcDbSymbolTableRecord
100
AcDbLayerTableRecord
  2
19_DATUM_FUNCTIONAL
 70
0
 62
7
  6
CONTINUOUS
370
-3
390
F
  0
LAYER
  5
20D
100
AcDbSymbolTableRecord
100
AcDbLayerTableRecord
  2
20_DATUM_KINEMATIC_SCHEME
 70
0
 62
7
  6
CONTINUOUS
370
-3
390
F
  0
ENDTAB
  0
TABLE
  2
STYLE
  5
3
100
AcDbSymbolTable
 70
1
  0
STYLE
  5
11
100
AcDbSymbolTableRecord
100
AcDbTextStyleTableRecord
  2
STANDARD
 70
0
 40
0.0
 41
1.0
 50
0.0
 71
0
 42
0.2
  3
ARIAL.TTF
  4

  0
STYLE
  5
20E
100
AcDbSymbolTableRecord
100
AcDbTextStyleTableRecord
  2
TEXTSTYLE_1
 70
0
 40
0.0
 41
0.8
 50
0.0
 71
0
 42
0.2
  3
gdt
  4

  0
ENDTAB
  0
TABLE
  2
VIEW
  5
6
100
AcDbSymbolTable
 70
0
  0
ENDTAB
  0
TABLE
  2
UCS
  5
7
100
AcDbSymbolTable
 70
0
  0
ENDTAB
  0
TABLE
  2
APPID
  5
9
100
AcDbSymbolTable
 70
1
  0
APPID
  5
20F
100
AcDbSymbolTableRecord
100
AcDbRegAppTableRecord
  2
ACAD
 70
0
  0
ENDTAB
  0
TABLE
  2
BLOCK_RECORD
  5
1
100
AcDbSymbolTable
 70
0
  0
BLOCK_RECORD
  5
210
100
AcDbSymbolTableRecord
100
AcDbBlockTableRecord
  2
*Model_Space
  0
BLOCK_RECORD
  5
211
100
AcDbSymbolTableRecord
100
AcDbBlockTableRecord
  2
*Paper_Space
  0
BLOCK_RECORD
  5
212
100
AcDbSymbolTableRecord
100
AcDbBlockTableRecord
  2
_FILLED
  0
ENDTAB
  0
TABLE
  2
DIMSTYLE
  5
A
100
AcDbSymbolTable
 70
1
100
AcDbDimStyleTable
 71
0
  0
DIMSTYLE
105
213
100
AcDbSymbolTableRecord
100
AcDbDimStyleTableRecord
  2
STANDARD
 70
0
  3

  4

 40
1.0
 41
0.9013972696
 42
1.0
 43
0.38
 44
1.0
 45
0.0
 46
0.0
 47
0.01
 48
0.01
140
1.2619561774
141
0.09
142
0.0
143
25.4
144
1.0
145
0.0
146
1.0
147
0.625
 71
1
 72
0
 73
0
 74
0
 75
0
 76
0
 77
1
 78
8
 79
2
170
0
171
1
172
0
173
0
174
0
175
0
176
0
177
0
178
0
270
2
179
2
271
2
272
2
273
2
274
2
275
0
280
0
281
0
282
0
283
1
284
8
285
0
286
0
287
3
288
0
340
11
278
46
341
212
342
212
343
212
344
212
  0
ENDTAB
  0
ENDSEC
  0
SECTION
  2
BLOCKS
  0
BLOCK
  5
20
100
AcDbEntity
  8
0
100
AcDbBlockBegin
  2
*Model_Space
 70
0
 10
0.0
 20
0.0
 30
0.0
  3
*Model_Space
  1

  0
ENDBLK
  5
21
100
AcDbEntity
  8
0
100
AcDbBlockEnd
  0
BLOCK
  5
1C
100
AcDbEntity
  8
0
100
AcDbBlockBegin
  2
*Paper_Space
 70
0
 10
0.0
 20
0.0
 30
0.0
  3
*Paper_Space
  1

  0
ENDBLK
  5
1D
100
AcDbEntity
  8
0
100
AcDbBlockEnd
  0
BLOCK
  5
214
100
AcDbEntity
  8
0
100
AcDbBlockBegin
  2
_FILLED
 70
64
 10
0.0
 20
0.0
  3
_FILLED
  1

  0
SOLID
  5
215
100
AcDbEntity
  8
0
  6
BYBLOCK
 62
0
100
AcDbTrace
 10
0.0
 20
0.0
 11
-1.0
 21
0.25
 12
-1.0
 22
-0.25
 13
-1.0
 23
-0.25
  0
ENDBLK
  5
216
100
AcDbEntity
  8
0
  6
BYBLOCK
 62
0
100
AcDbBlockEnd
  0
ENDSEC
  0
SECTION
  2
ENTITIES
  0
LINE
  5
217
100
AcDbEntity
  8
0
100
AcDbLine
 62
7
  6
BYLAYER
 10
8.4697575328
 20
21.9479029514
 11
8.869757533
 21
21.2550826279
  0
LINE
  5
218
100
AcDbEntity
  8
0
100
AcDbLine
 62
7
  6
BYLAYER
 10
8.869757533
 20
21.2550826305
 11
56.5497575316
 21
21.2550826305
  0
LINE
  5
219
100
AcDbEntity
  8
0
100
AcDbLine
 62
7
  6
BYLAYER
 10
62.1930498265
 20
21.2550826305
 11
66.9997575306
 21
21.2550826305
  0
LINE
  5
21A
100
AcDbEntity
  8
0
100
AcDbLine
 62
7
  6
BYLAYER
 10
61.9811400201
 20
21.3271837658
 11
56.5913851415
 21
21.3271837658
  0
LINE
  5
21B
100
AcDbEntity
  8
0
100
AcDbLine
 62
7
  6
BYLAYER
 10
61.5568218159
 20
21.6550826305
 11
56.3999329817
 21
21.6550826305
  0
LINE
  5
21C
100
AcDbEntity
  8
0
100
AcDbLine
 62
7
  6
BYLAYER
 10
8.0397575316
 20
22.0550826305
 11
8.0397575316
 21
86.3550826305
  0
LINE
  5
21D
100
AcDbEntity
  8
0
100
AcDbLine
 62
7
  6
BYLAYER
 10
8.4697575316
 20
22.0550826305
 11
8.4697575316
 21
21.9479029514
  0
LINE
  5
21E
100
AcDbEntity
  8
0
100
AcDbLine
 62
7
  6
BYLAYER
 10
8.4697575316
 20
21.9479029535
 11
56.0197575316
 21
21.9479029535
  0
LINE
  5
21F
100
AcDbEntity
  8
0
100
AcDbLine
 62
7
  6
BYLAYER
 10
56.0397575316
 20
21.9479029535
 11
56.0575485188
 21
21.9479029535
  0
LINE
  5
220
100
AcDbEntity
  8
0
100
AcDbLine
 62
7
  6
BYLAYER
 10
61.7359524965
 20
21.9479029535
 11
67.3997575316
 21
21.9479029535
  0
LINE
  5
221
100
AcDbEntity
  8
0
100
AcDbLine
 62
7
  6
BYLAYER
 10
8.0397575316
 20
22.0550826305
 11
56.0197575316
 21
22.0550826305
  0
LINE
  5
222
100
AcDbEntity
  8
0
100
AcDbLine
 62
7
  6
BYLAYER
 10
56.0575485186
 20
22.0550826305
 11
67.9397575316
 21
22.0550826305
  0
LINE
  5
223
100
AcDbEntity
  8
0
100
AcDbLine
 62
7
  6
BYLAYER
 10
9.5397575316
 20
74.6550826305
 11
9.5397575316
 21
35.6550826305
  0
LINE
  5
224
100
AcDbEntity
  8
0
100
AcDbLine
 62
7
  6
BYLAYER
 10
10.8897575316
 20
58.6550826305
 11
10.8897575316
 21
53.1550826305
  0
LINE
  5
225
100
AcDbEntity
  8
0
100
AcDbLine
 62
7
  6
BYLAYER
 10
11.8897575316
 20
57.6550826305
 11
11.8897575316
 21
54.1550826305
  0
LINE
  5
226
100
AcDbEntity
  8
0
100
AcDbLine
 62
7
  6
BYLAYER
 10
12.8897575316
 20
64.8029407398
 11
12.8897575316
 21
58.6550826305
  0
LINE
  5
227
100
AcDbEntity
  8
0
100
AcDbLine
 62
7
  6
BYLAYER
 10
13.4543710876
 20
30.0550826305
 11
13.4543710876
 21
22.0550826305
  0
LINE
  5
228
100
AcDbEntity
  8
0
100
AcDbLine
 62
7
  6
BYLAYER
 10
13.6370965289
 20
22.0550826305
 11
13.6370965289
 21
30.0550826305
  0
LINE
  5
229
100
AcDbEntity
  8
0
100
AcDbLine
 62
7
  6
BYLAYER
 10
13.8897575316
 20
64.1650826305
 11
13.8897575316
 21
57.6550826305
  0
LINE
  5
22A
100
AcDbEntity
  8
0
100
AcDbLine
 62
7
  6
BYLAYER
 10
14.1335625654
 20
22.0550826305
 11
14.1335625654
 21
21.9479029535
  0
LINE
  5
22B
100
AcDbEntity
  8
0
100
AcDbLine
 62
7
  6
BYLAYER
 10
14.250186032
 20
30.0550826305
 11
14.250186032
 21
22.0550826305
  0
LINE
  5
22C
100
AcDbEntity
  8
0
100
AcDbLine
 62
7
  6
BYLAYER
 10
67.9397575316
 20
30.0550826305
 11
56.0397575316
 21
30.0550826305
  0
LINE
  5
22D
100
AcDbEntity
  8
0
100
AcDbLine
 62
7
  6
BYLAYER
 10
8.0397575316
 20
30.0550826305
 11
19.9397575316
 21
30.0550826305
  0
LINE
  5
22E
100
AcDbEntity
  8
0
100
AcDbLine
 62
7
  6
BYLAYER
 10
15.0397575316
 20
85.8550826305
 11
15.0397575316
 21
86.3550826305
  0
LINE
  5
22F
100
AcDbEntity
  8
0
100
AcDbLine
 62
7
  6
BYLAYER
 10
19.1161368826
 20
66.6550826305
 11
18.89444222
 21
65.6550826305
  0
LINE
  5
230
100
AcDbEntity
  8
0
100
AcDbLine
 62
7
  6
BYLAYER
 10
16.8733352214
 20
66.6550826305
 11
12.8897575316
 21
64.8029407398
  0
LINE
  5
231
100
AcDbEntity
  8
0
100
AcDbLine
 62
7
  6
BYLAYER
 10
26.0897575315
 20
35.1550826305
 11
25.5897575315
 21
35.6550826305
  0
LINE
  5
232
100
AcDbEntity
  8
0
100
AcDbLine
 62
7
  6
BYLAYER
 10
19.6397575316
 20
22.0550826305
 11
19.6397575316
 21
30.0550826305
  0
LINE
  5
233
100
AcDbEntity
  8
0
100
AcDbLine
 62
7
  6
BYLAYER
 10
19.7397575316
 20
22.0550826305
 11
19.7397575316
 21
21.9479029535
  0
LINE
  5
234
100
AcDbEntity
  8
0
100
AcDbLine
 62
7
  6
BYLAYER
 10
19.9397575316
 20
30.0550826305
 11
19.9397575316
 21
22.0550826305
  0
LINE
  5
235
100
AcDbEntity
  8
0
100
AcDbLine
 62
7
  6
BYLAYER
 10
10.8897575316
 20
53.1550826305
 11
11.8897575316
 21
54.1550826305
  0
LINE
  5
236
100
AcDbEntity
  8
0
100
AcDbLine
 62
7
  6
BYLAYER
 10
17.09444222
 20
65.6550826305
 11
13.8897575316
 21
64.1650826305
  0
LINE
  5
237
100
AcDbEntity
  8
0
100
AcDbLine
 62
7
  6
BYLAYER
 10
26.0897575316
 20
35.1550826305
 11
29.8897575316
 21
35.1550826305
  0
LINE
  5
238
100
AcDbEntity
  8
0
100
AcDbLine
 62
7
  6
BYLAYER
 10
46.0897575316
 20
35.1550826305
 11
49.8897575316
 21
35.1550826305
  0
LINE
  5
239
100
AcDbEntity
  8
0
100
AcDbLine
 62
7
  6
BYLAYER
 10
8.0397575316
 20
35.6550826305
 11
67.9397575316
 21
35.6550826305
  0
LINE
  5
23A
100
AcDbEntity
  8
0
100
AcDbLine
 62
7
  6
BYLAYER
 10
56.30334737
 20
21.4913519609
 11
56.0197575316
 21
21.6550826305
  0
LINE
  5
23B
100
AcDbEntity
  8
0
100
AcDbLine
 62
7
  6
BYLAYER
 10
26.5039710939
 20
35.1550826305
 11
26.2968643127
 21
35.6550826305
  0
LINE
  5
23C
100
AcDbEntity
  8
0
100
AcDbLine
 62
7
  6
BYLAYER
 10
16.8733352214
 20
66.6550826305
 11
17.09444222
 21
65.6550826305
  0
LINE
  5
23D
100
AcDbEntity
  8
0
100
AcDbLine
 62
7
  6
BYLAYER
 10
21.9897575316
 20
85.8550826305
 11
21.9897575316
 21
86.3550826305
  0
LINE
  5
23E
100
AcDbEntity
  8
0
100
AcDbLine
 62
7
  6
BYLAYER
 10
22.0897575315
 20
57.6550826305
 11
22.0897575315
 21
64.1650826305
  0
LINE
  5
23F
100
AcDbEntity
  8
0
100
AcDbLine
 62
7
  6
BYLAYER
 10
23.0897575316
 20
58.6550826305
 11
23.0897575316
 21
64.8021528913
  0
LINE
  5
240
100
AcDbEntity
  8
0
100
AcDbLine
 62
7
  6
BYLAYER
 10
23.0897575316
 20
64.8021528913
 11
22.0897575316
 21
64.1650826305
  0
LINE
  5
241
100
AcDbEntity
  8
0
100
AcDbLine
 62
7
  6
BYLAYER
 10
67.9397575316
 20
36.7550826305
 11
66.4397575316
 21
36.7550826305
  0
LINE
  5
242
100
AcDbEntity
  8
0
100
AcDbLine
 62
7
  6
BYLAYER
 10
9.5397575316
 20
36.7550826305
 11
8.0397575316
 21
36.7550826305
  0
LINE
  5
243
100
AcDbEntity
  8
0
100
AcDbLine
 62
7
  6
BYLAYER
 10
9.5397575316
 20
37.1550826305
 11
26.4397575316
 21
37.1550826305
  0
LINE
  5
244
100
AcDbEntity
  8
0
100
AcDbLine
 62
7
  6
BYLAYER
 10
29.5397575316
 20
37.1550826305
 11
46.4397575316
 21
37.1550826305
  0
LINE
  5
245
100
AcDbEntity
  8
0
100
AcDbLine
 62
7
  6
BYLAYER
 10
49.5397575316
 20
37.1550826305
 11
66.4397575316
 21
37.1550826305
  0
LINE
  5
246
100
AcDbEntity
  8
0
100
AcDbLine
 62
7
  6
BYLAYER
 10
10.8897575316
 20
58.6550826305
 11
11.8897575316
 21
57.6550826305
  0
LINE
  5
247
100
AcDbEntity
  8
0
100
AcDbLine
 62
7
  6
BYLAYER
 10
24.0897575315
 20
54.1550826305
 11
24.0897575315
 21
57.6550826305
  0
LINE
  5
248
100
AcDbEntity
  8
0
100
AcDbLine
 62
7
  6
BYLAYER
 10
25.0897575316
 20
53.1550826305
 11
25.0897575316
 21
58.6550826305
  0
LINE
  5
249
100
AcDbEntity
  8
0
100
AcDbLine
 62
7
  6
BYLAYER
 10
26.4397575316
 20
35.6550826305
 11
26.4397575316
 21
74.6550826305
  0
LINE
  5
24A
100
AcDbEntity
  8
0
100
AcDbLine
 62
7
  6
BYLAYER
 10
23.0897575315
 20
58.6550826305
 11
22.0897575315
 21
57.6550826305
  0
LINE
  5
24B
100
AcDbEntity
  8
0
100
AcDbLine
 62
7
  6
BYLAYER
 10
25.0897575316
 20
58.6550826305
 11
24.0897575316
 21
57.6550826305
  0
LINE
  5
24C
100
AcDbEntity
  8
0
100
AcDbLine
 62
7
  6
BYLAYER
 10
36.8733352214
 20
66.6550826305
 11
32.8897575316
 21
64.8029407398
  0
LINE
  5
24D
100
AcDbEntity
  8
0
100
AcDbLine
 62
7
  6
BYLAYER
 10
12.8897575316
 20
58.6550826305
 11
13.8897575316
 21
57.6550826305
  0
LINE
  5
24E
100
AcDbEntity
  8
0
100
AcDbLine
 62
7
  6
BYLAYER
 10
37.09444222
 20
65.6550826305
 11
33.8897575316
 21
64.1650826305
  0
LINE
  5
24F
100
AcDbEntity
  8
0
100
AcDbLine
 62
7
  6
BYLAYER
 10
25.0897575315
 20
53.1550826305
 11
24.0897575315
 21
54.1550826305
  0
LINE
  5
250
100
AcDbEntity
  8
0
100
AcDbLine
 62
7
  6
BYLAYER
 10
29.5397575316
 20
74.6550826305
 11
29.5397575316
 21
35.6550826305
  0
LINE
  5
251
100
AcDbEntity
  8
0
100
AcDbLine
 62
7
  6
BYLAYER
 10
30.8897575316
 20
58.6550826305
 11
30.8897575316
 21
53.1550826305
  0
LINE
  5
252
100
AcDbEntity
  8
0
100
AcDbLine
 62
7
  6
BYLAYER
 10
31.8897575316
 20
57.6550826305
 11
31.8897575316
 21
54.1550826305
  0
LINE
  5
253
100
AcDbEntity
  8
0
100
AcDbLine
 62
7
  6
BYLAYER
 10
43.0897575316
 20
64.8021528913
 11
42.0897575316
 21
64.1650826305
  0
LINE
  5
254
100
AcDbEntity
  8
0
100
AcDbLine
 62
7
  6
BYLAYER
 10
46.0897575315
 20
35.1550826305
 11
45.5897575315
 21
35.6550826305
  0
LINE
  5
255
100
AcDbEntity
  8
0
100
AcDbLine
 62
7
  6
BYLAYER
 10
32.8897575316
 20
64.8029407398
 11
32.8897575316
 21
58.6550826305
  0
LINE
  5
256
100
AcDbEntity
  8
0
100
AcDbLine
 62
7
  6
BYLAYER
 10
33.8897575316
 20
64.1650826305
 11
33.8897575316
 21
57.6550826305
  0
LINE
  5
257
100
AcDbEntity
  8
0
100
AcDbLine
 62
7
  6
BYLAYER
 10
33.9897575316
 20
85.8550826305
 11
33.9897575316
 21
86.3550826305
  0
LINE
  5
258
100
AcDbEntity
  8
0
100
AcDbLine
 62
7
  6
BYLAYER
 10
30.8897575316
 20
53.1550826305
 11
31.8897575316
 21
54.1550826305
  0
LINE
  5
259
100
AcDbEntity
  8
0
100
AcDbLine
 62
7
  6
BYLAYER
 10
56.8733352214
 20
66.6550826305
 11
52.8897575316
 21
64.8029407398
  0
LINE
  5
25A
100
AcDbEntity
  8
0
100
AcDbLine
 62
7
  6
BYLAYER
 10
57.09444222
 20
65.6550826305
 11
53.8897575316
 21
64.1650826305
  0
LINE
  5
25B
100
AcDbEntity
  8
0
100
AcDbLine
 62
7
  6
BYLAYER
 10
66.4397575316
 20
50.6550826305
 11
49.5397575316
 21
50.6550826305
  0
LINE
  5
25C
100
AcDbEntity
  8
0
100
AcDbLine
 62
7
  6
BYLAYER
 10
46.4397575316
 20
50.6550826305
 11
29.5397575316
 21
50.6550826305
  0
LINE
  5
25D
100
AcDbEntity
  8
0
100
AcDbLine
 62
7
  6
BYLAYER
 10
26.4397575316
 20
50.6550826305
 11
9.5397575316
 21
50.6550826305
  0
LINE
  5
25E
100
AcDbEntity
  8
0
100
AcDbLine
 62
7
  6
BYLAYER
 10
12.8897575316
 20
64.8029407398
 11
13.8897575316
 21
64.1650826305
  0
LINE
  5
25F
100
AcDbEntity
  8
0
100
AcDbLine
 62
7
  6
BYLAYER
 10
36.9897575316
 20
79.8550826305
 11
36.9897575316
 21
86.3550826305
  0
LINE
  5
260
100
AcDbEntity
  8
0
100
AcDbLine
 62
7
  6
BYLAYER
 10
39.1161368826
 20
66.6550826305
 11
38.89444222
 21
65.6550826305
  0
LINE
  5
261
100
AcDbEntity
  8
0
100
AcDbLine
 62
7
  6
BYLAYER
 10
29.4755439692
 20
35.1550826305
 11
29.6826507504
 21
35.6550826305
  0
LINE
  5
262
100
AcDbEntity
  8
0
100
AcDbLine
 62
7
  6
BYLAYER
 10
19.3397575316
 20
21.2550826305
 11
19.7397575316
 21
21.9479029535
  0
LINE
  5
263
100
AcDbEntity
  8
0
100
AcDbLine
 62
7
  6
BYLAYER
 10
43.0897575315
 20
58.6550826305
 11
42.0897575315
 21
57.6550826305
  0
LINE
  5
264
100
AcDbEntity
  8
0
100
AcDbLine
 62
7
  6
BYLAYER
 10
10.8897575316
 20
53.1550826305
 11
25.0897575316
 21
53.1550826305
  0
LINE
  5
265
100
AcDbEntity
  8
0
100
AcDbLine
 62
7
  6
BYLAYER
 10
30.8897575316
 20
53.1550826305
 11
45.0897575316
 21
53.1550826305
  0
LINE
  5
266
100
AcDbEntity
  8
0
100
AcDbLine
 62
7
  6
BYLAYER
 10
50.8897575316
 20
53.1550826305
 11
65.0897575316
 21
53.1550826305
  0
LINE
  5
267
100
AcDbEntity
  8
0
100
AcDbLine
 62
7
  6
BYLAYER
 10
11.8897575316
 20
54.1550826305
 11
24.0897575316
 21
54.1550826305
  0
LINE
  5
268
100
AcDbEntity
  8
0
100
AcDbLine
 62
7
  6
BYLAYER
 10
31.8897575316
 20
54.1550826305
 11
44.0897575316
 21
54.1550826305
  0
LINE
  5
269
100
AcDbEntity
  8
0
100
AcDbLine
 62
7
  6
BYLAYER
 10
51.8897575316
 20
54.1550826305
 11
64.0897575316
 21
54.1550826305
  0
LINE
  5
26A
100
AcDbEntity
  8
0
100
AcDbLine
 62
7
  6
BYLAYER
 10
30.8897575316
 20
58.6550826305
 11
31.8897575316
 21
57.6550826305
  0
LINE
  5
26B
100
AcDbEntity
  8
0
100
AcDbLine
 62
7
  6
BYLAYER
 10
32.8897575316
 20
58.6550826305
 11
33.8897575316
 21
57.6550826305
  0
LINE
  5
26C
100
AcDbEntity
  8
0
100
AcDbLine
 62
7
  6
BYLAYER
 10
56.4397575315
 20
21.2550826305
 11
56.039757533
 21
21.9479029509
  0
LINE
  5
26D
100
AcDbEntity
  8
0
100
AcDbLine
 62
7
  6
BYLAYER
 10
45.0897575316
 20
58.6550826305
 11
44.0897575316
 21
57.6550826305
  0
LINE
  5
26E
100
AcDbEntity
  8
0
100
AcDbLine
 62
7
  6
BYLAYER
 10
22.0897575316
 20
64.1650826305
 11
18.89444222
 21
65.6550826305
  0
LINE
  5
26F
100
AcDbEntity
  8
0
100
AcDbLine
 62
7
  6
BYLAYER
 10
46.5039710939
 20
35.1550826305
 11
46.2968643127
 21
35.6550826305
  0
LINE
  5
270
100
AcDbEntity
  8
0
100
AcDbLine
 62
7
  6
BYLAYER
 10
36.8733352214
 20
66.6550826305
 11
37.09444222
 21
65.6550826305
  0
LINE
  5
271
100
AcDbEntity
  8
0
100
AcDbLine
 62
7
  6
BYLAYER
 10
41.9897575316
 20
81.8550826305
 11
41.9897575316
 21
86.3550826305
  0
LINE
  5
272
100
AcDbEntity
  8
0
100
AcDbLine
 62
7
  6
BYLAYER
 10
42.0897575315
 20
57.6550826305
 11
42.0897575315
 21
64.1650826305
  0
LINE
  5
273
100
AcDbEntity
  8
0
100
AcDbLine
 62
7
  6
BYLAYER
 10
43.0897575316
 20
58.6550826305
 11
43.0897575316
 21
64.8021528913
  0
LINE
  5
274
100
AcDbEntity
  8
0
100
AcDbLine
 62
7
  6
BYLAYER
 10
44.0897575315
 20
54.1550826305
 11
44.0897575315
 21
57.6550826305
  0
LINE
  5
275
100
AcDbEntity
  8
0
100
AcDbLine
 62
7
  6
BYLAYER
 10
63.0897575316
 20
64.8021528913
 11
62.0897575316
 21
64.1650826305
  0
LINE
  5
276
100
AcDbEntity
  8
0
100
AcDbLine
 62
7
  6
BYLAYER
 10
64.0897575316
 20
57.6550826305
 11
62.0897575316
 21
57.6550826305
  0
LINE
  5
277
100
AcDbEntity
  8
0
100
AcDbLine
 62
7
  6
BYLAYER
 10
53.8897575316
 20
57.6550826305
 11
51.8897575316
 21
57.6550826305
  0
LINE
  5
278
100
AcDbEntity
  8
0
100
AcDbLine
 62
7
  6
BYLAYER
 10
44.0897575316
 20
57.6550826305
 11
42.0897575316
 21
57.6550826305
  0
LINE
  5
279
100
AcDbEntity
  8
0
100
AcDbLine
 62
7
  6
BYLAYER
 10
33.8897575316
 20
57.6550826305
 11
31.8897575316
 21
57.6550826305
  0
LINE
  5
27A
100
AcDbEntity
  8
0
100
AcDbLine
 62
7
  6
BYLAYER
 10
24.0897575316
 20
57.6550826305
 11
22.0897575316
 21
57.6550826305
  0
LINE
  5
27B
100
AcDbEntity
  8
0
100
AcDbLine
 62
7
  6
BYLAYER
 10
13.8897575316
 20
57.6550826305
 11
11.8897575316
 21
57.6550826305
  0
LINE
  5
27C
100
AcDbEntity
  8
0
100
AcDbLine
 62
7
  6
BYLAYER
 10
65.0897575316
 20
58.6550826305
 11
63.0897575316
 21
58.6550826305
  0
LINE
  5
27D
100
AcDbEntity
  8
0
100
AcDbLine
 62
7
  6
BYLAYER
 10
52.8897575316
 20
58.6550826305
 11
50.8897575316
 21
58.6550826305
  0
LINE
  5
27E
100
AcDbEntity
  8
0
100
AcDbLine
 62
7
  6
BYLAYER
 10
45.0897575316
 20
58.6550826305
 11
43.0897575316
 21
58.6550826305
  0
LINE
  5
27F
100
AcDbEntity
  8
0
100
AcDbLine
 62
7
  6
BYLAYER
 10
32.8897575316
 20
58.6550826305
 11
30.8897575316
 21
58.6550826305
  0
LINE
  5
280
100
AcDbEntity
  8
0
100
AcDbLine
 62
7
  6
BYLAYER
 10
25.0897575316
 20
58.6550826305
 11
23.0897575316
 21
58.6550826305
  0
LINE
  5
281
100
AcDbEntity
  8
0
100
AcDbLine
 62
7
  6
BYLAYER
 10
12.8897575316
 20
58.6550826305
 11
10.8897575316
 21
58.6550826305
  0
LINE
  5
282
100
AcDbEntity
  8
0
100
AcDbLine
 62
7
  6
BYLAYER
 10
23.0897575316
 20
64.8021528913
 11
19.1161368826
 21
66.6550826305
  0
LINE
  5
283
100
AcDbEntity
  8
0
100
AcDbLine
 62
7
  6
BYLAYER
 10
45.0897575315
 20
53.1550826305
 11
44.0897575315
 21
54.1550826305
  0
LINE
  5
284
100
AcDbEntity
  8
0
100
AcDbLine
 62
7
  6
BYLAYER
 10
45.0897575316
 20
53.1550826305
 11
45.0897575316
 21
58.6550826305
  0
LINE
  5
285
100
AcDbEntity
  8
0
100
AcDbLine
 62
7
  6
BYLAYER
 10
46.4397575316
 20
35.6550826305
 11
46.4397575316
 21
74.6550826305
  0
LINE
  5
286
100
AcDbEntity
  8
0
100
AcDbLine
 62
7
  6
BYLAYER
 10
29.8897575316
 20
35.1550826305
 11
30.3897575316
 21
35.6550826305
  0
LINE
  5
287
100
AcDbEntity
  8
0
100
AcDbLine
 62
7
  6
BYLAYER
 10
32.8897575316
 20
64.8029407398
 11
33.8897575316
 21
64.1650826305
  0
LINE
  5
288
100
AcDbEntity
  8
0
100
AcDbLine
 62
7
  6
BYLAYER
 10
49.5397575316
 20
74.6550826305
 11
49.5397575316
 21
35.6550826305
  0
LINE
  5
289
100
AcDbEntity
  8
0
100
AcDbLine
 62
7
  6
BYLAYER
 10
50.8897575316
 20
53.1550826305
 11
51.8897575316
 21
54.1550826305
  0
LINE
  5
28A
100
AcDbEntity
  8
0
100
AcDbLine
 62
7
  6
BYLAYER
 10
58.89444222
 20
65.6550826305
 11
57.09444222
 21
65.6550826305
  0
LINE
  5
28B
100
AcDbEntity
  8
0
100
AcDbLine
 62
7
  6
BYLAYER
 10
38.89444222
 20
65.6550826305
 11
37.09444222
 21
65.6550826305
  0
LINE
  5
28C
100
AcDbEntity
  8
0
100
AcDbLine
 62
7
  6
BYLAYER
 10
18.89444222
 20
65.6550826305
 11
17.09444222
 21
65.6550826305
  0
LINE
  5
28D
100
AcDbEntity
  8
0
100
AcDbLine
 62
7
  6
BYLAYER
 10
42.0897575316
 20
64.1650826305
 11
38.89444222
 21
65.6550826305
  0
LINE
  5
28E
100
AcDbEntity
  8
0
100
AcDbLine
 62
7
  6
BYLAYER
 10
43.0897575316
 20
64.8021528913
 11
39.1161368826
 21
66.6550826305
  0
LINE
  5
28F
100
AcDbEntity
  8
0
100
AcDbLine
 62
7
  6
BYLAYER
 10
50.8897575316
 20
58.6550826305
 11
50.8897575316
 21
53.1550826305
  0
LINE
  5
290
100
AcDbEntity
  8
0
100
AcDbLine
 62
7
  6
BYLAYER
 10
51.8897575316
 20
57.6550826305
 11
51.8897575316
 21
54.1550826305
  0
LINE
  5
291
100
AcDbEntity
  8
0
100
AcDbLine
 62
7
  6
BYLAYER
 10
52.8897575316
 20
64.8029407398
 11
52.8897575316
 21
58.6550826305
  0
LINE
  5
292
100
AcDbEntity
  8
0
100
AcDbLine
 62
7
  6
BYLAYER
 10
63.0897575315
 20
58.6550826305
 11
62.0897575315
 21
57.6550826305
  0
LINE
  5
293
100
AcDbEntity
  8
0
100
AcDbLine
 62
7
  6
BYLAYER
 10
59.1161368826
 20
66.6550826305
 11
56.8733352214
 21
66.6550826305
  0
LINE
  5
294
100
AcDbEntity
  8
0
100
AcDbLine
 62
7
  6
BYLAYER
 10
39.1161368826
 20
66.6550826305
 11
36.8733352214
 21
66.6550826305
  0
LINE
  5
295
100
AcDbEntity
  8
0
100
AcDbLine
 62
7
  6
BYLAYER
 10
19.1161368826
 20
66.6550826305
 11
16.8733352214
 21
66.6550826305
  0
LINE
  5
296
100
AcDbEntity
  8
0
100
AcDbLine
 62
7
  6
BYLAYER
 10
50.8897575316
 20
58.6550826305
 11
51.8897575316
 21
57.6550826305
  0
LINE
  5
297
100
AcDbEntity
  8
0
100
AcDbLine
 62
7
  6
BYLAYER
 10
52.8897575316
 20
58.6550826305
 11
53.8897575316
 21
57.6550826305
  0
LINE
  5
298
100
AcDbEntity
  8
0
100
AcDbLine
 62
7
  6
BYLAYER
 10
53.8897575316
 20
64.1650826305
 11
53.8897575316
 21
57.6550826305
  0
LINE
  5
299
100
AcDbEntity
  8
0
100
AcDbLine
 62
7
  6
BYLAYER
 10
53.9897575316
 20
86.3550826305
 11
53.9897575316
 21
81.8550826305
  0
LINE
  5
29A
100
AcDbEntity
  8
0
100
AcDbLine
 62
7
  6
BYLAYER
 10
56.0197575316
 20
21.6550826305
 11
56.0197575316
 21
22.0550826305
  0
LINE
  5
29B
100
AcDbEntity
  8
0
100
AcDbLine
 62
7
  6
BYLAYER
 10
56.0397575316
 20
30.0550826305
 11
56.0397575316
 21
21.9479029509
  0
LINE
  5
29C
100
AcDbEntity
  8
0
100
AcDbLine
 62
7
  6
BYLAYER
 10
56.0575485203
 20
21.9479029513
 11
56.0575485186
 21
22.0550826305
  0
LINE
  5
29D
100
AcDbEntity
  8
0
100
AcDbLine
 62
7
  6
BYLAYER
 10
59.1161368826
 20
66.6550826305
 11
58.89444222
 21
65.6550826305
  0
LINE
  5
29E
100
AcDbEntity
  8
0
100
AcDbLine
 62
7
  6
BYLAYER
 10
49.4755439692
 20
35.1550826305
 11
49.6826507504
 21
35.6550826305
  0
LINE
  5
29F
100
AcDbEntity
  8
0
100
AcDbLine
 62
7
  6
BYLAYER
 10
65.0897575316
 20
58.6550826305
 11
64.0897575316
 21
57.6550826305
  0
LINE
  5
2A0
100
AcDbEntity
  8
0
100
AcDbLine
 62
7
  6
BYLAYER
 10
66.4397575316
 20
70.1550826305
 11
49.5397575316
 21
70.1550826305
  0
LINE
  5
2A1
100
AcDbEntity
  8
0
100
AcDbLine
 62
7
  6
BYLAYER
 10
46.4397575316
 20
70.1550826305
 11
29.5397575316
 21
70.1550826305
  0
LINE
  5
2A2
100
AcDbEntity
  8
0
100
AcDbLine
 62
7
  6
BYLAYER
 10
26.4397575316
 20
70.1550826305
 11
9.5397575316
 21
70.1550826305
  0
LINE
  5
2A3
100
AcDbEntity
  8
0
100
AcDbLine
 62
7
  6
BYLAYER
 10
52.8897575316
 20
64.8029407398
 11
53.8897575316
 21
64.1650826305
  0
LINE
  5
2A4
100
AcDbEntity
  8
0
100
AcDbLine
 62
7
  6
BYLAYER
 10
56.3256146887
 20
30.0550826305
 11
56.3256146887
 21
22.0550826305
  0
LINE
  5
2A5
100
AcDbEntity
  8
0
100
AcDbLine
 62
7
  6
BYLAYER
 10
58.9897575316
 20
86.3550826305
 11
58.9897575316
 21
79.8550826305
  0
LINE
  5
2A6
100
AcDbEntity
  8
0
100
AcDbLine
 62
7
  6
BYLAYER
 10
67.9397575316
 20
72.1550826305
 11
66.4397575316
 21
72.1550826305
  0
LINE
  5
2A7
100
AcDbEntity
  8
0
100
AcDbLine
 62
7
  6
BYLAYER
 10
9.5397575316
 20
72.1550826305
 11
8.0397575316
 21
72.1550826305
  0
LINE
  5
2A8
100
AcDbEntity
  8
0
100
AcDbLine
 62
7
  6
BYLAYER
 10
66.4397575316
 20
73.1550826305
 11
49.5397575316
 21
73.1550826305
  0
LINE
  5
2A9
100
AcDbEntity
  8
0
100
AcDbLine
 62
7
  6
BYLAYER
 10
46.4397575316
 20
73.1550826305
 11
29.5397575316
 21
73.1550826305
  0
LINE
  5
2AA
100
AcDbEntity
  8
0
100
AcDbLine
 62
7
  6
BYLAYER
 10
26.4397575316
 20
73.1550826305
 11
9.5397575316
 21
73.1550826305
  0
LINE
  5
2AB
100
AcDbEntity
  8
0
100
AcDbLine
 62
7
  6
BYLAYER
 10
9.5397575316
 20
74.6550826305
 11
66.4397575316
 21
74.6550826305
  0
LINE
  5
2AC
100
AcDbEntity
  8
0
100
AcDbLine
 62
7
  6
BYLAYER
 10
62.0897575316
 20
64.1650826305
 11
58.89444222
 21
65.6550826305
  0
LINE
  5
2AD
100
AcDbEntity
  8
0
100
AcDbLine
 62
7
  6
BYLAYER
 10
63.0897575316
 20
64.8021528913
 11
59.1161368826
 21
66.6550826305
  0
LINE
  5
2AE
100
AcDbEntity
  8
0
100
AcDbLine
 62
7
  6
BYLAYER
 10
65.0897575315
 20
53.1550826305
 11
64.0897575315
 21
54.1550826305
  0
LINE
  5
2AF
100
AcDbEntity
  8
0
100
AcDbLine
 62
7
  6
BYLAYER
 10
60.9497575316
 20
85.8550826305
 11
60.9497575316
 21
86.3550826305
  0
LINE
  5
2B0
100
AcDbEntity
  8
0
100
AcDbLine
 62
7
  6
BYLAYER
 10
61.6296504366
 20
22.0550826305
 11
61.6296504366
 21
30.0550826305
  0
LINE
  5
2B1
100
AcDbEntity
  8
0
100
AcDbLine
 62
7
  6
BYLAYER
 10
61.7359524977
 20
22.0550826305
 11
61.7359524955
 21
21.9479029499
  0
LINE
  5
2B2
100
AcDbEntity
  8
0
100
AcDbLine
 62
7
  6
BYLAYER
 10
61.9004286828
 20
30.0550826305
 11
61.9004286828
 21
22.0550826305
  0
LINE
  5
2B3
100
AcDbEntity
  8
0
100
AcDbLine
 62
7
  6
BYLAYER
 10
49.8897575316
 20
35.1550826305
 11
50.3897575316
 21
35.6550826305
  0
LINE
  5
2B4
100
AcDbEntity
  8
0
100
AcDbLine
 62
7
  6
BYLAYER
 10
56.8733352214
 20
66.6550826305
 11
57.09444222
 21
65.6550826305
  0
LINE
  5
2B5
100
AcDbEntity
  8
0
100
AcDbLine
 62
7
  6
BYLAYER
 10
62.0897575315
 20
57.6550826305
 11
62.0897575315
 21
64.1650826305
  0
LINE
  5
2B6
100
AcDbEntity
  8
0
100
AcDbLine
 62
7
  6
BYLAYER
 10
63.0897575316
 20
58.6550826305
 11
63.0897575316
 21
64.8021528913
  0
LINE
  5
2B7
100
AcDbEntity
  8
0
100
AcDbLine
 62
7
  6
BYLAYER
 10
63.1337424561
 20
22.0550826305
 11
63.1337424561
 21
30.0550826305
  0
LINE
  5
2B8
100
AcDbEntity
  8
0
100
AcDbLine
 62
7
  6
BYLAYER
 10
64.0897575315
 20
54.1550826305
 11
64.0897575315
 21
57.6550826305
  0
LINE
  5
2B9
100
AcDbEntity
  8
0
100
AcDbLine
 62
7
  6
BYLAYER
 10
58.9897575316
 20
79.8550826305
 11
36.9897575316
 21
79.8550826305
  0
LINE
  5
2BA
100
AcDbEntity
  8
0
100
AcDbLine
 62
7
  6
BYLAYER
 10
65.0897575316
 20
53.1550826305
 11
65.0897575316
 21
58.6550826305
  0
LINE
  5
2BB
100
AcDbEntity
  8
0
100
AcDbLine
 62
7
  6
BYLAYER
 10
66.4397575316
 20
35.6550826305
 11
66.4397575316
 21
74.6550826305
  0
LINE
  5
2BC
100
AcDbEntity
  8
0
100
AcDbLine
 62
7
  6
BYLAYER
 10
67.3997575316
 20
22.0550826305
 11
67.3997575316
 21
21.9479029521
  0
LINE
  5
2BD
100
AcDbEntity
  8
0
100
AcDbLine
 62
7
  6
BYLAYER
 10
40.9897575316
 20
81.8550826305
 11
54.9897575316
 21
81.8550826305
  0
LINE
  5
2BE
100
AcDbEntity
  8
0
100
AcDbLine
 62
7
  6
BYLAYER
 10
67.9397575316
 20
22.0550826305
 11
67.9397575316
 21
86.3550826305
  0
LINE
  5
2BF
100
AcDbEntity
  8
0
100
AcDbLine
 62
7
  6
BYLAYER
 10
56.5913851415
 20
21.3271837658
 11
56.5497575316
 21
21.2550826305
  0
LINE
  5
2C0
100
AcDbEntity
  8
0
100
AcDbLine
 62
7
  6
BYLAYER
 10
60.9497575316
 20
85.8550826305
 11
58.9897575316
 21
85.8550826305
  0
LINE
  5
2C1
100
AcDbEntity
  8
0
100
AcDbLine
 62
7
  6
BYLAYER
 10
36.9897575316
 20
85.8550826305
 11
15.0397575316
 21
85.8550826305
  0
LINE
  5
2C2
100
AcDbEntity
  8
0
100
AcDbLine
 62
7
  6
BYLAYER
 10
67.9397575316
 20
86.3550826305
 11
60.9497575316
 21
86.3550826305
  0
LINE
  5
2C3
100
AcDbEntity
  8
0
100
AcDbLine
 62
7
  6
BYLAYER
 10
58.9897575316
 20
86.3550826305
 11
36.9897575316
 21
86.3550826305
  0
LINE
  5
2C4
100
AcDbEntity
  8
0
100
AcDbLine
 62
7
  6
BYLAYER
 10
33.9897575316
 20
86.3550826305
 11
21.9897869442
 21
86.3550826305
  0
LINE
  5
2C5
100
AcDbEntity
  8
0
100
AcDbLine
 62
7
  6
BYLAYER
 10
15.0397575316
 20
86.3550826305
 11
8.0397575316
 21
86.3550826305
  0
LINE
  5
2C6
100
AcDbEntity
  8
0
100
AcDbLine
 62
7
  6
BYLAYER
 10
67.3997575308
 20
21.9479029521
 11
66.9997575306
 21
21.2550826288
  0
ARC
  5
2C7
100
AcDbEntity
  8
0
100
AcDbCircle
 62
7
  6
BYLAYER
 10
115.1641574319
 20
-3.1180906881
 40
104.0936363872
100
AcDbArc
 50
166.0660986824
 51
166.4586755963
  0
ARC
  5
2C8
100
AcDbEntity
  8
0
100
AcDbCircle
 62
7
  6
BYLAYER
 10
44.7710199929
 20
32.1248747006
 40
19.7833184484
100
AcDbArc
 50
328.0470120803
 51
329.0411799323
  0
ARC
  5
2C9
100
AcDbEntity
  8
0
100
AcDbCircle
 62
7
  6
BYLAYER
 10
55.1867048731
 20
8.8093875514
 40
14.3384194362
100
AcDbArc
 50
61.902325026
 51
63.623413435
  0
ARC
  5
2CA
100
AcDbEntity
  8
0
100
AcDbCircle
 62
7
  6
BYLAYER
 10
55.4505148185
 20
9.3028182215
 40
13.7788933835
100
AcDbArc
 50
60.1616738542
 51
61.9036757738
  0
SPLINE
  5
2CB
100
AcDbEntity
  8
0
100
AcDbSpline
 62
7
  6
BYLAYER
 70
0
 71
3
 72
19
 73
15
 74
0
 42
0.0000001
 43
0.0000001
 44
0.0000000001
 40
0.0
 40
0.0
 40
0.0
 40
0.0
 40
0.0171012726
 40
0.0384275918
 40
0.0661883713
 40
0.1012708459
 40
0.1438981637
 40
0.1940285394
 40
0.2514012954
 40
0.3156115956
 40
0.4625186771
 40
0.6297219705
 40
0.8112694511
 40
1.0
 40
1.0
 40
1.0
 40
1.0
 10
50.5897506897
 20
86.3525149172
 30
0.0
 10
50.5896420493
 20
86.3370944933
 30
0.0
 10
50.5783811987
 20
86.3024578182
 30
0.0
 10
50.5371946837
 20
86.2579823942
 30
0.0
 10
50.473978634
 20
86.2153413791
 30
0.0
 10
50.3879953154
 20
86.1741645718
 30
0.0
 10
50.279673757
 20
86.1344067403
 30
0.0
 10
50.1496132259
 20
86.096549315
 30
0.0
 10
49.9988745547
 20
86.060925055
 30
0.0
 10
49.7611403045
 20
86.0148445029
 30
0.0
 10
49.4231299787
 20
85.9671648158
 30
0.0
 10
48.9779703964
 20
85.9258557247
 30
0.0
 10
48.4938636038
 20
85.9003399724
 30
0.0
 10
48.1599423696
 20
85.8945943649
 30
0.0
 10
47.9897575316
 20
85.8945943649
 30
0.0
  0
SPLINE
  5
2CC
100
AcDbEntity
  8
0
100
AcDbSpline
 62
7
  6
BYLAYER
 70
0
 71
3
 72
19
 73
15
 74
0
 42
0.0000001
 43
0.0000001
 44
0.0000000001
 40
0.0
 40
0.0
 40
0.0
 40
0.0
 40
0.1886637278
 40
0.3701540912
 40
0.5373154152
 40
0.6842062981
 40
0.7484203393
 40
0.8058049421
 40
0.8559552545
 40
0.8986103533
 40
0.9337268383
 40
0.9615251012
 40
0.9828855685
 40
1.0
 40
1.0
 40
1.0
 40
1.0
 10
47.9897575316
 20
85.8945943649
 30
0.0
 10
47.8196554418
 20
85.8945943649
 30
0.0
 10
47.4858901497
 20
85.9003350089
 30
0.0
 10
47.0019962183
 20
85.9258261534
 30
0.0
 10
46.5569970203
 20
85.9670972503
 30
0.0
 10
46.2190761744
 20
86.0147333376
 30
0.0
 10
45.9813669464
 20
86.0607710191
 30
0.0
 10
45.8306095211
 20
86.0963655369
 30
0.0
 10
45.7005032397
 20
86.1341925783
 30
0.0
 10
45.5921086183
 20
86.1739199944
 30
0.0
 10
45.5060274955
 20
86.2150670231
 30
0.0
 10
45.4426915212
 20
86.2576813117
 30
0.0
 10
45.4013682907
 20
86.3021073582
 30
0.0
 10
45.3899474672
 20
86.3367235556
 30
0.0
 10
45.3897686828
 20
86.3521531518
 30
0.0
  0
SPLINE
  5
2CD
100
AcDbEntity
  8
0
100
AcDbSpline
 62
7
  6
BYLAYER
 70
0
 71
3
 72
15
 73
11
 74
0
 42
0.0000001
 43
0.0000001
 44
0.0000000001
 40
0.0
 40
0.0
 40
0.0
 40
0.0
 40
0.1431888972
 40
0.2699023802
 40
0.3823472275
 40
0.4858853673
 40
0.5895141755
 40
0.7041080054
 40
0.8390757838
 40
1.0
 40
1.0
 40
1.0
 40
1.0
 10
56.3133803286
 20
21.4739744085
 30
0.0
 10
56.3072970075
 20
21.4845110328
 30
0.0
 10
56.2969228602
 20
21.5050559256
 30
0.0
 10
56.2870022636
 20
21.5361781993
 30
0.0
 10
56.2843453476
 20
21.5654926168
 30
0.0
 10
56.2900390069
 20
21.592563156
 30
0.0
 10
56.3050270878
 20
21.6161330106
 30
0.0
 10
56.3291092319
 20
21.6348328668
 30
0.0
 10
56.3616031131
 20
21.648283354
 30
0.0
 10
56.3863803273
 20
21.6532679918
 30
0.0
 10
56.3999329817
 20
21.6550826305
 30
0.0
  0
SPLINE
  5
2CE
100
AcDbEntity
  8
0
100
AcDbSpline
 62
7
  6
BYLAYER
 70
0
 71
3
 72
9
 73
5
 74
0
 42
0.0000001
 43
0.0000001
 44
0.0000000001
 40
0.0
 40
0.0
 40
0.0
 40
0.0
 40
0.2429249061
 40
1.0
 40
1.0
 40
1.0
 40
1.0
 10
56.3999329817
 20
21.6550826305
 30
0.0
 10
56.3899302703
 20
21.6573688278
 30
0.0
 10
56.3493206119
 20
21.6692909904
 30
0.0
 10
56.3116375166
 20
21.6898150917
 30
0.0
 10
56.2851851501
 20
21.7077822828
 30
0.0
  0
SPLINE
  5
2CF
100
AcDbEntity
  8
0
100
AcDbSpline
 62
7
  6
BYLAYER
 70
0
 71
3
 72
9
 73
5
 74
0
 42
0.0000001
 43
0.0000001
 44
0.0000000001
 40
0.0
 40
0.0
 40
0.0
 40
0.0
 40
0.4882353933
 40
1.0
 40
1.0
 40
1.0
 40
1.0
 10
56.2851851501
 20
21.7077822828
 30
0.0
 10
56.2521824325
 20
21.7301986566
 30
0.0
 10
56.1903239494
 20
21.7844878086
 30
0.0
 10
56.1365509456
 20
21.8461266231
 30
0.0
 10
56.1103310467
 20
21.8787042185
 30
0.0
  0
SPLINE
  5
2D0
100
AcDbEntity
  8
0
100
AcDbSpline
 62
7
  6
BYLAYER
 70
0
 71
3
 72
8
 73
4
 74
0
 42
0.0000001
 43
0.0000001
 44
0.0000000001
 40
0.0
 40
0.0
 40
0.0
 40
0.0
 40
1.0
 40
1.0
 40
1.0
 40
1.0
 10
56.1103310467
 20
21.8787042185
 30
0.0
 10
56.092141677
 20
21.9013040739
 30
0.0
 10
56.0746037606
 20
21.9244354117
 30
0.0
 10
56.0575485203
 20
21.9479029513
 30
0.0
  0
SPLINE
  5
2D1
100
AcDbEntity
  8
0
100
AcDbSpline
 62
7
  6
BYLAYER
 70
0
 71
3
 72
16
 73
12
 74
0
 42
0.0000001
 43
0.0000001
 44
0.0000000001
 40
0.0
 40
0.0
 40
0.0
 40
0.0
 40
0.0443665482
 40
0.0927085127
 40
0.1447455054
 40
0.2000916389
 40
0.3191427076
 40
0.4467733271
 40
0.5804291692
 40
0.7182122091
 40
1.0
 40
1.0
 40
1.0
 40
1.0
 10
40.9897575316
 20
81.8550826305
 30
0.0
 10
40.9230816843
 20
81.8550826305
 30
0.0
 10
40.7836954293
 20
81.8428326775
 30
0.0
 10
40.5705894003
 20
81.7976531808
 30
0.0
 10
40.3465015341
 20
81.7293682215
 30
0.0
 10
40.027978389
 20
81.6091276568
 30
0.0
 10
39.6157318345
 20
81.4180003192
 30
0.0
 10
39.1108821692
 20
81.1497294921
 30
0.0
 10
38.5913381022
 20
80.8499499464
 30
0.0
 10
37.8804974883
 20
80.4186671198
 30
0.0
 10
37.3476652439
 20
80.0814433431
 30
0.0
 10
36.9897575316
 20
79.8550826305
 30
0.0
  0
SPLINE
  5
2D2
100
AcDbEntity
  8
0
100
AcDbSpline
 62
7
  6
BYLAYER
 70
0
 71
3
 72
37
 73
33
 74
0
 42
0.0000001
 43
0.0000001
 44
0.0000000001
 40
0.0
 40
0.0
 40
0.0
 40
0.0
 40
0.004158502
 40
0.0086138899
 40
0.0136006653
 40
0.0192864301
 40
0.0331443706
 40
0.0506656373
 40
0.0719690727
 40
0.0970205932
 40
0.1256884958
 40
0.1577902103
 40
0.1930684294
 40
0.2312373291
 40
0.3148573032
 40
0.4055988502
 40
0.5000065416
 40
0.5944125016
 40
0.6851498227
 40
0.768765322
 40
0.8069324015
 40
0.8422095161
 40
0.8743106565
 40
0.9029786545
 40
0.92803067
 40
0.9493342624
 40
0.9668555378
 40
0.9807131328
 40
0.9863988183
 40
0.9913857026
 40
0.9958413316
 40
1.0
 40
1.0
 40
1.0
 40
1.0
 10
53.9893539652
 20
86.3525149172
 30
0.0
 10
53.9893011084
 20
86.3352025827
 30
0.0
 10
53.984036463
 20
86.2991972659
 30
0.0
 10
53.9614431295
 20
86.2467316395
 30
0.0
 10
53.9247185893
 20
86.1951116451
 30
0.0
 10
53.8523981738
 20
86.1225190452
 30
0.0
 10
53.7233250095
 20
86.0358165667
 30
0.0
 10
53.52535801
 20
85.9406983493
 30
0.0
 10
53.275403622
 20
85.8489439736
 30
0.0
 10
52.9754066114
 20
85.7614861036
 30
0.0
 10
52.6275967261
 20
85.6791883178
 30
0.0
 10
52.2349643395
 20
85.6030488676
 30
0.0
 10
51.8009795568
 20
85.533744173
 30
0.0
 10
51.1525319816
 20
85.4489991169
 30
0.0
 10
50.2711863928
 20
85.3673435589
 30
0.0
 10
49.1535818108
 20
85.3083153478
 30
0.0
 10
47.9896887086
 20
85.2883426618
 30
0.0
 10
46.825813295
 20
85.3083202712
 30
0.0
 10
45.7082523171
 20
85.3673496043
 30
0.0
 10
44.8269504107
 20
85.4490018439
 30
0.0
 10
44.1785336457
 20
85.5337448868
 30
0.0
 10
43.7445632525
 20
85.6030472241
 30
0.0
 10
43.3519373206
 20
85.6791853909
 30
0.0
 10
43.0041271402
 20
85.7614818761
 30
0.0
 10
42.7041258585
 20
85.8489364139
 30
0.0
 10
42.4541687889
 20
85.9406913837
 30
0.0
 10
42.2562020867
 20
86.0358090171
 30
0.0
 10
42.1271337
 20
86.1225160492
 30
0.0
 10
42.0548176813
 20
86.1951110503
 30
0.0
 10
42.0180928143
 20
86.2467318906
 30
0.0
 10
41.9954940453
 20
86.299196926
 30
0.0
 10
41.9902199395
 20
86.3352019092
 30
0.0
 10
41.9901610981
 20
86.3525149172
 30
0.0
  0
SPLINE
  5
2D3
100
AcDbEntity
  8
0
100
AcDbSpline
 62
7
  6
BYLAYER
 70
0
 71
3
 72
16
 73
12
 74
0
 42
0.0000001
 43
0.0000001
 44
0.0000000001
 40
0.0
 40
0.0
 40
0.0
 40
0.0
 40
0.2817874366
 40
0.4195705192
 40
0.5532285815
 40
0.6808611859
 40
0.7999078201
 40
0.8552527791
 40
0.9072913588
 40
0.9556344135
 40
1.0
 40
1.0
 40
1.0
 40
1.0
 10
58.9897575316
 20
79.8550826305
 30
0.0
 10
58.6318505851
 20
80.0814428587
 30
0.0
 10
58.0990469881
 20
80.4187115145
 30
0.0
 10
57.3881185929
 20
80.8498554341
 30
0.0
 10
56.868593747
 20
81.1496716411
 30
0.0
 10
56.3639101561
 20
81.4182556046
 30
0.0
 10
55.9516035467
 20
81.6092659823
 30
0.0
 10
55.6330063819
 20
81.7292899718
 30
0.0
 10
55.4089061099
 20
81.7975285867
 30
0.0
 10
55.1958172335
 20
81.8427856813
 30
0.0
 10
55.0564318748
 20
81.8550826305
 30
0.0
 10
54.9897575316
 20
81.8550826305
 30
0.0
  0
ELLIPSE
  5
2D4
100
AcDbEntity
  8
0
100
AcDbEllipse
 62
7
  6
BYLAYER
 10
63.5421856001
 20
18.0360202673
 30
0.0
 11
6.5159613915
 21
-3.2620110244
 31
0.0
 40
0.335039266
 41
1.9426204689
 42
1.9755039754
  0
ENDSEC
  0
SECTION
  2
OBJECTS
  0
DICTIONARY
  5
C
100
AcDbDictionary
280
0
281
1
  3
ACAD_GROUP
350
D
  3
ACAD_MLINESTYLE
350
17
  3
ACAD_LAYOUT
350
1A
  3
ACAD_PLOTSETTINGS
350
19
  3
ACAD_PLOTSTYLENAME
350
E
  0
DICTIONARY
  5
D
102
{ACAD_REACTORS
330
C
102
}
100
AcDbDictionary
280
0
281
1
  0
ACDBDICTIONARYWDFLT
  5
E
102
{ACAD_REACTORS
330
C
102
}
100
AcDbDictionary
281
1
  3
Normal
350
F
100
AcDbDictionaryWithDefault
340
F
  0
DICTIONARY
  5
17
102
{ACAD_REACTORS
330
C
102
}
100
AcDbDictionary
280
0
281
1
  3
Standard
350
18
  0
DICTIONARY
  5
19
102
{ACAD_REACTORS
330
C
102
}
100
AcDbDictionary
281
1
  0
DICTIONARY
  5
1A
102
{ACAD_REACTORS
330
C
102
}
100
AcDbDictionary
281
1
  3
Model
350
2D5
  3
Layout1
350
2D6
  0
ACDBPLACEHOLDER
  5
F
102
{ACAD_REACTORS
330
E
102
}
  0
MLINESTYLE
  5
18
102
{ACAD_REACTORS
330
17
102
}
100
AcDbMlineStyle
  2
STANDARD
 70
0
  3

 62
256
 51
90.0
 52
90.0
 71
2
 49
0.5
 62
256
  6
BYLAYER
 49
-0.5
 62
256
  6
BYLAYER
  0
LAYOUT
  5
2D5
102
{ACAD_REACTORS
330
1A
102
}
100
AcDbPlotSettings
  1

  2
none_device
  4

  6

 40
0.0
 41
0.0
 42
0.0
 43
0.0
 44
210.0
 45
297.0
 46
0.0
 47
0.0
 48
0.0
 49
0.0
140
0.0
141
0.0
142
1.0
143
1.0
 70
1024
 72
1
 73
0
 74
0
  7

 75
0
147
1.0
148
0.0
149
0.0
100
AcDbLayout
  1
Model
 70
0
 71
0
 10
0.0
 20
0.0
 11
210.0
 21
297.0
 12
0.0
 22
0.0
 32
0.0
 14
0.0
 24
0.0
 34
0.0
 15
0.0
 25
0.0
 35
0.0
146
0.0
 13
0.0
 23
0.0
 33
0.0
 16
1.0
 26
0.0
 36
0.0
 17
0.0
 27
1.0
 37
0.0
 76
0
330
210
345
0
346
0
  0
LAYOUT
  5
2D6
102
{ACAD_REACTORS
330
1A
102
}
100
AcDbPlotSettings
  1

  2
none_device
  4

  6

 40
0.0
 41
0.0
 42
0.0
 43
0.0
 44
210.0
 45
297.0
 46
0.0
 47
0.0
 48
0.0
 49
0.0
140
0.0
141
0.0
142
1.0
143
1.0
 70
0
 72
1
 73
0
 74
0
  7

 75
0
147
1.0
148
0.0
149
0.0
100
AcDbLayout
  1
Layout1
 70
0
 71
1
 10
0.0
 20
0.0
 11
210.0
 21
297.0
 12
0.0
 22
0.0
 32
0.0
 14
0.0
 24
0.0
 34
0.0
 15
0.0
 25
0.0
 35
0.0
146
0.0
 13
0.0
 23
0.0
 33
0.0
 16
1.0
 26
0.0
 36
0.0
 17
0.0
 27
1.0
 37
0.0
 76
0
330
211
345
0
346
0
  0
ENDSEC
  0
EOF
