999
DXF file: C:\SESA671053\Gen2D\CAD\MCADPP0003369_3D-simplified\drw0001_2.dxf
999
Pro/ENGINEER 2019471 by Parametric Technology Corporation
  0
SECTION
  2
HEADER
  9
$ACADVER
  1
AC1024
  9
$DWGCODEPAGE
  3
ANSI_1252
  9
$EXTMAX
 10
74.5848203099
 20
105.4842458669
 30
0.0
  9
$EXTMIN
 10
0.0
 20
0.0
 30
0.0
  9
$LIMMIN
 10
0.0
 20
0.0
  9
$LIMMAX
 10
74.5848203099
 20
105.4842458669
  9
$VIEWCTR
 10
37.292410155
 20
52.7421229335
  9
$VIEWSIZE
 40
105.4842458669
  9
$CLAYER
  8
0
  9
$LTSCALE
 40
6.876010101
  9
$CELTYPE
  6
BYLAYER
  9
$DIMSCALE
 40
1.0
  9
$DIMASZ
 40
0.8879145275
  9
$DIMEXO
 40
1.0
  9
$DIMDLI
 40
4.7506978879
  9
$DIMEXE
 40
1.0
  9
$DIMCEN
 40
1.1251652892
  9
$DIMLFAC
 40
1.0
  9
$DIMBLK
  1
_FILLED
  9
$DIMALT
 70
0
  9
$DIMALTF
 40
0.0393700787
  9
$DIMTXT
 40
1.2430803385
  9
$DIMTOL
 70
1
  9
$DIMLIM
 70
0
  9
$DIMTFAC
 40
1.0
  9
$DIMTP
 40
0.01
  9
$DIMTM
 40
0.01
  9
$DIMGAP
 40
0.625
  9
$DIMDSEP
 70
46
  9
$AUNITS
 70
0
  9
$PDMODE
 70
3
  9
$PDSIZE
 40
0.3125
  9
$HANDSEED
  5
3A2
  9
$TILEMODE
 70
1
  9
$MEASUREMENT
 70
1
  9
$INSUNITS
 70
4
  0
ENDSEC
  0
SECTION
  2
CLASSES
  0
CLASS
  1
ACDBDICTIONARYWDFLT
  2
AcDbDictionaryWithDefault
  3
AutoCAD 2000
 90
0
 91
1
280
0
281
0
  0
CLASS
  1
ACDBPLACEHOLDER
  2
AcDbPlaceHolder
  3
AutoCAD 2000
 90
0
 91
1
280
0
281
0
  0
CLASS
  1
LAYOUT
  2
AcDbLayout
  3
AutoCAD 2000
 90
0
 91
0
280
0
281
0
  0
ENDSEC
  0
SECTION
  2
TABLES
  0
TABLE
  2
VPORT
  5
8
100
AcDbSymbolTable
 70
2
  0
VPORT
  5
1F4
100
AcDbSymbolTableRecord
100
AcDbViewportTableRecord
  2
*ACTIVE
 70
0
 10
0.0
 20
0.0
 11
1.0
 21
1.0
 12
37.292410155
 22
52.7421229335
 13
0.0
 23
0.0
 14
1.0
 24
1.0
 15
0.0
 25
0.0
 16
0.0
 26
0.0
 36
1.0
 17
0.0
 27
0.0
 37
0.0
 40
105.4842458669
 41
0.7070707071
 42
50.0
 43
0.0
 44
0.0
 50
0.0
 51
0.0
 71
0
 72
100
 73
1
 74
1
 75
0
 76
0
 77
0
 78
0
  0
ENDTAB
  0
TABLE
  2
LTYPE
  5
5
100
AcDbSymbolTable
 70
6
  0
LTYPE
  5
14
100
AcDbSymbolTableRecord
100
AcDbLinetypeTableRecord
  2
BYBLOCK
 70
0
  3

 72
65
 73
0
 40
0.0
  0
LTYPE
  5
15
100
AcDbSymbolTableRecord
100
AcDbLinetypeTableRecord
  2
BYLAYER
 70
0
  3

 72
65
 73
0
 40
0.0
  0
LTYPE
  5
16
100
AcDbSymbolTableRecord
100
AcDbLinetypeTableRecord
  2
CONTINUOUS
 70
64
  3
Solid line
 72
65
 73
0
 40
0.0
  0
LTYPE
  5
1F5
100
AcDbSymbolTableRecord
100
AcDbLinetypeTableRecord
  2
CENTER
 70
64
  3
____ _ ____ _ ____ _ ____ _ ____ _ ____ _ ____
 72
65
 73
4
 40
0.6
 49
0.375
 74
0
 49
-0.075
 74
0
 49
0.075
 74
0
 49
-0.075
 74
0
  0
LTYPE
  5
1F6
100
AcDbSymbolTableRecord
100
AcDbLinetypeTableRecord
  2
HIDDEN
 70
64
  3
- - - - - - - - - - - - - - - - - - - -
 72
65
 73
2
 40
0.2
 49
0.1
 74
0
 49
-0.1
 74
0
  0
LTYPE
  5
1F7
100
AcDbSymbolTableRecord
100
AcDbLinetypeTableRecord
  2
PHANTOM
 70
64
  3
_____ _ _ _____ _ _ _____ _ _ _____
 72
65
 73
6
 40
0.8
 49
0.45
 74
0
 49
-0.05
 74
0
 49
0.1
 74
0
 49
-0.05
 74
0
 49
0.1
 74
0
 49
-0.05
 74
0
  0
LTYPE
  5
1F8
100
AcDbSymbolTableRecord
100
AcDbLinetypeTableRecord
  2
DOT
 70
64
  3
. . . . . . . . . . . . . . . . . . . .
 72
65
 73
2
 40
0.2
 49
0.1
 74
0
 49
-0.1
 74
0
  0
LTYPE
  5
1F9
100
AcDbSymbolTableRecord
100
AcDbLinetypeTableRecord
  2
DASHED
 70
64
  3
- - - - - - - - - - - - - - - - - - - -
 72
65
 73
2
 40
0.2
 49
0.1
 74
0
 49
-0.1
 74
0
  0
ENDTAB
  0
TABLE
  2
LAYER
  5
2
100
AcDbSymbolTable
 70
36
  0
LAYER
  5
10
100
AcDbSymbolTableRecord
100
AcDbLayerTableRecord
  2
0
 70
0
 62
7
  6
CONTINUOUS
370
-3
390
F
  0
LAYER
  5
1FA
100
AcDbSymbolTableRecord
100
AcDbLayerTableRecord
  2
DEFAULT_1
 70
0
 62
7
  6
CENTER
370
-3
390
F
  0
LAYER
  5
1FB
100
AcDbSymbolTableRecord
100
AcDbLayerTableRecord
  2
DEFAULT_2
 70
0
 62
8
  6
HIDDEN
370
-3
390
F
  0
LAYER
  5
1FC
100
AcDbSymbolTableRecord
100
AcDbLayerTableRecord
  2
DEFAULT_3
 70
0
 62
7
  6
PHANTOM
370
-3
390
F
  0
LAYER
  5
1FD
100
AcDbSymbolTableRecord
100
AcDbLayerTableRecord
  2
00_COMPONENTS
 70
0
 62
7
  6
CONTINUOUS
370
-3
390
F
  0
LAYER
  5
1FE
100
AcDbSymbolTableRecord
100
AcDbLayerTableRecord
  2
00_COMPONENTS_1
 70
0
 62
7
  6
CONTINUOUS
370
-3
390
F
  0
LAYER
  5
1FF
100
AcDbSymbolTableRecord
100
AcDbLayerTableRecord
  2
01_1_DEFAULT_DATUMS
 70
0
 62
7
  6
CONTINUOUS
370
-3
390
F
  0
LAYER
  5
200
100
AcDbSymbolTableRecord
100
AcDbLayerTableRecord
  2
01_PLANES
 70
0
 62
7
  6
CONTINUOUS
370
-3
390
F
  0
LAYER
  5
201
100
AcDbSymbolTableRecord
100
AcDbLayerTableRecord
  2
02_COORD_SYS
 70
0
 62
7
  6
CONTINUOUS
370
-3
390
F
  0
LAYER
  5
202
100
AcDbSymbolTableRecord
100
AcDbLayerTableRecord
  2
03_AXES
 70
0
 62
7
  6
CONTINUOUS
370
-3
390
F
  0
LAYER
  5
203
100
AcDbSymbolTableRecord
100
AcDbLayerTableRecord
  2
03_AXES_1
 70
0
 62
7
  6
CONTINUOUS
370
-3
390
F
  0
LAYER
  5
204
100
AcDbSymbolTableRecord
100
AcDbLayerTableRecord
  2
04_POINTS
 70
0
 62
7
  6
CONTINUOUS
370
-3
390
F
  0
LAYER
  5
205
100
AcDbSymbolTableRecord
100
AcDbLayerTableRecord
  2
05_CURVES
 70
0
 62
7
  6
CONTINUOUS
370
-3
390
F
  0
LAYER
  5
206
100
AcDbSymbolTableRecord
100
AcDbLayerTableRecord
  2
06_SURFS
 70
0
 62
7
  6
CONTINUOUS
370
-3
390
F
  0
LAYER
  5
207
100
AcDbSymbolTableRecord
100
AcDbLayerTableRecord
  2
07_COSMETICS
 70
0
 62
7
  6
CONTINUOUS
370
-3
390
F
  0
LAYER
  5
208
100
AcDbSymbolTableRecord
100
AcDbLayerTableRecord
  2
10_NOTES
 70
0
 62
7
  6
CONTINUOUS
370
-3
390
F
  0
LAYER
  5
209
100
AcDbSymbolTableRecord
100
AcDbLayerTableRecord
  2
11_NOTES_PUB
 70
0
 62
7
  6
CONTINUOUS
370
-3
390
F
  0
LAYER
  5
20A
100
AcDbSymbolTableRecord
100
AcDbLayerTableRecord
  2
13_REF_GTOL
 70
0
 62
7
  6
CONTINUOUS
370
-3
390
F
  0
LAYER
  5
20B
100
AcDbSymbolTableRecord
100
AcDbLayerTableRecord
  2
16_MISC
 70
0
 62
7
  6
CONTINUOUS
370
-3
390
F
  0
LAYER
  5
20C
100
AcDbSymbolTableRecord
100
AcDbLayerTableRecord
  2
17_NO_PRINT
 70
0
 62
7
  6
CONTINUOUS
370
-3
390
F
  0
LAYER
  5
20D
100
AcDbSymbolTableRecord
100
AcDbLayerTableRecord
  2
18_DATUM_CAMS_JOINTS
 70
0
 62
7
  6
CONTINUOUS
370
-3
390
F
  0
LAYER
  5
20E
100
AcDbSymbolTableRecord
100
AcDbLayerTableRecord
  2
19_DATUM_FUNCTIONAL
 70
0
 62
7
  6
CONTINUOUS
370
-3
390
F
  0
LAYER
  5
20F
100
AcDbSymbolTableRecord
100
AcDbLayerTableRecord
  2
20_DATUM_KINEMATIC_SCHEME
 70
0
 62
7
  6
CONTINUOUS
370
-3
390
F
  0
LAYER
  5
210
100
AcDbSymbolTableRecord
100
AcDbLayerTableRecord
  2
INTFCLR_18
 70
0
 62
7
  6
CONTINUOUS
370
-3
390
F
  0
LAYER
  5
211
100
AcDbSymbolTableRecord
100
AcDbLayerTableRecord
  2
INTF_BLANK
 70
0
 62
7
  6
CONTINUOUS
370
-3
390
F
  0
LAYER
  5
212
100
AcDbSymbolTableRecord
100
AcDbLayerTableRecord
  2
INTF_YELLOW
 70
0
 62
7
  6
CONTINUOUS
370
-3
390
F
  0
LAYER
  5
213
100
AcDbSymbolTableRecord
100
AcDbLayerTableRecord
  2
_BLACK_HOLE
 70
0
 62
7
  6
CONTINUOUS
370
-3
390
F
  0
ENDTAB
  0
TABLE
  2
STYLE
  5
3
100
AcDbSymbolTable
 70
1
  0
STYLE
  5
11
100
AcDbSymbolTableRecord
100
AcDbTextStyleTableRecord
  2
STANDARD
 70
0
 40
0.0
 41
0.8
 50
0.0
 71
0
 42
0.2
  3
txt
  4

  0
STYLE
  5
214
100
AcDbSymbolTableRecord
100
AcDbTextStyleTableRecord
  2
TEXTSTYLE_1
 70
0
 40
0.0
 41
0.8
 50
0.0
 71
0
 42
0.2
  3
gdt
  4

  0
ENDTAB
  0
TABLE
  2
VIEW
  5
6
100
AcDbSymbolTable
 70
0
  0
ENDTAB
  0
TABLE
  2
UCS
  5
7
100
AcDbSymbolTable
 70
0
  0
ENDTAB
  0
TABLE
  2
APPID
  5
9
100
AcDbSymbolTable
 70
1
  0
APPID
  5
215
100
AcDbSymbolTableRecord
100
AcDbRegAppTableRecord
  2
ACAD
 70
0
  0
ENDTAB
  0
TABLE
  2
BLOCK_RECORD
  5
1
100
AcDbSymbolTable
 70
0
  0
BLOCK_RECORD
  5
216
100
AcDbSymbolTableRecord
100
AcDbBlockTableRecord
  2
*Model_Space
  0
BLOCK_RECORD
  5
217
100
AcDbSymbolTableRecord
100
AcDbBlockTableRecord
  2
*Paper_Space
  0
BLOCK_RECORD
  5
218
100
AcDbSymbolTableRecord
100
AcDbBlockTableRecord
  2
_FILLED
  0
ENDTAB
  0
TABLE
  2
DIMSTYLE
  5
A
100
AcDbSymbolTable
 70
1
100
AcDbDimStyleTable
 71
0
  0
DIMSTYLE
105
219
100
AcDbSymbolTableRecord
100
AcDbDimStyleTableRecord
  2
STANDARD
 70
0
  3

  4

 40
1.0
 41
0.8879145275
 42
1.0
 43
0.38
 44
1.0
 45
0.0
 46
0.0
 47
0.01
 48
0.01
140
1.2430803385
141
0.09
142
0.0
143
25.4
144
1.0
145
0.0
146
1.0
147
0.625
 71
1
 72
0
 73
0
 74
0
 75
0
 76
0
 77
1
 78
8
 79
2
170
0
171
1
172
0
173
0
174
0
175
0
176
0
177
0
178
0
270
2
179
2
271
2
272
2
273
2
274
2
275
0
280
0
281
0
282
0
283
1
284
8
285
0
286
0
287
3
288
0
340
11
278
46
341
218
342
218
343
218
344
218
  0
ENDTAB
  0
ENDSEC
  0
SECTION
  2
BLOCKS
  0
BLOCK
  5
20
100
AcDbEntity
  8
0
100
AcDbBlockBegin
  2
*Model_Space
 70
0
 10
0.0
 20
0.0
 30
0.0
  3
*Model_Space
  1

  0
ENDBLK
  5
21
100
AcDbEntity
  8
0
100
AcDbBlockEnd
  0
BLOCK
  5
1C
100
AcDbEntity
  8
0
100
AcDbBlockBegin
  2
*Paper_Space
 70
0
 10
0.0
 20
0.0
 30
0.0
  3
*Paper_Space
  1

  0
ENDBLK
  5
1D
100
AcDbEntity
  8
0
100
AcDbBlockEnd
  0
BLOCK
  5
21A
100
AcDbEntity
  8
0
100
AcDbBlockBegin
  2
_FILLED
 70
64
 10
0.0
 20
0.0
  3
_FILLED
  1

  0
SOLID
  5
21B
100
AcDbEntity
  8
0
  6
BYBLOCK
 62
0
100
AcDbTrace
 10
0.0
 20
0.0
 11
-1.0
 21
0.25
 12
-1.0
 22
-0.25
 13
-1.0
 23
-0.25
  0
ENDBLK
  5
21C
100
AcDbEntity
  8
0
  6
BYBLOCK
 62
0
100
AcDbBlockEnd
  0
ENDSEC
  0
SECTION
  2
ENTITIES
  0
LINE
  5
21D
100
AcDbEntity
  8
INTFCLR_18
100
AcDbLine
 62
7
420
3368703
  6
CONTINUOUS
 10
8.1777254022
 20
10.6062995026
 11
67.4399883801
 21
10.6062995026
  0
LINE
  5
21E
100
AcDbEntity
  8
INTFCLR_18
100
AcDbLine
 62
7
420
3368703
  6
CONTINUOUS
 10
65.5585373219
 20
17.4906113122
 11
56.9304152258
 21
17.4906113122
  0
LINE
  5
21F
100
AcDbEntity
  8
INTFCLR_18
100
AcDbLine
 62
7
420
3368703
  6
CONTINUOUS
 10
54.9329167902
 20
17.4906113122
 11
11.5047946941
 21
17.4906113122
  0
LINE
  5
220
100
AcDbEntity
  8
00_COMPONENTS_1
100
AcDbLine
 62
7
  6
CONTINUOUS
 10
54.9329167902
 20
17.4906113122
 11
56.9304152258
 21
17.4906113122
  0
LINE
  5
221
100
AcDbEntity
  8
00_COMPONENTS_1
100
AcDbLine
 62
7
  6
CONTINUOUS
 10
26.9316660077
 20
19.9406113122
 11
16.131666008
 21
19.9406113122
  0
LINE
  5
222
100
AcDbEntity
  8
INTFCLR_18
100
AcDbLine
 62
7
420
3368703
  6
CONTINUOUS
 10
16.131666008
 20
19.9406113122
 11
26.9316660077
 21
19.9406113122
  0
LINE
  5
223
100
AcDbEntity
  8
00_COMPONENTS_1
100
AcDbLine
 62
7
  6
CONTINUOUS
 10
54.1072304214
 20
19.9406113122
 11
57.9549377213
 21
19.9406113122
  0
LINE
  5
224
100
AcDbEntity
  8
INTFCLR_18
100
AcDbLine
 62
7
420
3368703
  6
CONTINUOUS
 10
67.4399883801
 20
20.0244128251
 11
60.931666008
 21
20.0244128251
  0
LINE
  5
225
100
AcDbEntity
  8
INTFCLR_18
100
AcDbLine
 62
7
420
3368703
  6
CONTINUOUS
 10
8.1777254022
 20
23.6555530336
 11
8.1777254022
 21
10.6062995026
  0
LINE
  5
226
100
AcDbEntity
  8
00_COMPONENTS_1
100
AcDbLine
 62
7
  6
CONTINUOUS
 10
58.931666008
 20
22.4906113122
 11
58.281666008
 21
22.4906113122
  0
LINE
  5
227
100
AcDbEntity
  8
INTFCLR_18
100
AcDbLine
 62
7
420
3368703
  6
CONTINUOUS
 10
56.031666008
 20
22.4906113122
 11
58.931666008
 21
22.4906113122
  0
LINE
  5
228
100
AcDbEntity
  8
INTFCLR_18
100
AcDbLine
 62
7
420
3368703
  6
CONTINUOUS
 10
16.131666008
 20
23.6555530336
 11
8.1777254022
 21
23.6555530336
  0
LINE
  5
229
100
AcDbEntity
  8
INTFCLR_18
100
AcDbLine
 62
7
420
3368703
  6
CONTINUOUS
 10
42.531666008
 20
25.1406113122
 11
34.531666008
 21
25.1406113122
  0
LINE
  5
22A
100
AcDbEntity
  8
00_COMPONENTS_1
100
AcDbLine
 62
7
  6
CONTINUOUS
 10
34.531666008
 20
25.1406113122
 11
42.531666008
 21
25.1406113122
  0
LINE
  5
22B
100
AcDbEntity
  8
INTFCLR_18
100
AcDbLine
 62
7
420
3368703
  6
CONTINUOUS
 10
11.5047946941
 20
17.4906113122
 11
11.5047946941
 21
94.4005450593
  0
LINE
  5
22C
100
AcDbEntity
  8
INTFCLR_18
100
AcDbLine
 62
7
420
3368703
  6
CONTINUOUS
 10
50.781666008
 20
27.5906113122
 11
45.731666008
 21
27.5906113122
  0
LINE
  5
22D
100
AcDbEntity
  8
INTFCLR_18
100
AcDbLine
 62
7
420
3368703
  6
CONTINUOUS
 10
43.731666008
 20
27.5906113122
 11
28.731666008
 21
27.5906113122
  0
LINE
  5
22E
100
AcDbEntity
  8
INTFCLR_18
100
AcDbLine
 62
7
420
3368703
  6
CONTINUOUS
 10
26.731666008
 20
27.5906113122
 11
19.131666008
 21
27.5906113122
  0
LINE
  5
22F
100
AcDbEntity
  8
00_COMPONENTS_1
100
AcDbLine
 62
7
  6
CONTINUOUS
 10
19.131666008
 20
27.5906113122
 11
26.731666008
 21
27.5906113122
  0
LINE
  5
230
100
AcDbEntity
  8
00_COMPONENTS_1
100
AcDbLine
 62
7
  6
CONTINUOUS
 10
45.731666008
 20
27.5906113122
 11
50.781666008
 21
27.5906113122
  0
LINE
  5
231
100
AcDbEntity
  8
INTFCLR_18
100
AcDbLine
 62
7
420
3368703
  6
CONTINUOUS
 10
43.731666008
 20
27.6406113122
 11
28.731666008
 21
27.6406113122
  0
LINE
  5
232
100
AcDbEntity
  8
00_COMPONENTS_1
100
AcDbLine
 62
7
  6
CONTINUOUS
 10
28.731666008
 20
27.6406113122
 11
43.731666008
 21
27.6406113122
  0
LINE
  5
233
100
AcDbEntity
  8
INTFCLR_18
100
AcDbLine
 62
7
420
3368703
  6
CONTINUOUS
 10
58.931666008
 20
28.2406113122
 11
56.031666008
 21
28.2406113122
  0
LINE
  5
234
100
AcDbEntity
  8
00_COMPONENTS_1
100
AcDbLine
 62
7
  6
CONTINUOUS
 10
56.031666008
 20
28.2406113122
 11
58.931666008
 21
28.2406113122
  0
LINE
  5
235
100
AcDbEntity
  8
INTFCLR_18
100
AcDbLine
 62
7
420
3368703
  6
CONTINUOUS
 10
16.131666008
 20
31.0906113122
 11
16.131666008
 21
29.5906113122
  0
LINE
  5
236
100
AcDbEntity
  8
00_COMPONENTS_1
100
AcDbLine
 62
7
  6
CONTINUOUS
 10
16.131666008
 20
91.8568097993
 11
16.131666008
 21
19.9406113122
  0
LINE
  5
237
100
AcDbEntity
  8
INTFCLR_18
100
AcDbLine
 62
7
420
3368703
  6
CONTINUOUS
 10
16.131666008
 20
23.6555530336
 11
16.131666008
 21
19.9406113122
  0
LINE
  5
238
100
AcDbEntity
  8
INTFCLR_18
100
AcDbLine
 62
7
420
3368703
  6
CONTINUOUS
 10
16.131666008
 20
91.8568097993
 11
16.131666008
 21
94.4906113122
  0
LINE
  5
239
100
AcDbEntity
  8
00_COMPONENTS_1
100
AcDbLine
 62
7
  6
CONTINUOUS
 10
16.131666008
 20
29.5906113122
 11
60.931666008
 21
29.5906113122
  0
LINE
  5
23A
100
AcDbEntity
  8
INTFCLR_18
100
AcDbLine
 62
7
420
3368703
  6
CONTINUOUS
 10
16.131666008
 20
29.5906113122
 11
60.931666008
 21
29.5906113122
  0
LINE
  5
23B
100
AcDbEntity
  8
00_COMPONENTS_1
100
AcDbLine
 62
7
  6
CONTINUOUS
 10
18.131666008
 20
29.9906113122
 11
16.131666008
 21
29.9906113122
  0
LINE
  5
23C
100
AcDbEntity
  8
00_COMPONENTS_1
100
AcDbLine
 62
7
  6
CONTINUOUS
 10
58.931666008
 20
29.9906113122
 11
60.931666008
 21
29.9906113122
  0
LINE
  5
23D
100
AcDbEntity
  8
00_COMPONENTS_1
100
AcDbLine
 62
7
  6
CONTINUOUS
 10
16.131666008
 20
30.4906113122
 11
18.131666008
 21
30.4906113122
  0
LINE
  5
23E
100
AcDbEntity
  8
00_COMPONENTS_1
100
AcDbLine
 62
7
  6
CONTINUOUS
 10
58.931666008
 20
30.4906113122
 11
60.931666008
 21
30.4906113122
  0
LINE
  5
23F
100
AcDbEntity
  8
00_COMPONENTS_1
100
AcDbLine
 62
7
  6
CONTINUOUS
 10
60.931666008
 20
30.5906113122
 11
58.931666008
 21
30.5906113122
  0
LINE
  5
240
100
AcDbEntity
  8
00_COMPONENTS_1
100
AcDbLine
 62
7
  6
CONTINUOUS
 10
18.131666008
 20
30.5906113122
 11
16.131666008
 21
30.5906113122
  0
LINE
  5
241
100
AcDbEntity
  8
INTFCLR_18
100
AcDbLine
 62
7
420
3368703
  6
CONTINUOUS
 10
60.931666008
 20
31.0906113122
 11
55.931666008
 21
31.0906113122
  0
LINE
  5
242
100
AcDbEntity
  8
00_COMPONENTS_1
100
AcDbLine
 62
7
  6
CONTINUOUS
 10
21.131666008
 20
31.0906113122
 11
16.131666008
 21
31.0906113122
  0
LINE
  5
243
100
AcDbEntity
  8
INTFCLR_18
100
AcDbLine
 62
7
420
3368703
  6
CONTINUOUS
 10
21.131666008
 20
31.0906113122
 11
16.131666008
 21
31.0906113122
  0
LINE
  5
244
100
AcDbEntity
  8
00_COMPONENTS_1
100
AcDbLine
 62
7
  6
CONTINUOUS
 10
55.931666008
 20
31.0906113122
 11
60.931666008
 21
31.0906113122
  0
LINE
  5
245
100
AcDbEntity
  8
00_COMPONENTS_1
100
AcDbLine
 62
7
  6
CONTINUOUS
 10
58.931666008
 20
32.2906113122
 11
56.131666008
 21
32.2906113122
  0
LINE
  5
246
100
AcDbEntity
  8
00_COMPONENTS_1
100
AcDbLine
 62
7
  6
CONTINUOUS
 10
20.931666008
 20
32.2906113122
 11
18.131666008
 21
32.2906113122
  0
LINE
  5
247
100
AcDbEntity
  8
INTFCLR_18
100
AcDbLine
 62
7
420
3368703
  6
CONTINUOUS
 10
18.131666008
 20
32.2906113122
 11
20.931666008
 21
32.2906113122
  0
LINE
  5
248
100
AcDbEntity
  8
INTFCLR_18
100
AcDbLine
 62
7
420
3368703
  6
CONTINUOUS
 10
56.131666008
 20
32.2906113122
 11
58.931666008
 21
32.2906113122
  0
LINE
  5
249
100
AcDbEntity
  8
INTFCLR_18
100
AcDbLine
 62
7
420
3368703
  6
CONTINUOUS
 10
18.131666008
 20
90.9906113122
 11
18.131666008
 21
83.7406113122
  0
LINE
  5
24A
100
AcDbEntity
  8
INTFCLR_18
100
AcDbLine
 62
7
420
3368703
  6
CONTINUOUS
 10
18.131666008
 20
80.7406113122
 11
18.131666008
 21
78.6906113122
  0
LINE
  5
24B
100
AcDbEntity
  8
INTFCLR_18
100
AcDbLine
 62
7
420
3368703
  6
CONTINUOUS
 10
18.131666008
 20
35.8406113122
 11
18.131666008
 21
32.2906113122
  0
LINE
  5
24C
100
AcDbEntity
  8
00_COMPONENTS_1
100
AcDbLine
 62
7
  6
CONTINUOUS
 10
18.131666008
 20
26.5906113122
 11
18.131666008
 21
23.8047343957
  0
LINE
  5
24D
100
AcDbEntity
  8
INTFCLR_18
100
AcDbLine
 62
7
420
3368703
  6
CONTINUOUS
 10
18.131666008
 20
26.5906113122
 11
18.131666008
 21
23.8047343957
  0
LINE
  5
24E
100
AcDbEntity
  8
00_COMPONENTS_1
100
AcDbLine
 62
7
  6
CONTINUOUS
 10
18.131666008
 20
29.5906113122
 11
18.131666008
 21
31.0906113122
  0
LINE
  5
24F
100
AcDbEntity
  8
00_COMPONENTS_1
100
AcDbLine
 62
7
  6
CONTINUOUS
 10
18.131666008
 20
32.2906113122
 11
18.131666008
 21
35.8406113122
  0
LINE
  5
250
100
AcDbEntity
  8
00_COMPONENTS_1
100
AcDbLine
 62
7
  6
CONTINUOUS
 10
18.131666008
 20
78.6906113122
 11
18.131666008
 21
80.7406113122
  0
LINE
  5
251
100
AcDbEntity
  8
00_COMPONENTS_1
100
AcDbLine
 62
7
  6
CONTINUOUS
 10
18.131666008
 20
83.7406113122
 11
18.131666008
 21
90.9906113122
  0
LINE
  5
252
100
AcDbEntity
  8
INTFCLR_18
100
AcDbLine
 62
7
420
3368703
  6
CONTINUOUS
 10
18.781666008
 20
90.9406113122
 11
18.781666008
 21
85.9406113122
  0
LINE
  5
253
100
AcDbEntity
  8
00_COMPONENTS_1
100
AcDbLine
 62
7
  6
CONTINUOUS
 10
18.781666008
 20
85.9406113122
 11
18.781666008
 21
90.9406113122
  0
LINE
  5
254
100
AcDbEntity
  8
INTFCLR_18
100
AcDbLine
 62
7
420
3368703
  6
CONTINUOUS
 10
19.1029123955
 20
66.7842816067
 11
19.1029123955
 21
63.7842816067
  0
LINE
  5
255
100
AcDbEntity
  8
INTFCLR_18
100
AcDbLine
 62
7
420
3368703
  6
CONTINUOUS
 10
19.1029123955
 20
60.0842816067
 11
19.1029123955
 21
53.0842816067
  0
LINE
  5
256
100
AcDbEntity
  8
INTFCLR_18
100
AcDbLine
 62
7
420
3368703
  6
CONTINUOUS
 10
19.1029123955
 20
49.4842816067
 11
19.1029123955
 21
46.4842816067
  0
LINE
  5
257
100
AcDbEntity
  8
00_COMPONENTS_1
100
AcDbLine
 62
7
  6
CONTINUOUS
 10
19.1029123955
 20
46.4842816067
 11
19.1029123955
 21
49.4842816067
  0
LINE
  5
258
100
AcDbEntity
  8
00_COMPONENTS_1
100
AcDbLine
 62
7
  6
CONTINUOUS
 10
19.1029123955
 20
53.0842816067
 11
19.1029123955
 21
60.0842816067
  0
LINE
  5
259
100
AcDbEntity
  8
00_COMPONENTS_1
100
AcDbLine
 62
7
  6
CONTINUOUS
 10
19.1029123955
 20
63.7842816067
 11
19.1029123955
 21
66.7842816067
  0
LINE
  5
25A
100
AcDbEntity
  8
INTFCLR_18
100
AcDbLine
 62
7
420
3368703
  6
CONTINUOUS
 10
19.681666008
 20
76.6406113122
 11
19.681666008
 21
71.7406113122
  0
LINE
  5
25B
100
AcDbEntity
  8
00_COMPONENTS_1
100
AcDbLine
 62
7
  6
CONTINUOUS
 10
19.681666008
 20
71.7406113122
 11
19.681666008
 21
76.6406113122
  0
LINE
  5
25C
100
AcDbEntity
  8
00_COMPONENTS_1
100
AcDbLine
 62
7
  6
CONTINUOUS
 10
20.931666008
 20
35.8406113122
 11
20.931666008
 21
32.2906113122
  0
LINE
  5
25D
100
AcDbEntity
  8
INTFCLR_18
100
AcDbLine
 62
7
420
3368703
  6
CONTINUOUS
 10
20.931666008
 20
32.2906113122
 11
20.931666008
 21
35.8406113122
  0
LINE
  5
25E
100
AcDbEntity
  8
INTFCLR_18
100
AcDbLine
 62
7
420
3368703
  6
CONTINUOUS
 10
21.031666008
 20
83.7406113122
 11
21.031666008
 21
90.9906113122
  0
LINE
  5
25F
100
AcDbEntity
  8
INTFCLR_18
100
AcDbLine
 62
7
420
3368703
  6
CONTINUOUS
 10
58.931666008
 20
35.8406113122
 11
56.131666008
 21
35.8406113122
  0
LINE
  5
260
100
AcDbEntity
  8
INTFCLR_18
100
AcDbLine
 62
7
420
3368703
  6
CONTINUOUS
 10
20.931666008
 20
35.8406113122
 11
18.131666008
 21
35.8406113122
  0
LINE
  5
261
100
AcDbEntity
  8
00_COMPONENTS_1
100
AcDbLine
 62
7
  6
CONTINUOUS
 10
18.131666008
 20
35.8406113122
 11
20.931666008
 21
35.8406113122
  0
LINE
  5
262
100
AcDbEntity
  8
00_COMPONENTS_1
100
AcDbLine
 62
7
  6
CONTINUOUS
 10
56.131666008
 20
35.8406113122
 11
58.931666008
 21
35.8406113122
  0
LINE
  5
263
100
AcDbEntity
  8
00_COMPONENTS_1
100
AcDbLine
 62
7
  6
CONTINUOUS
 10
21.681666008
 20
77.6906113122
 11
21.681666008
 21
73.7406113122
  0
LINE
  5
264
100
AcDbEntity
  8
INTFCLR_18
100
AcDbLine
 62
7
420
3368703
  6
CONTINUOUS
 10
21.681666008
 20
77.6906113122
 11
21.681666008
 21
73.7406113122
  0
LINE
  5
265
100
AcDbEntity
  8
INTFCLR_18
100
AcDbLine
 62
7
420
3368703
  6
CONTINUOUS
 10
22.131666008
 20
39.4406113122
 11
22.131666008
 21
32.0906113122
  0
LINE
  5
266
100
AcDbEntity
  8
00_COMPONENTS_1
100
AcDbLine
 62
7
  6
CONTINUOUS
 10
22.131666008
 20
32.0906113122
 11
22.131666008
 21
39.4406113122
  0
LINE
  5
267
100
AcDbEntity
  8
00_COMPONENTS_1
100
AcDbLine
 62
7
  6
CONTINUOUS
 10
22.4029123955
 20
60.0842816067
 11
22.4029123955
 21
53.0842816067
  0
LINE
  5
268
100
AcDbEntity
  8
INTFCLR_18
100
AcDbLine
 62
7
420
3368703
  6
CONTINUOUS
 10
22.4029123955
 20
53.0842816067
 11
22.4029123955
 21
60.0842816067
  0
LINE
  5
269
100
AcDbEntity
  8
00_COMPONENTS_1
100
AcDbLine
 62
7
  6
CONTINUOUS
 10
23.031666008
 20
73.7406113122
 11
23.031666008
 21
80.7406113122
  0
LINE
  5
26A
100
AcDbEntity
  8
INTFCLR_18
100
AcDbLine
 62
7
420
3368703
  6
CONTINUOUS
 10
23.031666008
 20
73.7406113122
 11
23.031666008
 21
80.7406113122
  0
LINE
  5
26B
100
AcDbEntity
  8
00_COMPONENTS_1
100
AcDbLine
 62
7
  6
CONTINUOUS
 10
23.281666008
 20
90.9406113122
 11
23.281666008
 21
85.9406113122
  0
LINE
  5
26C
100
AcDbEntity
  8
INTFCLR_18
100
AcDbLine
 62
7
420
3368703
  6
CONTINUOUS
 10
23.281666008
 20
85.9406113122
 11
23.281666008
 21
90.9406113122
  0
LINE
  5
26D
100
AcDbEntity
  8
00_COMPONENTS_1
100
AcDbLine
 62
7
  6
CONTINUOUS
 10
23.831666008
 20
29.5906113122
 11
23.831666008
 21
38.4406113122
  0
LINE
  5
26E
100
AcDbEntity
  8
00_COMPONENTS_1
100
AcDbLine
 62
7
  6
CONTINUOUS
 10
16.131666008
 20
36.9898849284
 11
22.131666008
 21
36.9898849284
  0
LINE
  5
26F
100
AcDbEntity
  8
00_COMPONENTS_1
100
AcDbLine
 62
7
  6
CONTINUOUS
 10
54.931666008
 20
36.9898849284
 11
60.931666008
 21
36.9898849284
  0
LINE
  5
270
100
AcDbEntity
  8
00_COMPONENTS_1
100
AcDbLine
 62
7
  6
CONTINUOUS
 10
52.031666008
 20
37.2406113122
 11
25.031666008
 21
37.2406113122
  0
LINE
  5
271
100
AcDbEntity
  8
00_COMPONENTS_1
100
AcDbLine
 62
7
  6
CONTINUOUS
 10
23.831666008
 20
38.4406113122
 11
53.231666008
 21
38.4406113122
  0
LINE
  5
272
100
AcDbEntity
  8
INTFCLR_18
100
AcDbLine
 62
7
420
3368703
  6
CONTINUOUS
 10
25.031666008
 20
88.9906113122
 11
25.031666008
 21
80.1406113122
  0
LINE
  5
273
100
AcDbEntity
  8
00_COMPONENTS_1
100
AcDbLine
 62
7
  6
CONTINUOUS
 10
25.031666008
 20
37.2406113122
 11
25.031666008
 21
29.5906113122
  0
LINE
  5
274
100
AcDbEntity
  8
00_COMPONENTS_1
100
AcDbLine
 62
7
  6
CONTINUOUS
 10
25.031666008
 20
80.1406113122
 11
25.031666008
 21
88.9906113122
  0
LINE
  5
275
100
AcDbEntity
  8
00_COMPONENTS_1
100
AcDbLine
 62
7
  6
CONTINUOUS
 10
25.2029123955
 20
66.7842816067
 11
25.2029123955
 21
64.5842816067
  0
LINE
  5
276
100
AcDbEntity
  8
00_COMPONENTS_1
100
AcDbLine
 62
7
  6
CONTINUOUS
 10
25.2029123955
 20
47.9842816067
 11
25.2029123955
 21
46.4842816067
  0
LINE
  5
277
100
AcDbEntity
  8
INTFCLR_18
100
AcDbLine
 62
7
420
3368703
  6
CONTINUOUS
 10
25.2029123955
 20
46.4842816067
 11
25.2029123955
 21
47.9842816067
  0
LINE
  5
278
100
AcDbEntity
  8
INTFCLR_18
100
AcDbLine
 62
7
420
3368703
  6
CONTINUOUS
 10
25.2029123955
 20
64.5842816067
 11
25.2029123955
 21
66.7842816067
  0
LINE
  5
279
100
AcDbEntity
  8
00_COMPONENTS_1
100
AcDbLine
 62
7
  6
CONTINUOUS
 10
25.531666008
 20
80.1406113122
 11
25.531666008
 21
89.6230668442
  0
LINE
  5
27A
100
AcDbEntity
  8
00_COMPONENTS_1
100
AcDbLine
 62
7
  6
CONTINUOUS
 10
26.331666008
 20
88.9906113122
 11
26.331666008
 21
82.6406113122
  0
LINE
  5
27B
100
AcDbEntity
  8
INTFCLR_18
100
AcDbLine
 62
7
420
3368703
  6
CONTINUOUS
 10
26.331666008
 20
82.6406113122
 11
26.331666008
 21
88.9906113122
  0
LINE
  5
27C
100
AcDbEntity
  8
00_COMPONENTS_1
100
AcDbLine
 62
7
  6
CONTINUOUS
 10
26.731666008
 20
27.5906113122
 11
26.731666008
 21
21.2314097978
  0
LINE
  5
27D
100
AcDbEntity
  8
INTFCLR_18
100
AcDbLine
 62
7
420
3368703
  6
CONTINUOUS
 10
26.731666008
 20
21.2314097978
 11
26.731666008
 21
27.5906113122
  0
LINE
  5
27E
100
AcDbEntity
  8
INTFCLR_18
100
AcDbLine
 62
7
420
3368703
  6
CONTINUOUS
 10
27.031666008
 20
80.1406113122
 11
27.031666008
 21
72.6406113122
  0
LINE
  5
27F
100
AcDbEntity
  8
00_COMPONENTS_1
100
AcDbLine
 62
7
  6
CONTINUOUS
 10
27.031666008
 20
72.6406113122
 11
27.031666008
 21
80.1406113122
  0
LINE
  5
280
100
AcDbEntity
  8
00_COMPONENTS_1
100
AcDbLine
 62
7
  6
CONTINUOUS
 10
27.4029123955
 20
64.5842816067
 11
27.4029123955
 21
63.7842816067
  0
LINE
  5
281
100
AcDbEntity
  8
00_COMPONENTS_1
100
AcDbLine
 62
7
  6
CONTINUOUS
 10
27.4029123955
 20
49.4842816067
 11
27.4029123955
 21
47.9842816067
  0
LINE
  5
282
100
AcDbEntity
  8
INTFCLR_18
100
AcDbLine
 62
7
420
3368703
  6
CONTINUOUS
 10
27.4029123955
 20
47.9842816067
 11
27.4029123955
 21
49.4842816067
  0
LINE
  5
283
100
AcDbEntity
  8
INTFCLR_18
100
AcDbLine
 62
7
420
3368703
  6
CONTINUOUS
 10
27.4029123955
 20
63.7842816067
 11
27.4029123955
 21
64.5842816067
  0
LINE
  5
284
100
AcDbEntity
  8
INTFCLR_18
100
AcDbLine
 62
7
420
3368703
  6
CONTINUOUS
 10
54.931666008
 20
39.4406113122
 11
22.131666008
 21
39.4406113122
  0
LINE
  5
285
100
AcDbEntity
  8
00_COMPONENTS_1
100
AcDbLine
 62
7
  6
CONTINUOUS
 10
16.131666008
 20
39.4406113122
 11
22.131666008
 21
39.4406113122
  0
LINE
  5
286
100
AcDbEntity
  8
00_COMPONENTS_1
100
AcDbLine
 62
7
  6
CONTINUOUS
 10
54.931666008
 20
39.4406113122
 11
60.931666008
 21
39.4406113122
  0
LINE
  5
287
100
AcDbEntity
  8
03_AXES_1
100
AcDbLine
 62
2
  6
CONTINUOUS
 10
28.031666008
 20
72.6406113117
 11
28.031666008
 21
82.6406113122
  0
LINE
  5
288
100
AcDbEntity
  8
00_COMPONENTS_1
100
AcDbLine
 62
7
  6
CONTINUOUS
 10
28.731666008
 20
27.6406113122
 11
28.731666008
 21
20.9539457853
  0
LINE
  5
289
100
AcDbEntity
  8
INTFCLR_18
100
AcDbLine
 62
7
420
3368703
  6
CONTINUOUS
 10
28.731666008
 20
27.6406113122
 11
28.731666008
 21
20.9539457853
  0
LINE
  5
28A
100
AcDbEntity
  8
00_COMPONENTS_1
100
AcDbLine
 62
7
  6
CONTINUOUS
 10
29.031666008
 20
80.1406113122
 11
29.031666008
 21
72.6406113122
  0
LINE
  5
28B
100
AcDbEntity
  8
INTFCLR_18
100
AcDbLine
 62
7
420
3368703
  6
CONTINUOUS
 10
29.031666008
 20
72.6406113122
 11
29.031666008
 21
80.1406113122
  0
LINE
  5
28C
100
AcDbEntity
  8
INTFCLR_18
100
AcDbLine
 62
7
420
3368703
  6
CONTINUOUS
 10
29.731666008
 20
88.9906113122
 11
29.731666008
 21
82.6406113122
  0
LINE
  5
28D
100
AcDbEntity
  8
00_COMPONENTS_1
100
AcDbLine
 62
7
  6
CONTINUOUS
 10
29.731666008
 20
82.6406113122
 11
29.731666008
 21
88.9906113122
  0
LINE
  5
28E
100
AcDbEntity
  8
00_COMPONENTS_1
100
AcDbLine
 62
7
  6
CONTINUOUS
 10
30.531666008
 20
89.6230668442
 11
30.531666008
 21
80.1406113122
  0
LINE
  5
28F
100
AcDbEntity
  8
00_COMPONENTS_1
100
AcDbLine
 62
7
  6
CONTINUOUS
 10
31.031666008
 20
88.9906113122
 11
31.031666008
 21
80.1406113122
  0
LINE
  5
290
100
AcDbEntity
  8
INTFCLR_18
100
AcDbLine
 62
7
420
3368703
  6
CONTINUOUS
 10
31.031666008
 20
80.1406113122
 11
31.031666008
 21
88.9906113122
  0
LINE
  5
291
100
AcDbEntity
  8
00_COMPONENTS_1
100
AcDbLine
 62
7
  6
CONTINUOUS
 10
32.031666008
 20
75.6406113122
 11
32.031666008
 21
71.7406113122
  0
LINE
  5
292
100
AcDbEntity
  8
INTFCLR_18
100
AcDbLine
 62
7
420
3368703
  6
CONTINUOUS
 10
32.031666008
 20
71.7406113122
 11
32.031666008
 21
75.6406113122
  0
LINE
  5
293
100
AcDbEntity
  8
INTFCLR_18
100
AcDbLine
 62
7
420
3368703
  6
CONTINUOUS
 10
33.031666008
 20
90.2906113122
 11
33.031666008
 21
78.6906113122
  0
LINE
  5
294
100
AcDbEntity
  8
00_COMPONENTS_1
100
AcDbLine
 62
7
  6
CONTINUOUS
 10
33.031666008
 20
78.6906113122
 11
33.031666008
 21
90.2906113122
  0
LINE
  5
295
100
AcDbEntity
  8
INTFCLR_18
100
AcDbLine
 62
7
420
3368703
  6
CONTINUOUS
 10
34.531666008
 20
25.1406113122
 11
34.531666008
 21
24.1165339324
  0
LINE
  5
296
100
AcDbEntity
  8
00_COMPONENTS_1
100
AcDbLine
 62
7
  6
CONTINUOUS
 10
34.531666008
 20
24.1165339324
 11
34.531666008
 21
25.1406113122
  0
LINE
  5
297
100
AcDbEntity
  8
00_COMPONENTS_1
100
AcDbLine
 62
7
  6
CONTINUOUS
 10
59.3029123955
 20
46.4842816067
 11
51.6029123955
 21
46.4842816067
  0
LINE
  5
298
100
AcDbEntity
  8
00_COMPONENTS_1
100
AcDbLine
 62
7
  6
CONTINUOUS
 10
25.2029123955
 20
46.4842816067
 11
19.1029123955
 21
46.4842816067
  0
LINE
  5
299
100
AcDbEntity
  8
INTFCLR_18
100
AcDbLine
 62
7
420
3368703
  6
CONTINUOUS
 10
19.1029123955
 20
46.4842816067
 11
25.2029123955
 21
46.4842816067
  0
LINE
  5
29A
100
AcDbEntity
  8
INTFCLR_18
100
AcDbLine
 62
7
420
3368703
  6
CONTINUOUS
 10
51.6029123955
 20
46.4842816067
 11
59.3029123955
 21
46.4842816067
  0
LINE
  5
29B
100
AcDbEntity
  8
00_COMPONENTS_1
100
AcDbLine
 62
7
  6
CONTINUOUS
 10
51.6029123955
 20
47.9842816067
 11
49.4029123955
 21
47.9842816067
  0
LINE
  5
29C
100
AcDbEntity
  8
00_COMPONENTS_1
100
AcDbLine
 62
7
  6
CONTINUOUS
 10
27.4029123955
 20
47.9842816067
 11
25.2029123955
 21
47.9842816067
  0
LINE
  5
29D
100
AcDbEntity
  8
INTFCLR_18
100
AcDbLine
 62
7
420
3368703
  6
CONTINUOUS
 10
25.2029123955
 20
47.9842816067
 11
27.4029123955
 21
47.9842816067
  0
LINE
  5
29E
100
AcDbEntity
  8
INTFCLR_18
100
AcDbLine
 62
7
420
3368703
  6
CONTINUOUS
 10
49.4029123955
 20
47.9842816067
 11
51.6029123955
 21
47.9842816067
  0
LINE
  5
29F
100
AcDbEntity
  8
INTFCLR_18
100
AcDbLine
 62
7
420
3368703
  6
CONTINUOUS
 10
27.4029123955
 20
49.4842816067
 11
19.1029123955
 21
49.4842816067
  0
LINE
  5
2A0
100
AcDbEntity
  8
00_COMPONENTS_1
100
AcDbLine
 62
7
  6
CONTINUOUS
 10
19.1029123955
 20
49.4842816067
 11
27.4029123955
 21
49.4842816067
  0
LINE
  5
2A1
100
AcDbEntity
  8
INTFCLR_18
100
AcDbLine
 62
7
420
3368703
  6
CONTINUOUS
 10
59.3029123955
 20
49.5842816067
 11
49.4029123955
 21
49.5842816067
  0
LINE
  5
2A2
100
AcDbEntity
  8
00_COMPONENTS_1
100
AcDbLine
 62
7
  6
CONTINUOUS
 10
49.4029123955
 20
49.5842816067
 11
59.3029123955
 21
49.5842816067
  0
LINE
  5
2A3
100
AcDbEntity
  8
00_COMPONENTS_1
100
AcDbLine
 62
7
  6
CONTINUOUS
 10
52.5547280271
 20
18.6115407296
 11
52.076919708
 21
19.4391290146
  0
LINE
  5
2A4
100
AcDbEntity
  8
INTFCLR_18
100
AcDbLine
 62
7
420
3368703
  6
CONTINUOUS
 10
52.5547280271
 20
18.6115407296
 11
52.076919708
 21
19.4391290146
  0
LINE
  5
2A5
100
AcDbEntity
  8
00_COMPONENTS_1
100
AcDbLine
 62
7
  6
CONTINUOUS
 10
59.3029123955
 20
50.8842816067
 11
56.6529123955
 21
50.8842816067
  0
LINE
  5
2A6
100
AcDbEntity
  8
INTFCLR_18
100
AcDbLine
 62
7
420
3368703
  6
CONTINUOUS
 10
56.6529123955
 20
50.8842816067
 11
59.3029123955
 21
50.8842816067
  0
LINE
  5
2A7
100
AcDbEntity
  8
00_COMPONENTS_1
100
AcDbLine
 62
7
  6
CONTINUOUS
 10
56.6529123955
 20
53.0842816067
 11
54.4029123955
 21
53.0842816067
  0
LINE
  5
2A8
100
AcDbEntity
  8
00_COMPONENTS_1
100
AcDbLine
 62
7
  6
CONTINUOUS
 10
22.4029123955
 20
53.0842816067
 11
19.1029123955
 21
53.0842816067
  0
LINE
  5
2A9
100
AcDbEntity
  8
INTFCLR_18
100
AcDbLine
 62
7
420
3368703
  6
CONTINUOUS
 10
19.1029123955
 20
53.0842816067
 11
22.4029123955
 21
53.0842816067
  0
LINE
  5
2AA
100
AcDbEntity
  8
INTFCLR_18
100
AcDbLine
 62
7
420
3368703
  6
CONTINUOUS
 10
54.4029123955
 20
53.0842816067
 11
56.6529123955
 21
53.0842816067
  0
LINE
  5
2AB
100
AcDbEntity
  8
00_COMPONENTS_1
100
AcDbLine
 62
7
  6
CONTINUOUS
 10
42.531666008
 20
25.1406113122
 11
42.531666008
 21
24.1165339324
  0
LINE
  5
2AC
100
AcDbEntity
  8
INTFCLR_18
100
AcDbLine
 62
7
420
3368703
  6
CONTINUOUS
 10
42.531666008
 20
24.1165339324
 11
42.531666008
 21
25.1406113122
  0
LINE
  5
2AD
100
AcDbEntity
  8
00_COMPONENTS_1
100
AcDbLine
 62
7
  6
CONTINUOUS
 10
43.731666008
 20
20.512810119
 11
43.731666008
 21
27.6406113122
  0
LINE
  5
2AE
100
AcDbEntity
  8
INTFCLR_18
100
AcDbLine
 62
7
420
3368703
  6
CONTINUOUS
 10
43.731666008
 20
20.512810119
 11
43.731666008
 21
27.6406113122
  0
LINE
  5
2AF
100
AcDbEntity
  8
00_COMPONENTS_1
100
AcDbLine
 62
7
  6
CONTINUOUS
 10
44.031666008
 20
90.2906113122
 11
44.031666008
 21
78.6906113122
  0
LINE
  5
2B0
100
AcDbEntity
  8
INTFCLR_18
100
AcDbLine
 62
7
420
3368703
  6
CONTINUOUS
 10
44.031666008
 20
78.6906113122
 11
44.031666008
 21
90.2906113122
  0
LINE
  5
2B1
100
AcDbEntity
  8
INTFCLR_18
100
AcDbLine
 62
7
420
3368703
  6
CONTINUOUS
 10
45.031666008
 20
75.6406113122
 11
45.031666008
 21
71.7406113122
  0
LINE
  5
2B2
100
AcDbEntity
  8
00_COMPONENTS_1
100
AcDbLine
 62
7
  6
CONTINUOUS
 10
45.031666008
 20
71.7406113122
 11
45.031666008
 21
75.6406113122
  0
LINE
  5
2B3
100
AcDbEntity
  8
INTFCLR_18
100
AcDbLine
 62
7
420
3368703
  6
CONTINUOUS
 10
45.731666008
 20
27.5906113122
 11
45.731666008
 21
20.6710770092
  0
LINE
  5
2B4
100
AcDbEntity
  8
00_COMPONENTS_1
100
AcDbLine
 62
7
  6
CONTINUOUS
 10
45.731666008
 20
20.6710770092
 11
45.731666008
 21
27.5906113122
  0
LINE
  5
2B5
100
AcDbEntity
  8
INTFCLR_18
100
AcDbLine
 62
7
420
3368703
  6
CONTINUOUS
 10
46.031666008
 20
88.9906113122
 11
46.031666008
 21
80.1406113122
  0
LINE
  5
2B6
100
AcDbEntity
  8
00_COMPONENTS_1
100
AcDbLine
 62
7
  6
CONTINUOUS
 10
46.031666008
 20
80.1406113122
 11
46.031666008
 21
88.9906113122
  0
LINE
  5
2B7
100
AcDbEntity
  8
00_COMPONENTS_1
100
AcDbLine
 62
7
  6
CONTINUOUS
 10
46.531666008
 20
80.1406113122
 11
46.531666008
 21
89.6230668442
  0
LINE
  5
2B8
100
AcDbEntity
  8
00_COMPONENTS_1
100
AcDbLine
 62
7
  6
CONTINUOUS
 10
47.331666008
 20
88.9906113122
 11
47.331666008
 21
82.6406113122
  0
LINE
  5
2B9
100
AcDbEntity
  8
INTFCLR_18
100
AcDbLine
 62
7
420
3368703
  6
CONTINUOUS
 10
47.331666008
 20
82.6406113122
 11
47.331666008
 21
88.9906113122
  0
LINE
  5
2BA
100
AcDbEntity
  8
INTFCLR_18
100
AcDbLine
 62
7
420
3368703
  6
CONTINUOUS
 10
48.031666008
 20
80.1406113122
 11
48.031666008
 21
72.6406113122
  0
LINE
  5
2BB
100
AcDbEntity
  8
00_COMPONENTS_1
100
AcDbLine
 62
7
  6
CONTINUOUS
 10
48.031666008
 20
72.6406113122
 11
48.031666008
 21
80.1406113122
  0
LINE
  5
2BC
100
AcDbEntity
  8
INTFCLR_18
100
AcDbLine
 62
7
420
3368703
  6
CONTINUOUS
 10
56.6529123955
 20
60.0842816067
 11
54.4029123955
 21
60.0842816067
  0
LINE
  5
2BD
100
AcDbEntity
  8
INTFCLR_18
100
AcDbLine
 62
7
420
3368703
  6
CONTINUOUS
 10
22.4029123955
 20
60.0842816067
 11
19.1029123955
 21
60.0842816067
  0
LINE
  5
2BE
100
AcDbEntity
  8
00_COMPONENTS_1
100
AcDbLine
 62
7
  6
CONTINUOUS
 10
19.1029123955
 20
60.0842816067
 11
22.4029123955
 21
60.0842816067
  0
LINE
  5
2BF
100
AcDbEntity
  8
00_COMPONENTS_1
100
AcDbLine
 62
7
  6
CONTINUOUS
 10
54.4029123955
 20
60.0842816067
 11
56.6529123955
 21
60.0842816067
  0
LINE
  5
2C0
100
AcDbEntity
  8
INTFCLR_18
100
AcDbLine
 62
7
420
3368703
  6
CONTINUOUS
 10
59.3029123955
 20
62.2842816067
 11
56.6529123955
 21
62.2842816067
  0
LINE
  5
2C1
100
AcDbEntity
  8
00_COMPONENTS_1
100
AcDbLine
 62
7
  6
CONTINUOUS
 10
56.6529123955
 20
62.2842816067
 11
59.3029123955
 21
62.2842816067
  0
LINE
  5
2C2
100
AcDbEntity
  8
00_COMPONENTS_1
100
AcDbLine
 62
7
  6
CONTINUOUS
 10
24.5086039888
 20
93.2696818948
 11
24.986412308
 21
92.4420936097
  0
LINE
  5
2C3
100
AcDbEntity
  8
03_AXES_1
100
AcDbLine
 62
2
  6
CONTINUOUS
 10
49.031666008
 20
72.6406113117
 11
49.031666008
 21
82.6406113122
  0
LINE
  5
2C4
100
AcDbEntity
  8
03_AXES_1
100
AcDbLine
 62
2
  6
CONTINUOUS
 10
49.031666008
 20
92.2485554287
 11
49.031666008
 21
92.5398951416
  0
LINE
  5
2C5
100
AcDbEntity
  8
INTFCLR_18
100
AcDbLine
 62
7
420
3368703
  6
CONTINUOUS
 10
49.4029123955
 20
64.5842816067
 11
49.4029123955
 21
63.7842816067
  0
LINE
  5
2C6
100
AcDbEntity
  8
INTFCLR_18
100
AcDbLine
 62
7
420
3368703
  6
CONTINUOUS
 10
49.4029123955
 20
49.5842816067
 11
49.4029123955
 21
47.9842816067
  0
LINE
  5
2C7
100
AcDbEntity
  8
00_COMPONENTS_1
100
AcDbLine
 62
7
  6
CONTINUOUS
 10
49.4029123955
 20
47.9842816067
 11
49.4029123955
 21
49.5842816067
  0
LINE
  5
2C8
100
AcDbEntity
  8
00_COMPONENTS_1
100
AcDbLine
 62
7
  6
CONTINUOUS
 10
49.4029123955
 20
63.7842816067
 11
49.4029123955
 21
64.5842816067
  0
LINE
  5
2C9
100
AcDbEntity
  8
00_COMPONENTS_1
100
AcDbLine
 62
7
  6
CONTINUOUS
 10
50.031666008
 20
80.1406113122
 11
50.031666008
 21
72.6406113122
  0
LINE
  5
2CA
100
AcDbEntity
  8
INTFCLR_18
100
AcDbLine
 62
7
420
3368703
  6
CONTINUOUS
 10
50.031666008
 20
72.6406113122
 11
50.031666008
 21
80.1406113122
  0
LINE
  5
2CB
100
AcDbEntity
  8
INTFCLR_18
100
AcDbLine
 62
7
420
3368703
  6
CONTINUOUS
 10
50.731666008
 20
88.9906113122
 11
50.731666008
 21
82.6406113122
  0
LINE
  5
2CC
100
AcDbEntity
  8
00_COMPONENTS_1
100
AcDbLine
 62
7
  6
CONTINUOUS
 10
50.731666008
 20
82.6406113122
 11
50.731666008
 21
88.9906113122
  0
LINE
  5
2CD
100
AcDbEntity
  8
00_COMPONENTS_1
100
AcDbLine
 62
7
  6
CONTINUOUS
 10
51.531666008
 20
89.6230668442
 11
51.531666008
 21
80.1406113122
  0
LINE
  5
2CE
100
AcDbEntity
  8
INTFCLR_18
100
AcDbLine
 62
7
420
3368703
  6
CONTINUOUS
 10
51.6029123955
 20
66.7842816067
 11
51.6029123955
 21
64.5842816067
  0
LINE
  5
2CF
100
AcDbEntity
  8
INTFCLR_18
100
AcDbLine
 62
7
420
3368703
  6
CONTINUOUS
 10
51.6029123955
 20
47.9842816067
 11
51.6029123955
 21
46.4842816067
  0
LINE
  5
2D0
100
AcDbEntity
  8
00_COMPONENTS_1
100
AcDbLine
 62
7
  6
CONTINUOUS
 10
51.6029123955
 20
46.4842816067
 11
51.6029123955
 21
47.9842816067
  0
LINE
  5
2D1
100
AcDbEntity
  8
00_COMPONENTS_1
100
AcDbLine
 62
7
  6
CONTINUOUS
 10
51.6029123955
 20
64.5842816067
 11
51.6029123955
 21
66.7842816067
  0
LINE
  5
2D2
100
AcDbEntity
  8
00_COMPONENTS_1
100
AcDbLine
 62
7
  6
CONTINUOUS
 10
51.781666008
 20
22.3136088913
 11
51.781666008
 21
26.5906113122
  0
LINE
  5
2D3
100
AcDbEntity
  8
INTFCLR_18
100
AcDbLine
 62
7
420
3368703
  6
CONTINUOUS
 10
51.781666008
 20
22.3136088913
 11
51.781666008
 21
26.5906113122
  0
LINE
  5
2D4
100
AcDbEntity
  8
00_COMPONENTS_1
100
AcDbLine
 62
7
  6
CONTINUOUS
 10
59.3029123955
 20
63.7842816067
 11
49.4029123955
 21
63.7842816067
  0
LINE
  5
2D5
100
AcDbEntity
  8
00_COMPONENTS_1
100
AcDbLine
 62
7
  6
CONTINUOUS
 10
27.4029123955
 20
63.7842816067
 11
19.1029123955
 21
63.7842816067
  0
LINE
  5
2D6
100
AcDbEntity
  8
INTFCLR_18
100
AcDbLine
 62
7
420
3368703
  6
CONTINUOUS
 10
19.1029123955
 20
63.7842816067
 11
27.4029123955
 21
63.7842816067
  0
LINE
  5
2D7
100
AcDbEntity
  8
INTFCLR_18
100
AcDbLine
 62
7
420
3368703
  6
CONTINUOUS
 10
49.4029123955
 20
63.7842816067
 11
59.3029123955
 21
63.7842816067
  0
LINE
  5
2D8
100
AcDbEntity
  8
INTFCLR_18
100
AcDbLine
 62
7
420
3368703
  6
CONTINUOUS
 10
51.6029123955
 20
64.5842816067
 11
49.4029123955
 21
64.5842816067
  0
LINE
  5
2D9
100
AcDbEntity
  8
INTFCLR_18
100
AcDbLine
 62
7
420
3368703
  6
CONTINUOUS
 10
27.4029123955
 20
64.5842816067
 11
25.2029123955
 21
64.5842816067
  0
LINE
  5
2DA
100
AcDbEntity
  8
00_COMPONENTS_1
100
AcDbLine
 62
7
  6
CONTINUOUS
 10
25.2029123955
 20
64.5842816067
 11
27.4029123955
 21
64.5842816067
  0
LINE
  5
2DB
100
AcDbEntity
  8
00_COMPONENTS_1
100
AcDbLine
 62
7
  6
CONTINUOUS
 10
49.4029123955
 20
64.5842816067
 11
51.6029123955
 21
64.5842816067
  0
LINE
  5
2DC
100
AcDbEntity
  8
00_COMPONENTS_1
100
AcDbLine
 62
7
  6
CONTINUOUS
 10
52.031666008
 20
88.9906113122
 11
52.031666008
 21
80.1406113122
  0
LINE
  5
2DD
100
AcDbEntity
  8
00_COMPONENTS_1
100
AcDbLine
 62
7
  6
CONTINUOUS
 10
52.031666008
 20
29.5906113122
 11
52.031666008
 21
37.2406113122
  0
LINE
  5
2DE
100
AcDbEntity
  8
INTFCLR_18
100
AcDbLine
 62
7
420
3368703
  6
CONTINUOUS
 10
52.031666008
 20
80.1406113122
 11
52.031666008
 21
88.9906113122
  0
LINE
  5
2DF
100
AcDbEntity
  8
00_COMPONENTS_1
100
AcDbLine
 62
7
  6
CONTINUOUS
 10
53.231666008
 20
38.4406113122
 11
53.231666008
 21
29.5906113122
  0
LINE
  5
2E0
100
AcDbEntity
  8
00_COMPONENTS_1
100
AcDbLine
 62
7
  6
CONTINUOUS
 10
53.781666008
 20
25.9406113122
 11
53.781666008
 21
20.9406113122
  0
LINE
  5
2E1
100
AcDbEntity
  8
INTFCLR_18
100
AcDbLine
 62
7
420
3368703
  6
CONTINUOUS
 10
53.781666008
 20
25.9406113122
 11
53.781666008
 21
20.9406113122
  0
LINE
  5
2E2
100
AcDbEntity
  8
00_COMPONENTS_1
100
AcDbLine
 62
7
  6
CONTINUOUS
 10
54.031666008
 20
88.8161347195
 11
54.031666008
 21
73.7406113122
  0
LINE
  5
2E3
100
AcDbEntity
  8
INTFCLR_18
100
AcDbLine
 62
7
420
3368703
  6
CONTINUOUS
 10
54.031666008
 20
88.8161347195
 11
54.031666008
 21
73.7406113122
  0
LINE
  5
2E4
100
AcDbEntity
  8
INTFCLR_18
100
AcDbLine
 62
7
420
3368703
  6
CONTINUOUS
 10
54.4029123955
 20
60.0842816067
 11
54.4029123955
 21
53.0842816067
  0
LINE
  5
2E5
100
AcDbEntity
  8
00_COMPONENTS_1
100
AcDbLine
 62
7
  6
CONTINUOUS
 10
54.4029123955
 20
53.0842816067
 11
54.4029123955
 21
60.0842816067
  0
LINE
  5
2E6
100
AcDbEntity
  8
00_COMPONENTS_1
100
AcDbLine
 62
7
  6
CONTINUOUS
 10
54.931666008
 20
32.0906113122
 11
54.931666008
 21
39.4406113122
  0
LINE
  5
2E7
100
AcDbEntity
  8
INTFCLR_18
100
AcDbLine
 62
7
420
3368703
  6
CONTINUOUS
 10
54.931666008
 20
32.0906113122
 11
54.931666008
 21
39.4406113122
  0
LINE
  5
2E8
100
AcDbEntity
  8
00_COMPONENTS_1
100
AcDbLine
 62
7
  6
CONTINUOUS
 10
55.381666008
 20
73.7406113122
 11
55.381666008
 21
77.6906113122
  0
LINE
  5
2E9
100
AcDbEntity
  8
INTFCLR_18
100
AcDbLine
 62
7
420
3368703
  6
CONTINUOUS
 10
55.381666008
 20
73.7406113122
 11
55.381666008
 21
77.6906113122
  0
LINE
  5
2EA
100
AcDbEntity
  8
INTFCLR_18
100
AcDbLine
 62
7
420
3368703
  6
CONTINUOUS
 10
59.3029123955
 20
66.7842816067
 11
51.6029123955
 21
66.7842816067
  0
LINE
  5
2EB
100
AcDbEntity
  8
INTFCLR_18
100
AcDbLine
 62
7
420
3368703
  6
CONTINUOUS
 10
25.2029123955
 20
66.7842816067
 11
19.1029123955
 21
66.7842816067
  0
LINE
  5
2EC
100
AcDbEntity
  8
00_COMPONENTS_1
100
AcDbLine
 62
7
  6
CONTINUOUS
 10
19.1029123955
 20
66.7842816067
 11
25.2029123955
 21
66.7842816067
  0
LINE
  5
2ED
100
AcDbEntity
  8
00_COMPONENTS_1
100
AcDbLine
 62
7
  6
CONTINUOUS
 10
51.6029123955
 20
66.7842816067
 11
59.3029123955
 21
66.7842816067
  0
LINE
  5
2EE
100
AcDbEntity
  8
INTFCLR_18
100
AcDbLine
 62
7
420
3368703
  6
CONTINUOUS
 10
56.031666008
 20
28.2406113122
 11
56.031666008
 21
22.4906113122
  0
LINE
  5
2EF
100
AcDbEntity
  8
00_COMPONENTS_1
100
AcDbLine
 62
7
  6
CONTINUOUS
 10
56.031666008
 20
28.1906113122
 11
56.031666008
 21
28.2406113122
  0
LINE
  5
2F0
100
AcDbEntity
  8
INTFCLR_18
100
AcDbLine
 62
7
420
3368703
  6
CONTINUOUS
 10
56.131666008
 20
35.8406113122
 11
56.131666008
 21
32.2906113122
  0
LINE
  5
2F1
100
AcDbEntity
  8
00_COMPONENTS_1
100
AcDbLine
 62
7
  6
CONTINUOUS
 10
56.131666008
 20
32.2906113122
 11
56.131666008
 21
35.8406113122
  0
LINE
  5
2F2
100
AcDbEntity
  8
INTFCLR_18
100
AcDbLine
 62
7
420
3368703
  6
CONTINUOUS
 10
56.6529123955
 20
62.2842816067
 11
56.6529123955
 21
60.0842816067
  0
LINE
  5
2F3
100
AcDbEntity
  8
INTFCLR_18
100
AcDbLine
 62
7
420
3368703
  6
CONTINUOUS
 10
56.6529123955
 20
53.0842816067
 11
56.6529123955
 21
50.8842816067
  0
LINE
  5
2F4
100
AcDbEntity
  8
00_COMPONENTS_1
100
AcDbLine
 62
7
  6
CONTINUOUS
 10
56.6529123955
 20
50.8842816067
 11
56.6529123955
 21
53.0842816067
  0
LINE
  5
2F5
100
AcDbEntity
  8
00_COMPONENTS_1
100
AcDbLine
 62
7
  6
CONTINUOUS
 10
56.6529123955
 20
60.0842816067
 11
56.6529123955
 21
62.2842816067
  0
LINE
  5
2F6
100
AcDbEntity
  8
00_COMPONENTS_1
100
AcDbLine
 62
7
  6
CONTINUOUS
 10
57.381666008
 20
76.6406113122
 11
57.381666008
 21
71.7406113122
  0
LINE
  5
2F7
100
AcDbEntity
  8
INTFCLR_18
100
AcDbLine
 62
7
420
3368703
  6
CONTINUOUS
 10
57.381666008
 20
71.7406113122
 11
57.381666008
 21
76.6406113122
  0
LINE
  5
2F8
100
AcDbEntity
  8
00_COMPONENTS_1
100
AcDbLine
 62
7
  6
CONTINUOUS
 10
58.281666008
 20
25.9406113122
 11
58.281666008
 21
20.9406113122
  0
LINE
  5
2F9
100
AcDbEntity
  8
INTFCLR_18
100
AcDbLine
 62
7
420
3368703
  6
CONTINUOUS
 10
58.281666008
 20
20.9406113122
 11
58.281666008
 21
25.9406113122
  0
LINE
  5
2FA
100
AcDbEntity
  8
00_COMPONENTS_1
100
AcDbLine
 62
7
  6
CONTINUOUS
 10
57.381666008
 20
71.7406113122
 11
45.031666008
 21
71.7406113122
  0
LINE
  5
2FB
100
AcDbEntity
  8
00_COMPONENTS_1
100
AcDbLine
 62
7
  6
CONTINUOUS
 10
32.031666008
 20
71.7406113122
 11
19.681666008
 21
71.7406113122
  0
LINE
  5
2FC
100
AcDbEntity
  8
INTFCLR_18
100
AcDbLine
 62
7
420
3368703
  6
CONTINUOUS
 10
19.681666008
 20
71.7406113122
 11
32.031666008
 21
71.7406113122
  0
LINE
  5
2FD
100
AcDbEntity
  8
INTFCLR_18
100
AcDbLine
 62
7
420
3368703
  6
CONTINUOUS
 10
45.031666008
 20
71.7406113122
 11
57.381666008
 21
71.7406113122
  0
LINE
  5
2FE
100
AcDbEntity
  8
00_COMPONENTS_1
100
AcDbLine
 62
7
  6
CONTINUOUS
 10
16.131666008
 20
71.7861623343
 11
19.681666008
 21
71.7861623343
  0
LINE
  5
2FF
100
AcDbEntity
  8
00_COMPONENTS_1
100
AcDbLine
 62
7
  6
CONTINUOUS
 10
32.031666008
 20
71.7861623343
 11
45.031666008
 21
71.7861623343
  0
LINE
  5
300
100
AcDbEntity
  8
00_COMPONENTS_1
100
AcDbLine
 62
7
  6
CONTINUOUS
 10
57.381666008
 20
71.7861623343
 11
60.931666008
 21
71.7861623343
  0
LINE
  5
301
100
AcDbEntity
  8
00_COMPONENTS_1
100
AcDbLine
 62
7
  6
CONTINUOUS
 10
50.031666008
 20
72.6406113122
 11
48.031666008
 21
72.6406113122
  0
LINE
  5
302
100
AcDbEntity
  8
00_COMPONENTS_1
100
AcDbLine
 62
7
  6
CONTINUOUS
 10
29.031666008
 20
72.6406113122
 11
27.031666008
 21
72.6406113122
  0
LINE
  5
303
100
AcDbEntity
  8
00_COMPONENTS_1
100
AcDbLine
 62
7
  6
CONTINUOUS
 10
16.131666008
 20
72.6406113122
 11
19.681666008
 21
72.6406113122
  0
LINE
  5
304
100
AcDbEntity
  8
INTFCLR_18
100
AcDbLine
 62
7
420
3368703
  6
CONTINUOUS
 10
27.031666008
 20
72.6406113122
 11
29.031666008
 21
72.6406113122
  0
LINE
  5
305
100
AcDbEntity
  8
00_COMPONENTS_1
100
AcDbLine
 62
7
  6
CONTINUOUS
 10
32.031666008
 20
72.6406113122
 11
45.031666008
 21
72.6406113122
  0
LINE
  5
306
100
AcDbEntity
  8
INTFCLR_18
100
AcDbLine
 62
7
420
3368703
  6
CONTINUOUS
 10
48.031666008
 20
72.6406113122
 11
50.031666008
 21
72.6406113122
  0
LINE
  5
307
100
AcDbEntity
  8
00_COMPONENTS_1
100
AcDbLine
 62
7
  6
CONTINUOUS
 10
57.381666008
 20
72.6406113122
 11
60.931666008
 21
72.6406113122
  0
LINE
  5
308
100
AcDbEntity
  8
00_COMPONENTS_1
100
AcDbLine
 62
7
  6
CONTINUOUS
 10
58.931666008
 20
88.1264882286
 11
58.931666008
 21
78.6906113122
  0
LINE
  5
309
100
AcDbEntity
  8
00_COMPONENTS_1
100
AcDbLine
 62
7
  6
CONTINUOUS
 10
58.931666008
 20
35.8406113122
 11
58.931666008
 21
32.2906113122
  0
LINE
  5
30A
100
AcDbEntity
  8
00_COMPONENTS_1
100
AcDbLine
 62
7
  6
CONTINUOUS
 10
58.931666008
 20
31.0906113122
 11
58.931666008
 21
29.5906113122
  0
LINE
  5
30B
100
AcDbEntity
  8
00_COMPONENTS_1
100
AcDbLine
 62
7
  6
CONTINUOUS
 10
58.931666008
 20
28.2406113122
 11
58.931666008
 21
22.4906113122
  0
LINE
  5
30C
100
AcDbEntity
  8
INTFCLR_18
100
AcDbLine
 62
7
420
3368703
  6
CONTINUOUS
 10
58.931666008
 20
22.4906113122
 11
58.931666008
 21
28.2406113122
  0
LINE
  5
30D
100
AcDbEntity
  8
INTFCLR_18
100
AcDbLine
 62
7
420
3368703
  6
CONTINUOUS
 10
58.931666008
 20
32.2906113122
 11
58.931666008
 21
35.8406113122
  0
LINE
  5
30E
100
AcDbEntity
  8
INTFCLR_18
100
AcDbLine
 62
7
420
3368703
  6
CONTINUOUS
 10
58.931666008
 20
78.6906113122
 11
58.931666008
 21
88.1264882286
  0
LINE
  5
30F
100
AcDbEntity
  8
00_COMPONENTS_1
100
AcDbLine
 62
7
  6
CONTINUOUS
 10
59.3029123955
 20
66.7842816067
 11
59.3029123955
 21
63.7842816067
  0
LINE
  5
310
100
AcDbEntity
  8
00_COMPONENTS_1
100
AcDbLine
 62
7
  6
CONTINUOUS
 10
59.3029123955
 20
62.2842816067
 11
59.3029123955
 21
50.8842816067
  0
LINE
  5
311
100
AcDbEntity
  8
00_COMPONENTS_1
100
AcDbLine
 62
7
  6
CONTINUOUS
 10
59.3029123955
 20
49.5842816067
 11
59.3029123955
 21
46.4842816067
  0
LINE
  5
312
100
AcDbEntity
  8
INTFCLR_18
100
AcDbLine
 62
7
420
3368703
  6
CONTINUOUS
 10
59.3029123955
 20
46.4842816067
 11
59.3029123955
 21
49.5842816067
  0
LINE
  5
313
100
AcDbEntity
  8
INTFCLR_18
100
AcDbLine
 62
7
420
3368703
  6
CONTINUOUS
 10
59.3029123955
 20
50.8842816067
 11
59.3029123955
 21
62.2842816067
  0
LINE
  5
314
100
AcDbEntity
  8
INTFCLR_18
100
AcDbLine
 62
7
420
3368703
  6
CONTINUOUS
 10
59.3029123955
 20
63.7842816067
 11
59.3029123955
 21
66.7842816067
  0
LINE
  5
315
100
AcDbEntity
  8
INTFCLR_18
100
AcDbLine
 62
7
420
3368703
  6
CONTINUOUS
 10
60.931666008
 20
17.4906113122
 11
60.931666008
 21
94.4906113122
  0
LINE
  5
316
100
AcDbEntity
  8
00_COMPONENTS_1
100
AcDbLine
 62
7
  6
CONTINUOUS
 10
60.931666008
 20
20.0244128251
 11
60.931666008
 21
91.8906113122
  0
LINE
  5
317
100
AcDbEntity
  8
00_COMPONENTS_1
100
AcDbLine
 62
7
  6
CONTINUOUS
 10
55.381666008
 20
73.7406113122
 11
54.031666008
 21
73.7406113122
  0
LINE
  5
318
100
AcDbEntity
  8
00_COMPONENTS_1
100
AcDbLine
 62
7
  6
CONTINUOUS
 10
23.031666008
 20
73.7406113122
 11
21.681666008
 21
73.7406113122
  0
LINE
  5
319
100
AcDbEntity
  8
INTFCLR_18
100
AcDbLine
 62
7
420
3368703
  6
CONTINUOUS
 10
21.681666008
 20
73.7406113122
 11
23.031666008
 21
73.7406113122
  0
LINE
  5
31A
100
AcDbEntity
  8
INTFCLR_18
100
AcDbLine
 62
7
420
3368703
  6
CONTINUOUS
 10
54.031666008
 20
73.7406113122
 11
55.381666008
 21
73.7406113122
  0
LINE
  5
31B
100
AcDbEntity
  8
INTFCLR_18
100
AcDbLine
 62
7
420
3368703
  6
CONTINUOUS
 10
21.681666008
 20
73.7906113122
 11
23.031666008
 21
73.7906113122
  0
LINE
  5
31C
100
AcDbEntity
  8
INTFCLR_18
100
AcDbLine
 62
7
420
3368703
  6
CONTINUOUS
 10
54.031666008
 20
73.7906113122
 11
55.381666008
 21
73.7906113122
  0
LINE
  5
31D
100
AcDbEntity
  8
00_COMPONENTS_1
100
AcDbLine
 62
7
  6
CONTINUOUS
 10
45.031666008
 20
75.6406113122
 11
32.031666008
 21
75.6406113122
  0
LINE
  5
31E
100
AcDbEntity
  8
00_COMPONENTS_1
100
AcDbLine
 62
7
  6
CONTINUOUS
 10
16.131666008
 20
75.6406113122
 11
19.681666008
 21
75.6406113122
  0
LINE
  5
31F
100
AcDbEntity
  8
00_COMPONENTS_1
100
AcDbLine
 62
7
  6
CONTINUOUS
 10
27.031666008
 20
75.6406113122
 11
29.031666008
 21
75.6406113122
  0
LINE
  5
320
100
AcDbEntity
  8
INTFCLR_18
100
AcDbLine
 62
7
420
3368703
  6
CONTINUOUS
 10
32.031666008
 20
75.6406113122
 11
45.031666008
 21
75.6406113122
  0
LINE
  5
321
100
AcDbEntity
  8
00_COMPONENTS_1
100
AcDbLine
 62
7
  6
CONTINUOUS
 10
48.031666008
 20
75.6406113122
 11
50.031666008
 21
75.6406113122
  0
LINE
  5
322
100
AcDbEntity
  8
00_COMPONENTS_1
100
AcDbLine
 62
7
  6
CONTINUOUS
 10
57.381666008
 20
75.6406113122
 11
60.931666008
 21
75.6406113122
  0
LINE
  5
323
100
AcDbEntity
  8
INTFCLR_18
100
AcDbLine
 62
7
420
3368703
  6
CONTINUOUS
 10
57.381666008
 20
76.6406113122
 11
19.681666008
 21
76.6406113122
  0
LINE
  5
324
100
AcDbEntity
  8
00_COMPONENTS_1
100
AcDbLine
 62
7
  6
CONTINUOUS
 10
16.131666008
 20
76.6406113122
 11
19.681666008
 21
76.6406113122
  0
LINE
  5
325
100
AcDbEntity
  8
00_COMPONENTS_1
100
AcDbLine
 62
7
  6
CONTINUOUS
 10
21.681666008
 20
76.6406113122
 11
23.031666008
 21
76.6406113122
  0
LINE
  5
326
100
AcDbEntity
  8
00_COMPONENTS_1
100
AcDbLine
 62
7
  6
CONTINUOUS
 10
54.031666008
 20
76.6406113122
 11
55.381666008
 21
76.6406113122
  0
LINE
  5
327
100
AcDbEntity
  8
00_COMPONENTS_1
100
AcDbLine
 62
7
  6
CONTINUOUS
 10
57.381666008
 20
76.6406113122
 11
60.931666008
 21
76.6406113122
  0
LINE
  5
328
100
AcDbEntity
  8
INTFCLR_18
100
AcDbLine
 62
7
420
3368703
  6
CONTINUOUS
 10
65.5585373219
 20
94.4005450593
 11
65.5585373219
 21
17.4906113122
  0
LINE
  5
329
100
AcDbEntity
  8
INTFCLR_18
100
AcDbLine
 62
7
420
3368703
  6
CONTINUOUS
 10
55.381666008
 20
77.6406113122
 11
54.031666008
 21
77.6406113122
  0
LINE
  5
32A
100
AcDbEntity
  8
INTFCLR_18
100
AcDbLine
 62
7
420
3368703
  6
CONTINUOUS
 10
23.031666008
 20
77.6406113122
 11
21.681666008
 21
77.6406113122
  0
LINE
  5
32B
100
AcDbEntity
  8
00_COMPONENTS_1
100
AcDbLine
 62
7
  6
CONTINUOUS
 10
57.931666008
 20
77.6906113122
 11
55.381666008
 21
77.6906113122
  0
LINE
  5
32C
100
AcDbEntity
  8
00_COMPONENTS_1
100
AcDbLine
 62
7
  6
CONTINUOUS
 10
43.031666008
 20
77.6906113122
 11
34.031666008
 21
77.6906113122
  0
LINE
  5
32D
100
AcDbEntity
  8
00_COMPONENTS_1
100
AcDbLine
 62
7
  6
CONTINUOUS
 10
21.681666008
 20
77.6906113122
 11
19.131666008
 21
77.6906113122
  0
LINE
  5
32E
100
AcDbEntity
  8
INTFCLR_18
100
AcDbLine
 62
7
420
3368703
  6
CONTINUOUS
 10
19.131666008
 20
77.6906113122
 11
21.681666008
 21
77.6906113122
  0
LINE
  5
32F
100
AcDbEntity
  8
INTFCLR_18
100
AcDbLine
 62
7
420
3368703
  6
CONTINUOUS
 10
34.031666008
 20
77.6906113122
 11
43.031666008
 21
77.6906113122
  0
LINE
  5
330
100
AcDbEntity
  8
INTFCLR_18
100
AcDbLine
 62
7
420
3368703
  6
CONTINUOUS
 10
55.381666008
 20
77.6906113122
 11
57.931666008
 21
77.6906113122
  0
LINE
  5
331
100
AcDbEntity
  8
00_COMPONENTS_1
100
AcDbLine
 62
7
  6
CONTINUOUS
 10
52.031666008
 20
80.1406113122
 11
50.031666008
 21
80.1406113122
  0
LINE
  5
332
100
AcDbEntity
  8
00_COMPONENTS_1
100
AcDbLine
 62
7
  6
CONTINUOUS
 10
48.031666008
 20
80.1406113122
 11
46.031666008
 21
80.1406113122
  0
LINE
  5
333
100
AcDbEntity
  8
00_COMPONENTS_1
100
AcDbLine
 62
7
  6
CONTINUOUS
 10
31.031666008
 20
80.1406113122
 11
29.031666008
 21
80.1406113122
  0
LINE
  5
334
100
AcDbEntity
  8
00_COMPONENTS_1
100
AcDbLine
 62
7
  6
CONTINUOUS
 10
27.031666008
 20
80.1406113122
 11
25.031666008
 21
80.1406113122
  0
LINE
  5
335
100
AcDbEntity
  8
INTFCLR_18
100
AcDbLine
 62
7
420
3368703
  6
CONTINUOUS
 10
25.031666008
 20
80.1406113122
 11
27.031666008
 21
80.1406113122
  0
LINE
  5
336
100
AcDbEntity
  8
INTFCLR_18
100
AcDbLine
 62
7
420
3368703
  6
CONTINUOUS
 10
29.031666008
 20
80.1406113122
 11
31.031666008
 21
80.1406113122
  0
LINE
  5
337
100
AcDbEntity
  8
INTFCLR_18
100
AcDbLine
 62
7
420
3368703
  6
CONTINUOUS
 10
46.031666008
 20
80.1406113122
 11
48.031666008
 21
80.1406113122
  0
LINE
  5
338
100
AcDbEntity
  8
INTFCLR_18
100
AcDbLine
 62
7
420
3368703
  6
CONTINUOUS
 10
50.031666008
 20
80.1406113122
 11
52.031666008
 21
80.1406113122
  0
LINE
  5
339
100
AcDbEntity
  8
INTFCLR_18
100
AcDbLine
 62
7
420
3368703
  6
CONTINUOUS
 10
67.4399883801
 20
10.6062995026
 11
67.4399883801
 21
20.0244128251
  0
LINE
  5
33A
100
AcDbEntity
  8
INTFCLR_18
100
AcDbLine
 62
7
420
3368703
  6
CONTINUOUS
 10
22.031666008
 20
81.7406113122
 11
19.131666008
 21
81.7406113122
  0
LINE
  5
33B
100
AcDbEntity
  8
00_COMPONENTS_1
100
AcDbLine
 62
7
  6
CONTINUOUS
 10
19.131666008
 20
81.7406113122
 11
22.031666008
 21
81.7406113122
  0
LINE
  5
33C
100
AcDbEntity
  8
INTFCLR_18
100
AcDbLine
 62
7
420
3368703
  6
CONTINUOUS
 10
50.731666008
 20
82.6406113122
 11
47.331666008
 21
82.6406113122
  0
LINE
  5
33D
100
AcDbEntity
  8
INTFCLR_18
100
AcDbLine
 62
7
420
3368703
  6
CONTINUOUS
 10
29.731666008
 20
82.6406113122
 11
26.331666008
 21
82.6406113122
  0
LINE
  5
33E
100
AcDbEntity
  8
00_COMPONENTS_1
100
AcDbLine
 62
7
  6
CONTINUOUS
 10
26.331666008
 20
82.6406113122
 11
29.731666008
 21
82.6406113122
  0
LINE
  5
33F
100
AcDbEntity
  8
00_COMPONENTS_1
100
AcDbLine
 62
7
  6
CONTINUOUS
 10
47.331666008
 20
82.6406113122
 11
50.731666008
 21
82.6406113122
  0
LINE
  5
340
100
AcDbEntity
  8
00_COMPONENTS_1
100
AcDbLine
 62
7
  6
CONTINUOUS
 10
20.5599669514
 20
83.7406113122
 11
18.131666008
 21
83.7406113122
  0
LINE
  5
341
100
AcDbEntity
  8
INTFCLR_18
100
AcDbLine
 62
7
420
3368703
  6
CONTINUOUS
 10
18.131666008
 20
83.7406113122
 11
21.031666008
 21
83.7406113122
  0
LINE
  5
342
100
AcDbEntity
  8
INTFCLR_18
100
AcDbLine
 62
7
420
3368703
  6
CONTINUOUS
 10
51.531666008
 20
85.4406113117
 11
50.7318501007
 21
85.4406113117
  0
LINE
  5
343
100
AcDbEntity
  8
INTFCLR_18
100
AcDbLine
 62
7
420
3368703
  6
CONTINUOUS
 10
47.3314819431
 20
85.4406113117
 11
46.531666008
 21
85.4406113117
  0
LINE
  5
344
100
AcDbEntity
  8
INTFCLR_18
100
AcDbLine
 62
7
420
3368703
  6
CONTINUOUS
 10
30.531666008
 20
85.4406113117
 11
29.7318501007
 21
85.4406113117
  0
LINE
  5
345
100
AcDbEntity
  8
INTFCLR_18
100
AcDbLine
 62
7
420
3368703
  6
CONTINUOUS
 10
26.3314819431
 20
85.4406113117
 11
25.531666008
 21
85.4406113117
  0
LINE
  5
346
100
AcDbEntity
  8
INTFCLR_18
100
AcDbLine
 62
7
420
3368703
  6
CONTINUOUS
 10
21.031666008
 20
90.9906113122
 11
18.131666008
 21
90.9906113122
  0
LINE
  5
347
100
AcDbEntity
  8
00_COMPONENTS_1
100
AcDbLine
 62
7
  6
CONTINUOUS
 10
18.131666008
 20
90.9906113122
 11
18.7822216322
 21
90.9906113122
  0
LINE
  5
348
100
AcDbEntity
  8
INTFCLR_18
100
AcDbLine
 62
7
420
3368703
  6
CONTINUOUS
 10
43.031666008
 20
91.2906113122
 11
34.031666008
 21
91.2906113122
  0
LINE
  5
349
100
AcDbEntity
  8
00_COMPONENTS_1
100
AcDbLine
 62
7
  6
CONTINUOUS
 10
34.031666008
 20
91.2906113122
 11
43.031666008
 21
91.2906113122
  0
LINE
  5
34A
100
AcDbEntity
  8
00_COMPONENTS_1
100
AcDbLine
 62
7
  6
CONTINUOUS
 10
22.9879686149
 20
91.8906113122
 11
19.0679490586
 21
91.8906113122
  0
LINE
  5
34B
100
AcDbEntity
  8
INTFCLR_18
100
AcDbLine
 62
7
420
3368703
  6
CONTINUOUS
 10
22.9879686149
 20
91.8906113122
 11
19.0679490586
 21
91.8906113122
  0
LINE
  5
34C
100
AcDbEntity
  8
00_COMPONENTS_1
100
AcDbLine
 62
7
  6
CONTINUOUS
 10
51.5310784737
 20
91.8906113122
 11
60.931666008
 21
91.8906113122
  0
LINE
  5
34D
100
AcDbEntity
  8
INTFCLR_18
100
AcDbLine
 62
7
420
3368703
  6
CONTINUOUS
 10
11.5047946941
 20
94.4005450593
 11
20.7859064405
 21
94.4005450593
  0
LINE
  5
34E
100
AcDbEntity
  8
INTFCLR_18
100
AcDbLine
 62
7
420
3368703
  6
CONTINUOUS
 10
21.5941895545
 20
94.4005450593
 11
65.5585373219
 21
94.4005450593
  0
LINE
  5
34F
100
AcDbEntity
  8
INTFCLR_18
100
AcDbLine
 62
7
420
3368703
  6
CONTINUOUS
 10
16.131666008
 20
94.4906113122
 11
60.931666008
 21
94.4906113122
  0
ARC
  5
350
100
AcDbEntity
  8
00_COMPONENTS_1
100
AcDbCircle
 62
7
  6
CONTINUOUS
 10
18.131666008
 20
23.6555530336
 40
2.0
100
AcDbArc
 50
180.0
 51
254.8386313936
  0
ARC
  5
351
100
AcDbEntity
  8
INTFCLR_18
100
AcDbCircle
 62
7
420
3368703
  6
CONTINUOUS
 10
18.131666008
 20
23.6555530336
 40
2.0
100
AcDbArc
 50
180.0
 51
254.8386313934
  0
ARC
  5
352
100
AcDbEntity
  8
00_COMPONENTS_1
100
AcDbCircle
 62
7
  6
CONTINUOUS
 10
21.131666008
 20
32.0906113122
 40
1.0
100
AcDbArc
 50
270.0
 51
360.0
  0
ARC
  5
353
100
AcDbEntity
  8
00_COMPONENTS_1
100
AcDbCircle
 62
7
  6
CONTINUOUS
 10
19.131666008
 20
23.8047343957
 40
1.0
100
AcDbArc
 50
180.0
 51
255.522487814
  0
ARC
  5
354
100
AcDbEntity
  8
00_COMPONENTS_1
100
AcDbCircle
 62
7
  6
CONTINUOUS
 10
19.131666008
 20
26.5906113122
 40
1.0
100
AcDbArc
 50
90.0
 51
180.0
  0
ARC
  5
355
100
AcDbEntity
  8
INTFCLR_18
100
AcDbCircle
 62
7
420
3368703
  6
CONTINUOUS
 10
21.131666008
 20
32.0906113122
 40
1.0
100
AcDbArc
 50
270.0
 51
360.0
  0
ARC
  5
356
100
AcDbEntity
  8
INTFCLR_18
100
AcDbCircle
 62
7
420
3368703
  6
CONTINUOUS
 10
19.131666008
 20
26.5906113122
 40
1.0
100
AcDbArc
 50
90.0
 51
180.0
  0
ARC
  5
357
100
AcDbEntity
  8
INTFCLR_18
100
AcDbCircle
 62
7
420
3368703
  6
CONTINUOUS
 10
19.131666008
 20
23.8047343957
 40
1.0
100
AcDbArc
 50
180.0
 51
255.5224878141
  0
ARC
  5
358
100
AcDbEntity
  8
00_COMPONENTS_1
100
AcDbCircle
 62
7
  6
CONTINUOUS
 10
21.131666008
 20
84.4406113122
 40
10.0
100
AcDbArc
 50
78.1347373113
 51
112.024312837
  0
ARC
  5
359
100
AcDbEntity
  8
00_COMPONENTS_1
100
AcDbCircle
 62
7
  6
CONTINUOUS
 10
19.131666008
 20
78.6906113122
 40
1.0
100
AcDbArc
 50
180.0
 51
270.0
  0
ARC
  5
35A
100
AcDbEntity
  8
00_COMPONENTS_1
100
AcDbCircle
 62
7
  6
CONTINUOUS
 10
19.131666008
 20
80.7406113122
 40
1.0
100
AcDbArc
 50
90.0
 51
180.0
  0
ARC
  5
35B
100
AcDbEntity
  8
00_COMPONENTS_1
100
AcDbCircle
 62
7
  6
CONTINUOUS
 10
22.031666008
 20
80.7406113122
 40
1.0
100
AcDbArc
 50
0.0
 51
90.0
  0
ARC
  5
35C
100
AcDbEntity
  8
INTFCLR_18
100
AcDbCircle
 62
7
420
3368703
  6
CONTINUOUS
 10
19.131666008
 20
80.7406113122
 40
1.0
100
AcDbArc
 50
90.0
 51
180.0
  0
ARC
  5
35D
100
AcDbEntity
  8
INTFCLR_18
100
AcDbCircle
 62
7
420
3368703
  6
CONTINUOUS
 10
19.131666008
 20
78.6906113122
 40
1.0
100
AcDbArc
 50
180.0
 51
270.0
  0
ARC
  5
35E
100
AcDbEntity
  8
INTFCLR_18
100
AcDbCircle
 62
7
420
3368703
  6
CONTINUOUS
 10
22.031666008
 20
80.7406113122
 40
1.0
100
AcDbArc
 50
0.0
 51
90.0
  0
ARC
  5
35F
100
AcDbEntity
  8
00_COMPONENTS_1
100
AcDbCircle
 62
7
  6
CONTINUOUS
 10
21.031666008
 20
85.9406113122
 40
2.25
100
AcDbArc
 50
180.0
 51
360.0
  0
ARC
  5
360
100
AcDbEntity
  8
00_COMPONENTS_1
100
AcDbCircle
 62
7
  6
CONTINUOUS
 10
21.031666008
 20
90.9406113122
 40
2.25
100
AcDbArc
 50
0.0
 51
180.0
  0
ARC
  5
361
100
AcDbEntity
  8
INTFCLR_18
100
AcDbCircle
 62
7
420
3368703
  6
CONTINUOUS
 10
21.031666008
 20
90.9406113122
 40
2.25
100
AcDbArc
 50
0.0
 51
180.0
  0
ARC
  5
362
100
AcDbEntity
  8
INTFCLR_18
100
AcDbCircle
 62
7
420
3368703
  6
CONTINUOUS
 10
21.031666008
 20
85.9406113122
 40
2.25
100
AcDbArc
 50
180.0
 51
360.0
  0
ARC
  5
363
100
AcDbEntity
  8
00_COMPONENTS_1
100
AcDbCircle
 62
7
  6
CONTINUOUS
 10
22.7765531813
 20
92.2696818947
 40
2.0
100
AcDbArc
 50
30.0000000003
 51
78.1347373112
  0
ARC
  5
364
100
AcDbEntity
  8
00_COMPONENTS_1
100
AcDbCircle
 62
7
  6
CONTINUOUS
 10
18.131666008
 20
91.8568097993
 40
2.0
100
AcDbArc
 50
112.0243128371
 51
180.0
  0
ARC
  5
365
100
AcDbEntity
  8
00_COMPONENTS_1
100
AcDbCircle
 62
7
  6
CONTINUOUS
 10
25.8524377117
 20
92.9420936097
 40
1.0
100
AcDbArc
 50
210.0000000016
 51
279.0057556583
  0
ARC
  5
366
100
AcDbEntity
  8
00_COMPONENTS_1
100
AcDbCircle
 62
7
  6
CONTINUOUS
 10
25.681666008
 20
88.9906113122
 40
0.65
100
AcDbArc
 50
0.0
 51
180.0
  0
ARC
  5
367
100
AcDbEntity
  8
INTFCLR_18
100
AcDbCircle
 62
7
420
3368703
  6
CONTINUOUS
 10
25.681666008
 20
88.9906113122
 40
0.65
100
AcDbArc
 50
0.0
 51
180.0
  0
ARC
  5
368
100
AcDbEntity
  8
00_COMPONENTS_1
100
AcDbCircle
 62
7
  6
CONTINUOUS
 10
34.031666008
 20
78.6906113122
 40
1.0
100
AcDbArc
 50
180.0
 51
270.0
  0
ARC
  5
369
100
AcDbEntity
  8
INTFCLR_18
100
AcDbCircle
 62
7
420
3368703
  6
CONTINUOUS
 10
34.031666008
 20
78.6906113122
 40
1.0
100
AcDbArc
 50
180.0
 51
270.0
  0
ARC
  5
36A
100
AcDbEntity
  8
00_COMPONENTS_1
100
AcDbCircle
 62
7
  6
CONTINUOUS
 10
34.031666008
 20
90.2906113122
 40
1.0
100
AcDbArc
 50
90.0
 51
180.0
  0
ARC
  5
36B
100
AcDbEntity
  8
INTFCLR_18
100
AcDbCircle
 62
7
420
3368703
  6
CONTINUOUS
 10
34.031666008
 20
90.2906113122
 40
1.0
100
AcDbArc
 50
90.0
 51
180.0
  0
ARC
  5
36C
100
AcDbEntity
  8
00_COMPONENTS_1
100
AcDbCircle
 62
7
  6
CONTINUOUS
 10
30.381666008
 20
88.9906113122
 40
0.65
100
AcDbArc
 50
0.0
 51
180.0
  0
ARC
  5
36D
100
AcDbEntity
  8
INTFCLR_18
100
AcDbCircle
 62
7
420
3368703
  6
CONTINUOUS
 10
30.381666008
 20
88.9906113122
 40
0.65
100
AcDbArc
 50
0.0
 51
180.0
  0
ARC
  5
36E
100
AcDbEntity
  8
00_COMPONENTS_1
100
AcDbCircle
 62
7
  6
CONTINUOUS
 10
38.531666008
 20
12.9406113122
 40
80.0
100
AcDbArc
 50
74.8386313934
 51
99.0057556584
  0
ARC
  5
36F
100
AcDbEntity
  8
00_COMPONENTS_1
100
AcDbCircle
 62
7
  6
CONTINUOUS
 10
38.531666008
 20
12.9906113122
 40
78.6
100
AcDbArc
 50
75.5224878141
 51
77.7235448468
  0
ARC
  5
370
100
AcDbEntity
  8
INTFCLR_18
100
AcDbCircle
 62
7
420
3368703
  6
CONTINUOUS
 10
38.531666008
 20
12.9906113122
 40
78.6
100
AcDbArc
 50
75.5224878141
 51
77.7235448468
  0
CIRCLE
  5
371
100
AcDbEntity
  8
00_COMPONENTS_1
100
AcDbCircle
 62
7
  6
CONTINUOUS
 10
38.531666008
 20
55.6406113122
 40
8.0
  0
CIRCLE
  5
372
100
AcDbEntity
  8
INTFCLR_18
100
AcDbCircle
 62
7
420
3368703
  6
CONTINUOUS
 10
38.531666008
 20
55.6406113122
 40
8.0
  0
ARC
  5
373
100
AcDbEntity
  8
00_COMPONENTS_1
100
AcDbCircle
 62
7
  6
CONTINUOUS
 10
54.2867788347
 20
19.6115407296
 40
2.0
100
AcDbArc
 50
210.0
 51
258.1347373112
  0
ARC
  5
374
100
AcDbEntity
  8
INTFCLR_18
100
AcDbCircle
 62
7
420
3368703
  6
CONTINUOUS
 10
54.2867788347
 20
19.6115407296
 40
2.0
100
AcDbArc
 50
210.0
 51
258.1347373113
  0
ARC
  5
375
100
AcDbEntity
  8
00_COMPONENTS_1
100
AcDbCircle
 62
7
  6
CONTINUOUS
 10
50.781666008
 20
22.3136088913
 40
1.0
100
AcDbArc
 50
279.0827525897
 51
360.0
  0
ARC
  5
376
100
AcDbEntity
  8
00_COMPONENTS_1
100
AcDbCircle
 62
7
  6
CONTINUOUS
 10
51.2108943042
 20
18.9391290146
 40
1.0
100
AcDbArc
 50
29.9999999998
 51
99.0057556568
  0
ARC
  5
377
100
AcDbEntity
  8
INTFCLR_18
100
AcDbCircle
 62
7
420
3368703
  6
CONTINUOUS
 10
51.2108943042
 20
18.9391290146
 40
1.0
100
AcDbArc
 50
30.0
 51
99.0057556584
  0
ARC
  5
378
100
AcDbEntity
  8
INTFCLR_18
100
AcDbCircle
 62
7
420
3368703
  6
CONTINUOUS
 10
50.781666008
 20
22.3136088913
 40
1.0
100
AcDbArc
 50
279.0827525896
 51
360.0
  0
ARC
  5
379
100
AcDbEntity
  8
00_COMPONENTS_1
100
AcDbCircle
 62
7
  6
CONTINUOUS
 10
50.781666008
 20
26.5906113122
 40
1.0
100
AcDbArc
 50
0.0
 51
90.0
  0
ARC
  5
37A
100
AcDbEntity
  8
INTFCLR_18
100
AcDbCircle
 62
7
420
3368703
  6
CONTINUOUS
 10
50.781666008
 20
26.5906113122
 40
1.0
100
AcDbArc
 50
0.0
 51
90.0
  0
ARC
  5
37B
100
AcDbEntity
  8
00_COMPONENTS_1
100
AcDbCircle
 62
7
  6
CONTINUOUS
 10
56.031666008
 20
20.9406113122
 40
2.25
100
AcDbArc
 50
180.0
 51
360.0
  0
ARC
  5
37C
100
AcDbEntity
  8
INTFCLR_18
100
AcDbCircle
 62
7
420
3368703
  6
CONTINUOUS
 10
56.031666008
 20
20.9406113122
 40
2.25
100
AcDbArc
 50
180.0
 51
360.0
  0
ARC
  5
37D
100
AcDbEntity
  8
00_COMPONENTS_1
100
AcDbCircle
 62
7
  6
CONTINUOUS
 10
58.931666008
 20
20.0244128251
 40
2.0
100
AcDbArc
 50
292.0243128371
 51
360.0
  0
ARC
  5
37E
100
AcDbEntity
  8
INTFCLR_18
100
AcDbCircle
 62
7
420
3368703
  6
CONTINUOUS
 10
58.931666008
 20
20.0244128251
 40
2.0
100
AcDbArc
 50
292.024312837
 51
360.0
  0
ARC
  5
37F
100
AcDbEntity
  8
00_COMPONENTS_1
100
AcDbCircle
 62
7
  6
CONTINUOUS
 10
55.931666008
 20
27.4406113122
 40
10.0
100
AcDbArc
 50
258.1347373112
 51
264.2680320346
  0
ARC
  5
380
100
AcDbEntity
  8
00_COMPONENTS_1
100
AcDbCircle
 62
7
  6
CONTINUOUS
 10
55.931666008
 20
27.4406113122
 40
10.0
100
AcDbArc
 50
275.7319679654
 51
292.0243128371
  0
ARC
  5
381
100
AcDbEntity
  8
INTFCLR_18
100
AcDbCircle
 62
7
420
3368703
  6
CONTINUOUS
 10
55.931666008
 20
27.4406113122
 40
10.0
100
AcDbArc
 50
258.1347373113
 51
292.024312837
  0
ARC
  5
382
100
AcDbEntity
  8
00_COMPONENTS_1
100
AcDbCircle
 62
7
  6
CONTINUOUS
 10
56.031666008
 20
25.9406113122
 40
2.25
100
AcDbArc
 50
0.0
 51
180.0
  0
ARC
  5
383
100
AcDbEntity
  8
INTFCLR_18
100
AcDbCircle
 62
7
420
3368703
  6
CONTINUOUS
 10
56.031666008
 20
25.9406113122
 40
2.25
100
AcDbArc
 50
0.0
 51
180.0
  0
ARC
  5
384
100
AcDbEntity
  8
00_COMPONENTS_1
100
AcDbCircle
 62
7
  6
CONTINUOUS
 10
55.931666008
 20
32.0906113122
 40
1.0
100
AcDbArc
 50
180.0
 51
270.0
  0
ARC
  5
385
100
AcDbEntity
  8
INTFCLR_18
100
AcDbCircle
 62
7
420
3368703
  6
CONTINUOUS
 10
55.931666008
 20
32.0906113122
 40
1.0
100
AcDbArc
 50
180.0
 51
270.0
  0
ARC
  5
386
100
AcDbEntity
  8
00_COMPONENTS_1
100
AcDbCircle
 62
7
  6
CONTINUOUS
 10
38.531666008
 20
69.5031113122
 40
45.5625
100
AcDbArc
 50
264.9634339033
 51
275.0365660967
  0
ARC
  5
387
100
AcDbEntity
  8
INTFCLR_18
100
AcDbCircle
 62
7
420
3368703
  6
CONTINUOUS
 10
38.531666008
 20
69.5031113122
 40
45.5625
100
AcDbArc
 50
264.9634339033
 51
275.0365660967
  0
ARC
  5
388
100
AcDbEntity
  8
00_COMPONENTS_1
100
AcDbCircle
 62
7
  6
CONTINUOUS
 10
43.031666008
 20
78.6906113122
 40
1.0
100
AcDbArc
 50
270.0
 51
360.0
  0
ARC
  5
389
100
AcDbEntity
  8
INTFCLR_18
100
AcDbCircle
 62
7
420
3368703
  6
CONTINUOUS
 10
43.031666008
 20
78.6906113122
 40
1.0
100
AcDbArc
 50
270.0
 51
360.0
  0
ARC
  5
38A
100
AcDbEntity
  8
00_COMPONENTS_1
100
AcDbCircle
 62
7
  6
CONTINUOUS
 10
38.531666008
 20
98.9406113122
 40
80.0
100
AcDbArc
 50
254.8386313934
 51
279.0057556584
  0
ARC
  5
38B
100
AcDbEntity
  8
INTFCLR_18
100
AcDbCircle
 62
7
420
3368703
  6
CONTINUOUS
 10
38.531666008
 20
98.9406113122
 40
80.0
100
AcDbArc
 50
254.8386313934
 51
279.0057556584
  0
ARC
  5
38C
100
AcDbEntity
  8
00_COMPONENTS_1
100
AcDbCircle
 62
7
  6
CONTINUOUS
 10
38.531666008
 20
98.9406113122
 40
78.6
100
AcDbArc
 50
275.2558362952
 51
279.0827525896
  0
ARC
  5
38D
100
AcDbEntity
  8
00_COMPONENTS_1
100
AcDbCircle
 62
7
  6
CONTINUOUS
 10
38.531666008
 20
98.9406113122
 40
78.6
100
AcDbArc
 50
255.5224878141
 51
261.3657004123
  0
ARC
  5
38E
100
AcDbEntity
  8
00_COMPONENTS_1
100
AcDbCircle
 62
7
  6
CONTINUOUS
 10
38.531666008
 20
98.9406113122
 40
78.6
100
AcDbArc
 50
262.8376117607
 51
273.7933310557
  0
ARC
  5
38F
100
AcDbEntity
  8
INTFCLR_18
100
AcDbCircle
 62
7
420
3368703
  6
CONTINUOUS
 10
38.531666008
 20
98.9906113122
 40
78.6
100
AcDbArc
 50
262.8376117607
 51
273.7933310557
  0
ARC
  5
390
100
AcDbEntity
  8
INTFCLR_18
100
AcDbCircle
 62
7
420
3368703
  6
CONTINUOUS
 10
38.531666008
 20
98.9406113122
 40
78.6
100
AcDbArc
 50
262.8376117607
 51
273.7933310557
  0
ARC
  5
391
100
AcDbEntity
  8
INTFCLR_18
100
AcDbCircle
 62
7
420
3368703
  6
CONTINUOUS
 10
38.531666008
 20
98.9406113122
 40
78.6
100
AcDbArc
 50
255.5224878141
 51
261.3657004123
  0
ARC
  5
392
100
AcDbEntity
  8
INTFCLR_18
100
AcDbCircle
 62
7
420
3368703
  6
CONTINUOUS
 10
38.531666008
 20
98.9406113122
 40
78.6
100
AcDbArc
 50
275.2558362952
 51
279.0827525896
  0
ARC
  5
393
100
AcDbEntity
  8
00_COMPONENTS_1
100
AcDbCircle
 62
7
  6
CONTINUOUS
 10
43.031666008
 20
90.2906113122
 40
1.0
100
AcDbArc
 50
0.0
 51
90.0
  0
ARC
  5
394
100
AcDbEntity
  8
INTFCLR_18
100
AcDbCircle
 62
7
420
3368703
  6
CONTINUOUS
 10
43.031666008
 20
90.2906113122
 40
1.0
100
AcDbArc
 50
0.0
 51
90.0
  0
ARC
  5
395
100
AcDbEntity
  8
00_COMPONENTS_1
100
AcDbCircle
 62
7
  6
CONTINUOUS
 10
46.681666008
 20
88.9906113122
 40
0.65
100
AcDbArc
 50
0.0
 51
180.0
  0
ARC
  5
396
100
AcDbEntity
  8
INTFCLR_18
100
AcDbCircle
 62
7
420
3368703
  6
CONTINUOUS
 10
46.681666008
 20
88.9906113122
 40
0.65
100
AcDbArc
 50
0.0
 51
180.0
  0
ARC
  5
397
100
AcDbEntity
  8
00_COMPONENTS_1
100
AcDbCircle
 62
7
  6
CONTINUOUS
 10
57.931666008
 20
78.6906113122
 40
1.0
100
AcDbArc
 50
270.0
 51
360.0
  0
ARC
  5
398
100
AcDbEntity
  8
INTFCLR_18
100
AcDbCircle
 62
7
420
3368703
  6
CONTINUOUS
 10
57.931666008
 20
78.6906113122
 40
1.0
100
AcDbArc
 50
270.0
 51
360.0
  0
ARC
  5
399
100
AcDbEntity
  8
00_COMPONENTS_1
100
AcDbCircle
 62
7
  6
CONTINUOUS
 10
58.931666008
 20
88.2256695907
 40
2.0
100
AcDbArc
 50
0.0
 51
74.8386313933
  0
ARC
  5
39A
100
AcDbEntity
  8
00_COMPONENTS_1
100
AcDbCircle
 62
7
  6
CONTINUOUS
 10
55.031666008
 20
88.8161347195
 40
1.0
100
AcDbArc
 50
77.7235448471
 51
180.0
  0
ARC
  5
39B
100
AcDbEntity
  8
00_COMPONENTS_1
100
AcDbCircle
 62
7
  6
CONTINUOUS
 10
57.931666008
 20
88.1264882286
 40
1.0
100
AcDbArc
 50
0.0
 51
75.5224878154
  0
ARC
  5
39C
100
AcDbEntity
  8
INTFCLR_18
100
AcDbCircle
 62
7
420
3368703
  6
CONTINUOUS
 10
57.931666008
 20
88.1264882286
 40
1.0
100
AcDbArc
 50
0.0
 51
75.522487814
  0
ARC
  5
39D
100
AcDbEntity
  8
INTFCLR_18
100
AcDbCircle
 62
7
420
3368703
  6
CONTINUOUS
 10
55.031666008
 20
88.8161347195
 40
1.0
100
AcDbArc
 50
77.7235448468
 51
180.0
  0
ARC
  5
39E
100
AcDbEntity
  8
00_COMPONENTS_1
100
AcDbCircle
 62
7
  6
CONTINUOUS
 10
51.381666008
 20
88.9906113122
 40
0.65
100
AcDbArc
 50
0.0
 51
180.0
  0
ARC
  5
39F
100
AcDbEntity
  8
INTFCLR_18
100
AcDbCircle
 62
7
420
3368703
  6
CONTINUOUS
 10
51.381666008
 20
88.9906113122
 40
0.65
100
AcDbArc
 50
0.0
 51
180.0
  0
ENDSEC
  0
SECTION
  2
OBJECTS
  0
DICTIONARY
  5
C
100
AcDbDictionary
280
0
281
1
  3
ACAD_GROUP
350
D
  3
ACAD_MLINESTYLE
350
17
  3
ACAD_LAYOUT
350
1A
  3
ACAD_PLOTSETTINGS
350
19
  3
ACAD_PLOTSTYLENAME
350
E
  0
DICTIONARY
  5
D
102
{ACAD_REACTORS
330
C
102
}
100
AcDbDictionary
280
0
281
1
  0
ACDBDICTIONARYWDFLT
  5
E
102
{ACAD_REACTORS
330
C
102
}
100
AcDbDictionary
281
1
  3
Normal
350
F
100
AcDbDictionaryWithDefault
340
F
  0
DICTIONARY
  5
17
102
{ACAD_REACTORS
330
C
102
}
100
AcDbDictionary
280
0
281
1
  3
Standard
350
18
  0
DICTIONARY
  5
19
102
{ACAD_REACTORS
330
C
102
}
100
AcDbDictionary
281
1
  0
DICTIONARY
  5
1A
102
{ACAD_REACTORS
330
C
102
}
100
AcDbDictionary
281
1
  3
Model
350
3A0
  3
Layout1
350
3A1
  0
ACDBPLACEHOLDER
  5
F
102
{ACAD_REACTORS
330
E
102
}
  0
MLINESTYLE
  5
18
102
{ACAD_REACTORS
330
17
102
}
100
AcDbMlineStyle
  2
STANDARD
 70
0
  3

 62
256
 51
90.0
 52
90.0
 71
2
 49
0.5
 62
256
  6
BYLAYER
 49
-0.5
 62
256
  6
BYLAYER
  0
LAYOUT
  5
3A0
102
{ACAD_REACTORS
330
1A
102
}
100
AcDbPlotSettings
  1

  2
none_device
  4

  6

 40
0.0
 41
0.0
 42
0.0
 43
0.0
 44
210.0
 45
297.0
 46
0.0
 47
0.0
 48
0.0
 49
0.0
140
0.0
141
0.0
142
1.0
143
1.0
 70
1024
 72
1
 73
0
 74
0
  7

 75
0
147
1.0
148
0.0
149
0.0
100
AcDbLayout
  1
Model
 70
0
 71
0
 10
0.0
 20
0.0
 11
210.0
 21
297.0
 12
0.0
 22
0.0
 32
0.0
 14
0.0
 24
0.0
 34
0.0
 15
0.0
 25
0.0
 35
0.0
146
0.0
 13
0.0
 23
0.0
 33
0.0
 16
1.0
 26
0.0
 36
0.0
 17
0.0
 27
1.0
 37
0.0
 76
0
330
216
345
0
346
0
  0
LAYOUT
  5
3A1
102
{ACAD_REACTORS
330
1A
102
}
100
AcDbPlotSettings
  1

  2
none_device
  4

  6

 40
0.0
 41
0.0
 42
0.0
 43
0.0
 44
210.0
 45
297.0
 46
0.0
 47
0.0
 48
0.0
 49
0.0
140
0.0
141
0.0
142
1.0
143
1.0
 70
0
 72
1
 73
0
 74
0
  7

 75
0
147
1.0
148
0.0
149
0.0
100
AcDbLayout
  1
Layout1
 70
0
 71
1
 10
0.0
 20
0.0
 11
210.0
 21
297.0
 12
0.0
 22
0.0
 32
0.0
 14
0.0
 24
0.0
 34
0.0
 15
0.0
 25
0.0
 35
0.0
146
0.0
 13
0.0
 23
0.0
 33
0.0
 16
1.0
 26
0.0
 36
0.0
 17
0.0
 27
1.0
 37
0.0
 76
0
330
217
345
0
346
0
  0
ENDSEC
  0
EOF
