999
DXF file: C:\Users\sesa63760\Dev\_Creo\CAD\MCADID0004931_3D-CAD\drw0001_2.dxf
999
Pro/ENGINEER 2019471 by Parametric Technology Corporation
  0
SECTION
  2
HEADER
  9
$ACADVER
  1
AC1024
  9
$DWGCODEPAGE
  3
ANSI_1252
  9
$EXTMAX
 10
428.4452479627
 20
605.9439935473
 30
0.0
  9
$EXTMIN
 10
0.0
 20
0.0
 30
0.0
  9
$LIMMIN
 10
0.0
 20
0.0
  9
$LIMMAX
 10
428.4452479627
 20
605.9439935473
  9
$VIEWCTR
 10
214.2226239814
 20
302.9719967736
  9
$VIEWSIZE
 40
605.9439935473
  9
$CLAYER
  8
0
  9
$LTSCALE
 40
39.4985714312
  9
$CELTYPE
  6
BYLAYER
  9
$DIMSCALE
 40
1.0
  9
$DIMASZ
 40
5.1005386662
  9
$DIMEXO
 40
1.0
  9
$DIMDLI
 40
27.2899220798
  9
$DIMEXE
 40
1.0
  9
$DIMCEN
 40
6.4634025978
  9
$DIMLFAC
 40
1.0
  9
$DIMBLK
  1
_FILLED
  9
$DIMALT
 70
0
  9
$DIMALTF
 40
0.0393700787
  9
$DIMTXT
 40
7.1407541327
  9
$DIMTOL
 70
1
  9
$DIMLIM
 70
0
  9
$DIMTFAC
 40
1.0
  9
$DIMTP
 40
0.01
  9
$DIMTM
 40
0.01
  9
$DIMGAP
 40
0.625
  9
$DIMDSEP
 70
46
  9
$AUNITS
 70
0
  9
$PDMODE
 70
3
  9
$PDSIZE
 40
0.3125
  9
$HANDSEED
  5
2E3
  9
$TILEMODE
 70
1
  9
$MEASUREMENT
 70
1
  9
$INSUNITS
 70
4
  0
ENDSEC
  0
SECTION
  2
CLASSES
  0
CLASS
  1
ACDBDICTIONARYWDFLT
  2
AcDbDictionaryWithDefault
  3
AutoCAD 2000
 90
0
 91
1
280
0
281
0
  0
CLASS
  1
ACDBPLACEHOLDER
  2
AcDbPlaceHolder
  3
AutoCAD 2000
 90
0
 91
1
280
0
281
0
  0
CLASS
  1
LAYOUT
  2
AcDbLayout
  3
AutoCAD 2000
 90
0
 91
0
280
0
281
0
  0
ENDSEC
  0
SECTION
  2
TABLES
  0
TABLE
  2
VPORT
  5
8
100
AcDbSymbolTable
 70
2
  0
VPORT
  5
1F4
100
AcDbSymbolTableRecord
100
AcDbViewportTableRecord
  2
*ACTIVE
 70
0
 10
0.0
 20
0.0
 11
1.0
 21
1.0
 12
214.2226239814
 22
302.9719967736
 13
0.0
 23
0.0
 14
1.0
 24
1.0
 15
0.0
 25
0.0
 16
0.0
 26
0.0
 36
1.0
 17
0.0
 27
0.0
 37
0.0
 40
605.9439935473
 41
0.7070707071
 42
50.0
 43
0.0
 44
0.0
 50
0.0
 51
0.0
 71
0
 72
100
 73
1
 74
1
 75
0
 76
0
 77
0
 78
0
  0
ENDTAB
  0
TABLE
  2
LTYPE
  5
5
100
AcDbSymbolTable
 70
6
  0
LTYPE
  5
14
100
AcDbSymbolTableRecord
100
AcDbLinetypeTableRecord
  2
BYBLOCK
 70
0
  3

 72
65
 73
0
 40
0.0
  0
LTYPE
  5
15
100
AcDbSymbolTableRecord
100
AcDbLinetypeTableRecord
  2
BYLAYER
 70
0
  3

 72
65
 73
0
 40
0.0
  0
LTYPE
  5
16
100
AcDbSymbolTableRecord
100
AcDbLinetypeTableRecord
  2
CONTINUOUS
 70
64
  3
Solid line
 72
65
 73
0
 40
0.0
  0
LTYPE
  5
1F5
100
AcDbSymbolTableRecord
100
AcDbLinetypeTableRecord
  2
CENTER
 70
64
  3
____ _ ____ _ ____ _ ____ _ ____ _ ____ _ ____
 72
65
 73
4
 40
0.6
 49
0.375
 74
0
 49
-0.075
 74
0
 49
0.075
 74
0
 49
-0.075
 74
0
  0
LTYPE
  5
1F6
100
AcDbSymbolTableRecord
100
AcDbLinetypeTableRecord
  2
HIDDEN
 70
64
  3
- - - - - - - - - - - - - - - - - - - -
 72
65
 73
2
 40
0.2
 49
0.1
 74
0
 49
-0.1
 74
0
  0
LTYPE
  5
1F7
100
AcDbSymbolTableRecord
100
AcDbLinetypeTableRecord
  2
PHANTOM
 70
64
  3
_____ _ _ _____ _ _ _____ _ _ _____
 72
65
 73
6
 40
0.8
 49
0.45
 74
0
 49
-0.05
 74
0
 49
0.1
 74
0
 49
-0.05
 74
0
 49
0.1
 74
0
 49
-0.05
 74
0
  0
LTYPE
  5
1F8
100
AcDbSymbolTableRecord
100
AcDbLinetypeTableRecord
  2
DOT
 70
64
  3
. . . . . . . . . . . . . . . . . . . .
 72
65
 73
2
 40
0.2
 49
0.1
 74
0
 49
-0.1
 74
0
  0
LTYPE
  5
1F9
100
AcDbSymbolTableRecord
100
AcDbLinetypeTableRecord
  2
DASHED
 70
64
  3
- - - - - - - - - - - - - - - - - - - -
 72
65
 73
2
 40
0.2
 49
0.1
 74
0
 49
-0.1
 74
0
  0
ENDTAB
  0
TABLE
  2
LAYER
  5
2
100
AcDbSymbolTable
 70
36
  0
LAYER
  5
10
100
AcDbSymbolTableRecord
100
AcDbLayerTableRecord
  2
0
 70
0
 62
7
  6
CONTINUOUS
370
-3
390
F
  0
LAYER
  5
1FA
100
AcDbSymbolTableRecord
100
AcDbLayerTableRecord
  2
DEFAULT_1
 70
0
 62
7
  6
CENTER
370
-3
390
F
  0
LAYER
  5
1FB
100
AcDbSymbolTableRecord
100
AcDbLayerTableRecord
  2
DEFAULT_2
 70
0
 62
7
  6
HIDDEN
370
-3
390
F
  0
LAYER
  5
1FC
100
AcDbSymbolTableRecord
100
AcDbLayerTableRecord
  2
DEFAULT_3
 70
0
 62
7
  6
PHANTOM
370
-3
390
F
  0
LAYER
  5
1FD
100
AcDbSymbolTableRecord
100
AcDbLayerTableRecord
  2
00_COMPONENTS
 70
0
 62
7
  6
CONTINUOUS
370
-3
390
F
  0
LAYER
  5
1FE
100
AcDbSymbolTableRecord
100
AcDbLayerTableRecord
  2
01_1_DEFAULT_DATUMS
 70
0
 62
7
  6
CONTINUOUS
370
-3
390
F
  0
LAYER
  5
1FF
100
AcDbSymbolTableRecord
100
AcDbLayerTableRecord
  2
01_PLANES
 70
0
 62
7
  6
CONTINUOUS
370
-3
390
F
  0
LAYER
  5
200
100
AcDbSymbolTableRecord
100
AcDbLayerTableRecord
  2
02_COORD_SYS
 70
0
 62
7
  6
CONTINUOUS
370
-3
390
F
  0
LAYER
  5
201
100
AcDbSymbolTableRecord
100
AcDbLayerTableRecord
  2
03_AXES
 70
0
 62
7
  6
CONTINUOUS
370
-3
390
F
  0
LAYER
  5
202
100
AcDbSymbolTableRecord
100
AcDbLayerTableRecord
  2
04_POINTS
 70
0
 62
7
  6
CONTINUOUS
370
-3
390
F
  0
LAYER
  5
203
100
AcDbSymbolTableRecord
100
AcDbLayerTableRecord
  2
05_CURVES
 70
0
 62
7
  6
CONTINUOUS
370
-3
390
F
  0
LAYER
  5
204
100
AcDbSymbolTableRecord
100
AcDbLayerTableRecord
  2
06_SURFS
 70
0
 62
7
  6
CONTINUOUS
370
-3
390
F
  0
LAYER
  5
205
100
AcDbSymbolTableRecord
100
AcDbLayerTableRecord
  2
07_COSMETICS
 70
0
 62
7
  6
CONTINUOUS
370
-3
390
F
  0
LAYER
  5
206
100
AcDbSymbolTableRecord
100
AcDbLayerTableRecord
  2
10_NOTES
 70
0
 62
7
  6
CONTINUOUS
370
-3
390
F
  0
LAYER
  5
207
100
AcDbSymbolTableRecord
100
AcDbLayerTableRecord
  2
11_NOTES_PUB
 70
0
 62
7
  6
CONTINUOUS
370
-3
390
F
  0
LAYER
  5
208
100
AcDbSymbolTableRecord
100
AcDbLayerTableRecord
  2
13_REF_GTOL
 70
0
 62
7
  6
CONTINUOUS
370
-3
390
F
  0
LAYER
  5
209
100
AcDbSymbolTableRecord
100
AcDbLayerTableRecord
  2
16_MISC
 70
0
 62
7
  6
CONTINUOUS
370
-3
390
F
  0
LAYER
  5
20A
100
AcDbSymbolTableRecord
100
AcDbLayerTableRecord
  2
17_NO_PRINT
 70
0
 62
7
  6
CONTINUOUS
370
-3
390
F
  0
LAYER
  5
20B
100
AcDbSymbolTableRecord
100
AcDbLayerTableRecord
  2
18_DATUM_CAMS_JOINTS
 70
0
 62
7
  6
CONTINUOUS
370
-3
390
F
  0
LAYER
  5
20C
100
AcDbSymbolTableRecord
100
AcDbLayerTableRecord
  2
19_DATUM_FUNCTIONAL
 70
0
 62
7
  6
CONTINUOUS
370
-3
390
F
  0
LAYER
  5
20D
100
AcDbSymbolTableRecord
100
AcDbLayerTableRecord
  2
20_DATUM_KINEMATIC_SCHEME
 70
0
 62
7
  6
CONTINUOUS
370
-3
390
F
  0
LAYER
  5
20E
100
AcDbSymbolTableRecord
100
AcDbLayerTableRecord
  2
INTFCLR_4
 70
0
 62
7
  6
CONTINUOUS
370
-3
390
F
  0
ENDTAB
  0
TABLE
  2
STYLE
  5
3
100
AcDbSymbolTable
 70
1
  0
STYLE
  5
11
100
AcDbSymbolTableRecord
100
AcDbTextStyleTableRecord
  2
STANDARD
 70
0
 40
0.0
 41
1.0
 50
0.0
 71
0
 42
0.2
  3
ARIAL.TTF
  4

  0
STYLE
  5
20F
100
AcDbSymbolTableRecord
100
AcDbTextStyleTableRecord
  2
TEXTSTYLE_1
 70
0
 40
0.0
 41
0.8
 50
0.0
 71
0
 42
0.2
  3
gdt
  4

  0
ENDTAB
  0
TABLE
  2
VIEW
  5
6
100
AcDbSymbolTable
 70
0
  0
ENDTAB
  0
TABLE
  2
UCS
  5
7
100
AcDbSymbolTable
 70
0
  0
ENDTAB
  0
TABLE
  2
APPID
  5
9
100
AcDbSymbolTable
 70
1
  0
APPID
  5
210
100
AcDbSymbolTableRecord
100
AcDbRegAppTableRecord
  2
ACAD
 70
0
  0
ENDTAB
  0
TABLE
  2
BLOCK_RECORD
  5
1
100
AcDbSymbolTable
 70
0
  0
BLOCK_RECORD
  5
211
100
AcDbSymbolTableRecord
100
AcDbBlockTableRecord
  2
*Model_Space
  0
BLOCK_RECORD
  5
212
100
AcDbSymbolTableRecord
100
AcDbBlockTableRecord
  2
*Paper_Space
  0
BLOCK_RECORD
  5
213
100
AcDbSymbolTableRecord
100
AcDbBlockTableRecord
  2
_FILLED
  0
ENDTAB
  0
TABLE
  2
DIMSTYLE
  5
A
100
AcDbSymbolTable
 70
1
100
AcDbDimStyleTable
 71
0
  0
DIMSTYLE
105
214
100
AcDbSymbolTableRecord
100
AcDbDimStyleTableRecord
  2
STANDARD
 70
0
  3

  4

 40
1.0
 41
5.1005386662
 42
1.0
 43
0.38
 44
1.0
 45
0.0
 46
0.0
 47
0.01
 48
0.01
140
7.1407541327
141
0.09
142
0.0
143
25.4
144
1.0
145
0.0
146
1.0
147
0.625
 71
1
 72
0
 73
0
 74
0
 75
0
 76
0
 77
1
 78
8
 79
2
170
0
171
1
172
0
173
0
174
0
175
0
176
0
177
0
178
0
270
2
179
2
271
2
272
2
273
2
274
2
275
0
280
0
281
0
282
0
283
1
284
8
285
0
286
0
287
3
288
0
340
11
278
46
341
213
342
213
343
213
344
213
  0
ENDTAB
  0
ENDSEC
  0
SECTION
  2
BLOCKS
  0
BLOCK
  5
20
100
AcDbEntity
  8
0
100
AcDbBlockBegin
  2
*Model_Space
 70
0
 10
0.0
 20
0.0
 30
0.0
  3
*Model_Space
  1

  0
ENDBLK
  5
21
100
AcDbEntity
  8
0
100
AcDbBlockEnd
  0
BLOCK
  5
1C
100
AcDbEntity
  8
0
100
AcDbBlockBegin
  2
*Paper_Space
 70
0
 10
0.0
 20
0.0
 30
0.0
  3
*Paper_Space
  1

  0
ENDBLK
  5
1D
100
AcDbEntity
  8
0
100
AcDbBlockEnd
  0
BLOCK
  5
215
100
AcDbEntity
  8
0
100
AcDbBlockBegin
  2
_FILLED
 70
64
 10
0.0
 20
0.0
  3
_FILLED
  1

  0
SOLID
  5
216
100
AcDbEntity
  8
0
  6
BYBLOCK
 62
0
100
AcDbTrace
 10
0.0
 20
0.0
 11
-1.0
 21
0.25
 12
-1.0
 22
-0.25
 13
-1.0
 23
-0.25
  0
ENDBLK
  5
217
100
AcDbEntity
  8
0
  6
BYBLOCK
 62
0
100
AcDbBlockEnd
  0
ENDSEC
  0
SECTION
  2
ENTITIES
  0
LINE
  5
218
100
AcDbEntity
  8
0
100
AcDbLine
 62
7
  6
BYLAYER
 10
46.9761484062
 20
309.9984125015
 11
46.9761484062
 21
307.4984125015
  0
LINE
  5
219
100
AcDbEntity
  8
0
100
AcDbLine
 62
7
  6
BYLAYER
 10
48.9034922839
 20
306.5795195584
 11
48.8978098574
 21
307.0248960739
  0
LINE
  5
21A
100
AcDbEntity
  8
0
100
AcDbLine
 62
7
  6
BYLAYER
 10
48.862237052
 20
310.8771160475
 11
48.8651057627
 21
310.4317125215
  0
LINE
  5
21B
100
AcDbEntity
  8
0
100
AcDbLine
 62
7
  6
BYLAYER
 10
47.9764410059
 20
308.7903113366
 11
47.9764410059
 21
308.7065136664
  0
LINE
  5
21C
100
AcDbEntity
  8
0
100
AcDbLine
 62
7
  6
BYLAYER
 10
56.4761484062
 20
302.9984125015
 11
56.4761484062
 21
304.4984125015
  0
LINE
  5
21D
100
AcDbEntity
  8
0
100
AcDbLine
 62
7
  6
BYLAYER
 10
56.4761484062
 20
312.9984125015
 11
56.4761484062
 21
314.4984125015
  0
LINE
  5
21E
100
AcDbEntity
  8
0
100
AcDbLine
 62
7
  6
BYLAYER
 10
53.3075940282
 20
310.6363641194
 11
53.2566388029
 21
310.1938755936
  0
LINE
  5
21F
100
AcDbEntity
  8
0
100
AcDbLine
 62
7
  6
BYLAYER
 10
53.9568653651
 20
308.4088150765
 11
53.9462176469
 21
308.3256966331
  0
LINE
  5
220
100
AcDbEntity
  8
0
100
AcDbLine
 62
7
  6
BYLAYER
 10
52.8186429223
 20
306.774782861
 11
52.7564149624
 21
306.3337384057
  0
LINE
  5
221
100
AcDbEntity
  8
0
100
AcDbLine
 62
7
  6
BYLAYER
 10
48.0627426337
 20
309.4640009339
 11
48.0838654586
 21
309.5450927078
  0
LINE
  5
222
100
AcDbEntity
  8
0
100
AcDbLine
 62
7
  6
BYLAYER
 10
48.3939160664
 20
307.2212988374
 11
48.508964725
 21
307.6515968
  0
LINE
  5
223
100
AcDbEntity
  8
0
100
AcDbLine
 62
7
  6
BYLAYER
 10
49.399366813
 20
310.9401606183
 11
49.5171315217
 21
311.369723191
  0
LINE
  5
224
100
AcDbEntity
  8
0
100
AcDbLine
 62
7
  6
BYLAYER
 10
49.5677228618
 20
306.0995754952
 11
49.4417333529
 21
306.5267981236
  0
LINE
  5
225
100
AcDbEntity
  8
0
100
AcDbLine
 62
7
  6
BYLAYER
 10
48.4883633408
 20
309.7976624567
 11
48.3650752639
 21
310.2256724806
  0
LINE
  5
226
100
AcDbEntity
  8
0
100
AcDbLine
 62
7
  6
BYLAYER
 10
48.0996926936
 20
307.8963546785
 11
48.0770170067
 21
307.9770260039
  0
LINE
  5
227
100
AcDbEntity
  8
0
100
AcDbLine
 62
7
  6
BYLAYER
 10
52.709731314
 20
311.1968181668
 11
52.7804147316
 21
310.7570496084
  0
LINE
  5
228
100
AcDbEntity
  8
0
100
AcDbLine
 62
7
  6
BYLAYER
 10
53.9375552356
 20
309.2280682017
 11
53.9497966531
 21
309.145169485
  0
LINE
  5
229
100
AcDbEntity
  8
0
100
AcDbLine
 62
7
  6
BYLAYER
 10
53.2839677306
 20
307.3469953738
 11
53.3434082135
 21
306.9055666032
  0
LINE
  5
22A
100
AcDbEntity
  8
0
100
AcDbLine
 62
7
  6
BYLAYER
 10
59.7761484062
 20
314.4984125015
 11
59.7761484062
 21
314.3484115451
  0
LINE
  5
22B
100
AcDbEntity
  8
0
100
AcDbLine
 62
7
  6
BYLAYER
 10
59.7761484062
 20
303.148413458
 11
59.7761484062
 21
302.9984125015
  0
LINE
  5
22C
100
AcDbEntity
  8
0
100
AcDbLine
 62
7
  6
BYLAYER
 10
62.3761484062
 20
315.3196930285
 11
62.3761484062
 21
318.2932402585
  0
LINE
  5
22D
100
AcDbEntity
  8
0
100
AcDbLine
 62
7
  6
BYLAYER
 10
65.5961484062
 20
315.3143340446
 11
65.5961484062
 21
318.2932402585
  0
LINE
  5
22E
100
AcDbEntity
  8
0
100
AcDbLine
 62
7
  6
BYLAYER
 10
68.1761484062
 20
302.9984125015
 11
68.1761484062
 21
303.148413458
  0
LINE
  5
22F
100
AcDbEntity
  8
0
100
AcDbLine
 62
7
  6
BYLAYER
 10
68.1761484062
 20
314.3484115451
 11
68.1761484062
 21
314.4984125015
  0
LINE
  5
230
100
AcDbEntity
  8
0
100
AcDbLine
 62
7
  6
BYLAYER
 10
53.7314924135
 20
309.9350377167
 11
53.5627006463
 21
309.5228461717
  0
LINE
  5
231
100
AcDbEntity
  8
0
100
AcDbLine
 62
7
  6
BYLAYER
 10
53.7537648063
 20
307.6149015249
 11
53.721022448
 21
307.5377653628
  0
LINE
  5
232
100
AcDbEntity
  8
0
100
AcDbLine
 62
7
  6
BYLAYER
 10
52.2158376087
 20
306.3498356983
 11
52.036584439
 21
305.9420847551
  0
LINE
  5
233
100
AcDbEntity
  8
0
100
AcDbLine
 62
7
  6
BYLAYER
 10
48.3650752639
 20
310.2256724806
 11
48.4073535033
 21
310.2980230161
  0
LINE
  5
234
100
AcDbEntity
  8
0
100
AcDbLine
 62
7
  6
BYLAYER
 10
48.0770170067
 20
307.9770260039
 11
48.3042122214
 21
308.3601380828
  0
LINE
  5
235
100
AcDbEntity
  8
0
100
AcDbLine
 62
7
  6
BYLAYER
 10
50.0512817984
 20
311.2850681261
 11
50.2808927352
 21
311.6667372867
  0
LINE
  5
236
100
AcDbEntity
  8
0
100
AcDbLine
 62
7
  6
BYLAYER
 10
53.5770911218
 20
308.0237767378
 11
53.7537648063
 21
307.6149015249
  0
LWPOLYLINE
  5
237
100
AcDbEntity
  8
0
100
AcDbPolyline
 62
7
  6
BYLAYER
 90
4
 70
0
 10
59.5539532521
 20
308.7484125015
 10
59.8926236537
 20
307.1381874847
 10
61.325958288
 20
305.4272539379
 10
63.5545768482
 20
304.748411519
  0
LINE
  5
238
100
AcDbEntity
  8
0
100
AcDbLine
 62
7
  6
BYLAYER
 10
71.4761484062
 20
314.4984125015
 11
71.4761484062
 21
312.9984125015
  0
LINE
  5
239
100
AcDbEntity
  8
0
100
AcDbLine
 62
7
  6
BYLAYER
 10
71.4761484062
 20
304.4984125015
 11
71.4761484062
 21
302.9984125015
  0
LINE
  5
23A
100
AcDbEntity
  8
0
100
AcDbLine
 62
7
  6
BYLAYER
 10
50.3370452343
 20
305.8172783975
 11
50.1001495403
 21
306.1944692784
  0
LINE
  5
23B
100
AcDbEntity
  8
0
100
AcDbLine
 62
7
  6
BYLAYER
 10
48.2933232511
 20
309.0925247183
 11
48.0627426337
 21
309.4640009339
  0
LINE
  5
23C
100
AcDbEntity
  8
0
100
AcDbLine
 62
7
  6
BYLAYER
 10
48.4375754597
 20
307.1497732692
 11
48.3939160664
 21
307.2212988374
  0
LINE
  5
23D
100
AcDbEntity
  8
0
100
AcDbLine
 62
7
  6
BYLAYER
 10
51.9825146983
 20
311.5745807354
 11
52.1695626091
 21
311.1703461382
  0
LINE
  5
23E
100
AcDbEntity
  8
0
100
AcDbLine
 62
7
  6
BYLAYER
 10
53.6972752723
 20
310.011531094
 11
53.7314924135
 21
309.9350377167
  0
LINE
  5
23F
100
AcDbEntity
  8
0
100
AcDbLine
 62
7
  6
BYLAYER
 10
53.9497966531
 20
309.145169485
 11
53.6757629959
 21
308.7940312142
  0
LINE
  5
240
100
AcDbEntity
  8
0
100
AcDbLine
 62
7
  6
BYLAYER
 10
53.3434082135
 20
306.9055666032
 11
53.2910143356
 21
306.8401683534
  0
LINE
  5
241
100
AcDbEntity
  8
0
100
AcDbLine
 62
7
  6
BYLAYER
 10
51.5205310169
 20
306.1038619588
 11
51.2376278829
 21
305.7598294789
  0
LINE
  5
242
100
AcDbEntity
  8
0
100
AcDbLine
 62
7
  6
BYLAYER
 10
48.862237052
 20
310.8771160475
 11
48.9225160513
 21
310.9353268005
  0
LINE
  5
243
100
AcDbEntity
  8
0
100
AcDbLine
 62
7
  6
BYLAYER
 10
47.9764410059
 20
308.7903113366
 11
48.2933232511
 21
309.0925247183
  0
LINE
  5
244
100
AcDbEntity
  8
0
100
AcDbLine
 62
7
  6
BYLAYER
 10
50.7722070996
 20
311.4406992514
 11
51.0965314984
 21
311.7459961803
  0
LINE
  5
245
100
AcDbEntity
  8
0
100
AcDbLine
 62
7
  6
BYLAYER
 10
51.180206545
 20
311.7414645017
 11
51.4696620872
 21
311.4029264395
  0
LINE
  5
246
100
AcDbEntity
  8
0
100
AcDbLine
 62
7
  6
BYLAYER
 10
53.2539543267
 20
310.7007444888
 11
53.3075940282
 21
310.6363641194
  0
LINE
  5
247
100
AcDbEntity
  8
0
100
AcDbLine
 62
7
  6
BYLAYER
 10
53.6761412523
 20
308.7546278914
 11
53.9568653651
 21
308.4088150765
  0
LINE
  5
248
100
AcDbEntity
  8
0
100
AcDbLine
 62
7
  6
BYLAYER
 10
53.9462176469
 20
308.3256966331
 11
53.5873895343
 21
308.0618123478
  0
LINE
  5
249
100
AcDbEntity
  8
0
100
AcDbLine
 62
7
  6
BYLAYER
 10
51.1540552533
 20
305.7536922886
 11
50.8239297033
 21
306.052706756
  0
LINE
  5
24A
100
AcDbEntity
  8
0
100
AcDbLine
 62
7
  6
BYLAYER
 10
48.9648776721
 20
306.5224767355
 11
48.9034922839
 21
306.5795195584
  0
LINE
  5
24B
100
AcDbEntity
  8
0
100
AcDbLine
 62
7
  6
BYLAYER
 10
48.2988302632
 20
308.3991739567
 11
47.9764410059
 21
308.7065136664
  0
LINE
  5
24C
100
AcDbEntity
  8
0
100
AcDbLine
 62
7
  6
BYLAYER
 10
52.7564149624
 20
306.3337384057
 11
52.688279013
 21
306.2849578571
  0
LINE
  5
24D
100
AcDbEntity
  8
0
100
AcDbLine
 62
7
  6
BYLAYER
 10
50.7846044962
 20
306.0552153438
 11
50.4191606415
 21
305.8005718291
  0
LINE
  5
24E
100
AcDbEntity
  8
0
100
AcDbLine
 62
7
  6
BYLAYER
 10
48.0838654586
 20
309.5450927078
 11
48.4733154228
 21
309.7612437103
  0
LINE
  5
24F
100
AcDbEntity
  8
0
100
AcDbLine
 62
7
  6
BYLAYER
 10
49.5171315217
 20
311.369723191
 11
49.5909134725
 21
311.4094506784
  0
LINE
  5
250
100
AcDbEntity
  8
0
100
AcDbLine
 62
7
  6
BYLAYER
 10
51.5083497888
 20
311.3954413431
 11
51.9031876958
 21
311.6015858498
  0
LINE
  5
251
100
AcDbEntity
  8
0
100
AcDbLine
 62
7
  6
BYLAYER
 10
50.3626722861
 20
311.6850171821
 11
50.7329372981
 21
311.4374361825
  0
LINE
  5
252
100
AcDbEntity
  8
0
100
AcDbLine
 62
7
  6
BYLAYER
 10
52.6406714594
 20
311.2442816899
 11
52.709731314
 21
311.1968181668
  0
LINE
  5
253
100
AcDbEntity
  8
0
100
AcDbLine
 62
7
  6
BYLAYER
 10
53.5737273473
 20
309.4850152743
 11
53.9375552356
 21
309.2280682017
  0
LINE
  5
254
100
AcDbEntity
  8
0
100
AcDbLine
 62
7
  6
BYLAYER
 10
51.9577904847
 20
305.9135617419
 11
51.5590678942
 21
306.1120883806
  0
LINE
  5
255
100
AcDbEntity
  8
0
100
AcDbLine
 62
7
  6
BYLAYER
 10
49.6422538817
 20
306.0612717539
 11
49.5677228618
 21
306.0995754952
  0
LINE
  5
256
100
AcDbEntity
  8
0
100
AcDbLine
 62
7
  6
BYLAYER
 10
48.4932204334
 20
307.6877199534
 11
48.0996926936
 21
307.8963546785
  0
LINE
  5
257
100
AcDbEntity
  8
0
100
AcDbLine
 62
7
  6
BYLAYER
 10
53.721022448
 20
307.5377653628
 11
53.3041743803
 21
307.3808251866
  0
LINE
  5
258
100
AcDbEntity
  8
0
100
AcDbLine
 62
7
  6
BYLAYER
 10
52.036584439
 20
305.9420847551
 11
51.9577904847
 21
305.9135617419
  0
LINE
  5
259
100
AcDbEntity
  8
0
100
AcDbLine
 62
7
  6
BYLAYER
 10
50.062970313
 20
306.2075256937
 11
49.6422538817
 21
306.0612717539
  0
LINE
  5
25A
100
AcDbEntity
  8
0
100
AcDbLine
 62
7
  6
BYLAYER
 10
53.2774911746
 20
310.1604399312
 11
53.6972752723
 21
310.011531094
  0
LINE
  5
25B
100
AcDbEntity
  8
0
100
AcDbLine
 62
7
  6
BYLAYER
 10
49.5909134725
 20
311.4094506784
 11
50.0143600725
 21
311.2713003709
  0
LINE
  5
25C
100
AcDbEntity
  8
0
100
AcDbLine
 62
7
  6
BYLAYER
 10
51.9031876958
 20
311.6015858498
 11
51.9825146983
 21
311.5745807354
  0
LINE
  5
25D
100
AcDbEntity
  8
0
100
AcDbLine
 62
7
  6
BYLAYER
 10
52.688279013
 20
306.2849578571
 11
52.250710669
 21
306.3681833028
  0
LINE
  5
25E
100
AcDbEntity
  8
0
100
AcDbLine
 62
7
  6
BYLAYER
 10
50.4191606415
 20
305.8005718291
 11
50.3370452343
 21
305.8172783975
  0
LINE
  5
25F
100
AcDbEntity
  8
0
100
AcDbLine
 62
7
  6
BYLAYER
 10
48.8728780164
 20
307.0554111231
 11
48.4375754597
 21
307.1497732692
  0
LINE
  5
260
100
AcDbEntity
  8
0
100
AcDbLine
 62
7
  6
BYLAYER
 10
355.2024484062
 20
281.9094925015
 11
373.0024484062
 21
281.9094925015
  0
LINE
  5
261
100
AcDbEntity
  8
0
100
AcDbLine
 62
7
  6
BYLAYER
 10
358.5809434096
 20
287.3094925015
 11
363.1414324377
 21
287.3094925015
  0
LINE
  5
262
100
AcDbEntity
  8
0
100
AcDbLine
 62
7
  6
BYLAYER
 10
364.9890853046
 20
287.3094925015
 11
369.6239534028
 21
287.3094925015
  0
LINE
  5
263
100
AcDbEntity
  8
0
100
AcDbLine
 62
7
  6
BYLAYER
 10
340.8024484062
 20
290.8094925015
 11
387.4024484062
 21
290.8094925015
  0
LINE
  5
264
100
AcDbEntity
  8
0
100
AcDbLine
 62
7
  6
BYLAYER
 10
340.8024459858
 20
299.8094925015
 11
348.8950315592
 21
299.8094925015
  0
LINE
  5
265
100
AcDbEntity
  8
0
100
AcDbLine
 62
7
  6
BYLAYER
 10
379.3098652532
 20
299.8094925015
 11
387.4024508259
 21
299.8094925015
  0
LINE
  5
266
100
AcDbEntity
  8
0
100
AcDbLine
 62
7
  6
BYLAYER
 10
387.4024508359
 20
302.8094925015
 11
383.4067958274
 21
302.8094925015
  0
LINE
  5
267
100
AcDbEntity
  8
0
100
AcDbLine
 62
7
  6
BYLAYER
 10
340.8024459858
 20
302.8094925015
 11
360.4753510461
 21
302.8094925015
  0
LINE
  5
268
100
AcDbEntity
  8
0
100
AcDbLine
 62
7
  6
BYLAYER
 10
367.4769457663
 20
302.8094925015
 11
383.4045992204
 21
302.8094925015
  0
LINE
  5
269
100
AcDbEntity
  8
0
100
AcDbLine
 62
7
  6
BYLAYER
 10
56.4761484062
 20
302.9984125015
 11
59.9839698576
 21
302.9984125015
  0
LINE
  5
26A
100
AcDbEntity
  8
0
100
AcDbLine
 62
7
  6
BYLAYER
 10
67.9683269647
 20
302.9984125015
 11
71.4761484062
 21
302.9984125015
  0
LINE
  5
26B
100
AcDbEntity
  8
0
100
AcDbLine
 62
7
  6
BYLAYER
 10
356.4761484062
 20
302.9984125015
 11
360.0890374868
 21
302.9984125015
  0
LINE
  5
26C
100
AcDbEntity
  8
0
100
AcDbLine
 62
7
  6
BYLAYER
 10
367.8632593256
 20
302.9984125015
 11
371.4761484062
 21
302.9984125015
  0
LINE
  5
26D
100
AcDbEntity
  8
0
100
AcDbLine
 62
7
  6
BYLAYER
 10
340.8199132652
 20
303.3094925015
 11
355.8447299055
 21
303.3094925015
  0
LINE
  5
26E
100
AcDbEntity
  8
0
100
AcDbLine
 62
7
  6
BYLAYER
 10
372.6734873029
 20
303.3094925015
 11
387.3849835383
 21
303.3094925015
  0
LINE
  5
26F
100
AcDbEntity
  8
0
100
AcDbLine
 62
7
  6
BYLAYER
 10
51.0965314984
 20
311.7459961803
 11
51.180206545
 21
311.7414645017
  0
LINE
  5
270
100
AcDbEntity
  8
0
100
AcDbLine
 62
7
  6
BYLAYER
 10
52.8095368429
 20
310.7305040333
 11
53.2539543267
 21
310.7007444888
  0
LWPOLYLINE
  5
271
100
AcDbEntity
  8
0
100
AcDbPolyline
 62
7
  6
BYLAYER
 90
3
 70
0
 10
63.5545730796
 20
312.7484135103
 10
63.4777398227
 20
312.7477090773
 10
63.3129040039
 20
312.7412735783
  0
LINE
  5
272
100
AcDbEntity
  8
0
100
AcDbLine
 62
7
  6
BYLAYER
 10
355.9744484062
 20
303.7412925015
 11
356.4761484062
 21
303.7412925015
  0
LINE
  5
273
100
AcDbEntity
  8
0
100
AcDbLine
 62
7
  6
BYLAYER
 10
371.4761484062
 20
303.7412925015
 11
372.2304484062
 21
303.7412925015
  0
LINE
  5
274
100
AcDbEntity
  8
0
100
AcDbLine
 62
7
  6
BYLAYER
 10
372.6734873029
 20
304.0094925015
 11
372.2304484062
 21
304.0094925015
  0
LINE
  5
275
100
AcDbEntity
  8
0
100
AcDbLine
 62
7
  6
BYLAYER
 10
355.856948451
 20
304.0094925015
 11
355.9744484062
 21
304.0094925015
  0
LINE
  5
276
100
AcDbEntity
  8
0
100
AcDbLine
 62
7
  6
BYLAYER
 10
355.8604394639
 20
304.2094925015
 11
356.4761484062
 21
304.2094925015
  0
LINE
  5
277
100
AcDbEntity
  8
0
100
AcDbLine
 62
7
  6
BYLAYER
 10
371.4761484062
 20
304.2094925015
 11
372.6734873029
 21
304.2094925015
  0
LINE
  5
278
100
AcDbEntity
  8
0
100
AcDbLine
 62
7
  6
BYLAYER
 10
49.9761484062
 20
304.4984125015
 11
58.4140005038
 21
304.4984125015
  0
LINE
  5
279
100
AcDbEntity
  8
0
100
AcDbLine
 62
7
  6
BYLAYER
 10
69.5382963086
 20
304.4984125015
 11
77.9761484062
 21
304.4984125015
  0
LINE
  5
27A
100
AcDbEntity
  8
0
100
AcDbLine
 62
7
  6
BYLAYER
 10
63.5545768482
 20
304.748411519
 11
364.3265299522
 21
304.7484075673
  0
LINE
  5
27B
100
AcDbEntity
  8
0
100
AcDbLine
 62
7
  6
BYLAYER
 10
368.326696843
 20
308.7484125015
 11
59.5539532521
 21
308.7484125015
  0
LINE
  5
27C
100
AcDbEntity
  8
0
100
AcDbLine
 62
7
  6
BYLAYER
 10
364.0568870666
 20
312.7484169085
 11
364.0048954461
 21
312.7484137052
  0
LINE
  5
27D
100
AcDbEntity
  8
0
100
AcDbLine
 62
7
  6
BYLAYER
 10
364.3264982369
 20
312.7484174094
 11
63.5545730796
 21
312.7484135103
  0
LINE
  5
27E
100
AcDbEntity
  8
0
100
AcDbLine
 62
7
  6
BYLAYER
 10
77.9761484062
 20
312.9984125015
 11
69.5382963086
 21
312.9984125015
  0
LINE
  5
27F
100
AcDbEntity
  8
0
100
AcDbLine
 62
7
  6
BYLAYER
 10
58.4140005038
 20
312.9984125015
 11
49.9761484062
 21
312.9984125015
  0
LINE
  5
280
100
AcDbEntity
  8
0
100
AcDbLine
 62
7
  6
BYLAYER
 10
371.4761484062
 20
314.4984125015
 11
367.8632593256
 21
314.4984125015
  0
LINE
  5
281
100
AcDbEntity
  8
0
100
AcDbLine
 62
7
  6
BYLAYER
 10
360.0890374868
 20
314.4984125015
 11
356.4761484062
 21
314.4984125015
  0
LINE
  5
282
100
AcDbEntity
  8
0
100
AcDbLine
 62
7
  6
BYLAYER
 10
59.9839698711
 20
314.4984124869
 11
56.4761484062
 21
314.4984125015
  0
LINE
  5
283
100
AcDbEntity
  8
0
100
AcDbLine
 62
7
  6
BYLAYER
 10
67.9683269318
 20
314.4984124936
 11
71.4761484062
 21
314.4984125015
  0
LINE
  5
284
100
AcDbEntity
  8
0
100
AcDbLine
 62
7
  6
BYLAYER
 10
48.9225160513
 20
310.9353268005
 11
49.367548133
 21
310.9169154785
  0
LINE
  5
285
100
AcDbEntity
  8
0
100
AcDbLine
 62
7
  6
BYLAYER
 10
53.2910143356
 20
306.8401683534
 11
52.8472500596
 21
306.8018826141
  0
LWPOLYLINE
  5
286
100
AcDbEntity
  8
0
100
AcDbPolyline
 62
7
  6
BYLAYER
 90
25
 70
0
 10
63.3129040039
 20
312.7412735783
 10
63.1343280699
 20
312.7265251138
 10
62.9478698931
 20
312.7023213724
 10
62.7580082886
 20
312.6683706046
 10
62.5655464536
 20
312.624281313
 10
62.3709912502
 20
312.569466239
 10
62.1748993206
 20
312.5032052227
 10
61.9778147626
 20
312.4246385748
 10
61.7801819158
 20
312.3330862827
 10
61.5823224249
 20
312.2278850416
 10
61.3843964994
 20
312.1079906548
 10
61.1867786697
 20
311.9720694522
 10
61.0882878654
 20
311.8976025674
 10
60.8925729069
 20
311.7345005175
 10
60.699796102
 20
311.5507722145
 10
60.5115956361
 20
311.3443328245
 10
60.3299231958
 20
311.1139152887
 10
60.1578883447
 20
310.8592867
 10
59.9992132257
 20
310.5806555152
 10
59.8582443224
 20
310.2785404395
 10
59.7395461893
 20
309.9529456501
 10
59.6466007884
 20
309.6033438331
 10
59.5833303717
 20
309.2299896229
 10
59.5548899116
 20
308.8339689713
 10
59.5539532521
 20
308.7484125015
  0
LINE
  5
287
100
AcDbEntity
  8
0
100
AcDbLine
 62
7
  6
BYLAYER
 10
51.2376278829
 20
305.7598294789
 11
51.1540552533
 21
305.7536922886
  0
LINE
  5
288
100
AcDbEntity
  8
0
100
AcDbLine
 62
7
  6
BYLAYER
 10
49.4094742895
 20
306.5494281423
 11
48.9648776721
 21
306.5224767355
  0
LINE
  5
289
100
AcDbEntity
  8
0
100
AcDbLine
 62
7
  6
BYLAYER
 10
372.6734873029
 20
315.2493557378
 11
366.5034929661
 21
315.2493557378
  0
LINE
  5
28A
100
AcDbEntity
  8
0
100
AcDbLine
 62
7
  6
BYLAYER
 10
361.4488038463
 20
315.2493557378
 11
356.054189109
 21
315.2493557378
  0
LINE
  5
28B
100
AcDbEntity
  8
0
100
AcDbLine
 62
7
  6
BYLAYER
 10
372.6734873029
 20
315.3094022318
 11
366.3994893876
 21
315.3094022318
  0
LINE
  5
28C
100
AcDbEntity
  8
0
100
AcDbLine
 62
7
  6
BYLAYER
 10
361.5528074248
 20
315.3094022318
 11
356.054189109
 21
315.3094022318
  0
LINE
  5
28D
100
AcDbEntity
  8
0
100
AcDbLine
 62
7
  6
BYLAYER
 10
62.3761484062
 20
317.1741097903
 11
65.5961484062
 21
317.1741097903
  0
LINE
  5
28E
100
AcDbEntity
  8
0
100
AcDbLine
 62
7
  6
BYLAYER
 10
62.3761484062
 20
317.617825619
 11
65.5961484062
 21
317.617825619
  0
LINE
  5
28F
100
AcDbEntity
  8
0
100
AcDbLine
 62
7
  6
BYLAYER
 10
65.5961484062
 20
317.7932402585
 11
62.3761484062
 21
317.7932402585
  0
LINE
  5
290
100
AcDbEntity
  8
0
100
AcDbLine
 62
7
  6
BYLAYER
 10
65.5961484062
 20
318.2932402585
 11
62.3761484062
 21
318.2932402585
  0
LINE
  5
291
100
AcDbEntity
  8
0
100
AcDbLine
 62
7
  6
BYLAYER
 10
341.4699088023
 20
321.8094925015
 11
386.7349880101
 21
321.8094925015
  0
LWPOLYLINE
  5
292
100
AcDbEntity
  8
0
100
AcDbPolyline
 62
7
  6
BYLAYER
 90
4
 70
0
 10
364.3265299522
 20
304.7484075673
 10
366.555923439
 20
305.4281335042
 10
367.9885496509
 20
307.1394059564
 10
368.3266968429
 20
308.7484125015
  0
LINE
  5
293
100
AcDbEntity
  8
0
100
AcDbLine
 62
7
  6
BYLAYER
 10
48.4073535033
 20
310.2980230161
 11
48.8407643272
 21
310.4007244682
  0
LINE
  5
294
100
AcDbEntity
  8
0
100
AcDbLine
 62
7
  6
BYLAYER
 10
50.2808927352
 20
311.6667372867
 11
50.3626722861
 21
311.6850171821
  0
LINE
  5
295
100
AcDbEntity
  8
0
100
AcDbLine
 62
7
  6
BYLAYER
 10
52.2047814697
 20
311.1526713884
 11
52.6406714594
 21
311.2442816899
  0
LINE
  5
296
100
AcDbEntity
  8
0
100
AcDbLine
 62
7
  6
BYLAYER
 10
340.8024484062
 20
290.8094925015
 11
340.8024484062
 21
302.8094925015
  0
LINE
  5
297
100
AcDbEntity
  8
0
100
AcDbLine
 62
7
  6
BYLAYER
 10
341.3024484062
 20
303.3094925015
 11
341.3024484062
 21
302.8094925015
  0
LINE
  5
298
100
AcDbEntity
  8
0
100
AcDbLine
 62
7
  6
BYLAYER
 10
341.4699087831
 20
321.8094922759
 11
341.1515465354
 21
312.7484129193
  0
LINE
  5
299
100
AcDbEntity
  8
0
100
AcDbLine
 62
7
  6
BYLAYER
 10
340.8704654265
 20
304.7484121281
 11
340.819908782
 21
303.3094922452
  0
LINE
  5
29A
100
AcDbEntity
  8
0
100
AcDbLine
 62
7
  6
BYLAYER
 10
344.8004032281
 20
302.8094925015
 11
344.8004032281
 21
299.8094925015
  0
LINE
  5
29B
100
AcDbEntity
  8
0
100
AcDbLine
 62
7
  6
BYLAYER
 10
344.8175340066
 20
321.8094922759
 11
344.8175340147
 21
312.7484134825
  0
LINE
  5
29C
100
AcDbEntity
  8
0
100
AcDbLine
 62
7
  6
BYLAYER
 10
344.8175340218
 20
304.7484115223
 11
344.8175340231
 21
303.3094925015
  0
LINE
  5
29D
100
AcDbEntity
  8
0
100
AcDbLine
 62
7
  6
BYLAYER
 10
345.4024484042
 20
290.8094925015
 11
345.4024484042
 21
299.8094925015
  0
LINE
  5
29E
100
AcDbEntity
  8
0
100
AcDbLine
 62
7
  6
BYLAYER
 10
348.8950315592
 20
290.8094925015
 11
348.8950315592
 21
299.8094925015
  0
LINE
  5
29F
100
AcDbEntity
  8
0
100
AcDbLine
 62
7
  6
BYLAYER
 10
355.2024484062
 20
290.8094925015
 11
355.2024484062
 21
281.9094925015
  0
LINE
  5
2A0
100
AcDbEntity
  8
0
100
AcDbLine
 62
7
  6
BYLAYER
 10
356.054189109
 20
315.3094022318
 11
356.0094868662
 21
312.7484124556
  0
LINE
  5
2A1
100
AcDbEntity
  8
0
100
AcDbLine
 62
7
  6
BYLAYER
 10
355.8698463479
 20
304.7484125193
 11
355.8447299055
 21
303.3094925015
  0
LINE
  5
2A2
100
AcDbEntity
  8
0
100
AcDbLine
 62
7
  6
BYLAYER
 10
355.8280113153
 20
303.3094925015
 11
355.8280113153
 21
302.8094925015
  0
LINE
  5
2A3
100
AcDbEntity
  8
0
100
AcDbLine
 62
7
  6
BYLAYER
 10
355.9744484062
 20
304.2094925015
 11
355.9744484062
 21
303.7412925015
  0
LINE
  5
2A4
100
AcDbEntity
  8
0
100
AcDbLine
 62
7
  6
BYLAYER
 10
356.4761484062
 20
302.9984125015
 11
356.4761484062
 21
304.7484126558
  0
LINE
  5
2A5
100
AcDbEntity
  8
0
100
AcDbLine
 62
7
  6
BYLAYER
 10
356.4761484062
 20
312.7484123506
 11
356.4761484062
 21
314.4984125015
  0
LINE
  5
2A6
100
AcDbEntity
  8
0
100
AcDbLine
 62
7
  6
BYLAYER
 10
357.3024484062
 20
302.8094925015
 11
357.3024484062
 21
302.9984125015
  0
LINE
  5
2A7
100
AcDbEntity
  8
0
100
AcDbLine
 62
7
  6
BYLAYER
 10
357.7171756531
 20
302.8094925015
 11
357.7171756531
 21
302.9984125015
  0
LINE
  5
2A8
100
AcDbEntity
  8
0
100
AcDbLine
 62
7
  6
BYLAYER
 10
358.1268854971
 20
302.9984125015
 11
358.1268854971
 21
302.8094925015
  0
LINE
  5
2A9
100
AcDbEntity
  8
0
100
AcDbLine
 62
7
  6
BYLAYER
 10
358.1595673976
 20
302.8094925015
 11
358.1595673976
 21
302.9984125015
  0
LINE
  5
2AA
100
AcDbEntity
  8
0
100
AcDbLine
 62
7
  6
BYLAYER
 10
358.5809434096
 20
287.3094925015
 11
358.5809434096
 21
281.9094925015
  0
LINE
  5
2AB
100
AcDbEntity
  8
0
100
AcDbLine
 62
7
  6
BYLAYER
 10
358.8698279237
 20
302.9984125015
 11
358.8698279237
 21
302.8094925015
  0
LINE
  5
2AC
100
AcDbEntity
  8
0
100
AcDbLine
 62
7
  6
BYLAYER
 10
359.3698279237
 20
302.8094925015
 11
359.3698279237
 21
302.9984125015
  0
LINE
  5
2AD
100
AcDbEntity
  8
0
100
AcDbLine
 62
7
  6
BYLAYER
 10
363.1414324377
 20
281.9094925015
 11
363.1414324377
 21
287.3094925015
  0
LINE
  5
2AE
100
AcDbEntity
  8
0
100
AcDbLine
 62
7
  6
BYLAYER
 10
364.9890853046
 20
287.3094925015
 11
364.9890853046
 21
281.9094925015
  0
LINE
  5
2AF
100
AcDbEntity
  8
0
100
AcDbLine
 62
7
  6
BYLAYER
 10
386.7349880294
 20
321.8094922759
 11
387.3849880215
 21
303.3094925015
  0
LWPOLYLINE
  5
2B0
100
AcDbEntity
  8
0
100
AcDbPolyline
 62
7
  6
BYLAYER
 90
25
 70
0
 10
368.326696843
 20
308.7484125015
 10
368.3247380349
 20
308.8722277739
 10
368.3003523467
 20
309.2043756323
 10
368.2495342944
 20
309.5289614202
 10
368.1738450016
 20
309.8435575891
 10
368.0745253502
 20
310.1464386495
 10
367.9526122114
 20
310.4363496586
 10
367.8101237037
 20
310.7121669266
 10
367.6494171168
 20
310.9728526507
 10
367.4723769099
 20
311.2174649242
 10
367.2805904185
 20
311.4449838337
 10
367.0761314924
 20
311.6536639259
 10
366.8610300649
 20
311.8427272826
 10
366.637656906
 20
312.0124450026
 10
366.4082800486
 20
312.1631260968
 10
366.1750304258
 20
312.2950320802
 10
365.9399316167
 20
312.4083990803
 10
365.7049571118
 20
312.5034537445
 10
365.4724494047
 20
312.5807327003
 10
365.2451434472
 20
312.6414197188
 10
365.0258084262
 20
312.6868346472
 10
364.8180557976
 20
312.718266712
 10
364.6264652426
 20
312.7373167523
 10
364.4588598223
 20
312.7462828318
 10
364.3495177739
 20
312.7483538609
  0
LINE
  5
2B1
100
AcDbEntity
  8
0
100
AcDbLine
 62
7
  6
BYLAYER
 10
368.8698279237
 20
302.9984125015
 11
368.8698279237
 21
302.8094925015
  0
LINE
  5
2B2
100
AcDbEntity
  8
0
100
AcDbLine
 62
7
  6
BYLAYER
 10
369.3698279237
 20
302.8094925015
 11
369.3698279237
 21
302.9984125015
  0
LINE
  5
2B3
100
AcDbEntity
  8
0
100
AcDbLine
 62
7
  6
BYLAYER
 10
369.6239534028
 20
281.9094925015
 11
369.6239534028
 21
287.3094925015
  0
LINE
  5
2B4
100
AcDbEntity
  8
0
100
AcDbLine
 62
7
  6
BYLAYER
 10
370.0881840606
 20
302.9984125015
 11
370.0881840606
 21
302.8094925015
  0
LINE
  5
2B5
100
AcDbEntity
  8
0
100
AcDbLine
 62
7
  6
BYLAYER
 10
370.4877211593
 20
302.8094925015
 11
370.4877211593
 21
302.9984125015
  0
LINE
  5
2B6
100
AcDbEntity
  8
0
100
AcDbLine
 62
7
  6
BYLAYER
 10
370.9024484062
 20
302.8094925015
 11
370.9024484062
 21
302.9984125015
  0
LINE
  5
2B7
100
AcDbEntity
  8
0
100
AcDbLine
 62
7
  6
BYLAYER
 10
371.4761484062
 20
314.4984125015
 11
371.4761484062
 21
302.9984125015
  0
LINE
  5
2B8
100
AcDbEntity
  8
0
100
AcDbLine
 62
7
  6
BYLAYER
 10
372.2304484062
 20
303.7412925015
 11
372.2304484062
 21
304.2094925015
  0
LINE
  5
2B9
100
AcDbEntity
  8
0
100
AcDbLine
 62
7
  6
BYLAYER
 10
372.6734873029
 20
302.8094925015
 11
372.6734873029
 21
315.3094022318
  0
LINE
  5
2BA
100
AcDbEntity
  8
0
100
AcDbLine
 62
7
  6
BYLAYER
 10
373.0024484062
 20
290.8094925015
 11
373.0024484062
 21
281.9094925015
  0
LINE
  5
2BB
100
AcDbEntity
  8
0
100
AcDbLine
 62
7
  6
BYLAYER
 10
379.3098652532
 20
290.8094925015
 11
379.3098652532
 21
299.8094925015
  0
LINE
  5
2BC
100
AcDbEntity
  8
0
100
AcDbLine
 62
7
  6
BYLAYER
 10
382.8024484082
 20
299.8094925015
 11
382.8024484082
 21
290.8094925015
  0
LINE
  5
2BD
100
AcDbEntity
  8
0
100
AcDbLine
 62
7
  6
BYLAYER
 10
383.3873628077
 20
321.8094922759
 11
383.3873627897
 21
303.3094922452
  0
LINE
  5
2BE
100
AcDbEntity
  8
0
100
AcDbLine
 62
7
  6
BYLAYER
 10
383.4044950242
 20
299.8094925015
 11
383.4045992204
 21
302.8094925015
  0
LINE
  5
2BF
100
AcDbEntity
  8
0
100
AcDbLine
 62
7
  6
BYLAYER
 10
386.9024484062
 20
303.3094925015
 11
386.9024484062
 21
302.8094925015
  0
LINE
  5
2C0
100
AcDbEntity
  8
0
100
AcDbLine
 62
7
  6
BYLAYER
 10
387.4024484062
 20
290.8094925015
 11
387.4024484062
 21
302.8094925015
  0
ARC
  5
2C1
100
AcDbEntity
  8
0
100
AcDbCircle
 62
7
  6
BYLAYER
 10
363.9761484062
 20
308.7484125015
 40
7.0
100
AcDbArc
 50
215.3696659706
 51
144.6303339887
  0
ARC
  5
2C2
100
AcDbEntity
  8
0
100
AcDbCircle
 62
7
  6
BYLAYER
 10
63.9761484062
 20
308.7484125015
 40
7.0
100
AcDbArc
 50
35.8544389917
 51
324.1455616107
  0
ARC
  5
2C3
100
AcDbEntity
  8
0
100
AcDbCircle
 62
7
  6
BYLAYER
 10
363.9761484062
 20
308.7484125015
 40
5.75
100
AcDbArc
 50
227.0692450558
 51
132.9624014633
  0
ARC
  5
2C4
100
AcDbEntity
  8
0
100
AcDbCircle
 62
7
  6
BYLAYER
 10
63.9761484062
 20
308.7484125015
 40
5.7474160821
100
AcDbArc
 50
42.0278744815
 51
317.980361378
  0
ARC
  5
2C5
100
AcDbEntity
  8
0
100
AcDbCircle
 62
7
  6
BYLAYER
 10
49.9761484062
 20
309.9984125015
 40
3.0
100
AcDbArc
 50
90.0
 51
180.0
  0
ARC
  5
2C6
100
AcDbEntity
  8
0
100
AcDbCircle
 62
7
  6
BYLAYER
 10
49.9761484062
 20
307.4984125015
 40
3.0
100
AcDbArc
 50
180.0
 51
270.0000000003
  0
ARC
  5
2C7
100
AcDbEntity
  8
0
100
AcDbCircle
 62
7
  6
BYLAYER
 10
77.9761484062
 20
307.4984125015
 40
3.0
100
AcDbArc
 50
270.0
 51
283.1945457202
  0
ARC
  5
2C8
100
AcDbEntity
  8
0
100
AcDbCircle
 62
7
  6
BYLAYER
 10
77.9761484062
 20
309.9984125015
 40
3.0
100
AcDbArc
 50
76.8060324516
 51
89.9999999999
  0
ARC
  5
2C9
100
AcDbEntity
  8
0
100
AcDbCircle
 62
7
  6
BYLAYER
 10
50.9761484062
 20
308.7484125015
 40
2.7
100
AcDbArc
 50
157.1318947857
 51
157.9681052132
  0
ARC
  5
2CA
100
AcDbEntity
  8
0
100
AcDbCircle
 62
7
  6
BYLAYER
 10
50.9761484062
 20
308.7484125015
 40
2.7
100
AcDbArc
 50
141.4318947841
 51
142.2681052135
  0
ARC
  5
2CB
100
AcDbEntity
  8
0
100
AcDbCircle
 62
7
  6
BYLAYER
 10
50.9761484062
 20
308.7484125015
 40
2.7
100
AcDbArc
 50
125.731894786
 51
126.5681052131
  0
ARC
  5
2CC
100
AcDbEntity
  8
0
100
AcDbCircle
 62
7
  6
BYLAYER
 10
50.9761484062
 20
308.7484125015
 40
2.7
100
AcDbArc
 50
110.0318947853
 51
110.8681052133
  0
ARC
  5
2CD
100
AcDbEntity
  8
0
100
AcDbCircle
 62
7
  6
BYLAYER
 10
50.9761484062
 20
308.7484125015
 40
2.7
100
AcDbArc
 50
94.3318947859
 51
95.168105214
  0
ARC
  5
2CE
100
AcDbEntity
  8
0
100
AcDbCircle
 62
7
  6
BYLAYER
 10
50.9761484062
 20
308.7484125015
 40
2.7
100
AcDbArc
 50
78.6318947857
 51
79.4681052129
  0
ARC
  5
2CF
100
AcDbEntity
  8
0
100
AcDbCircle
 62
7
  6
BYLAYER
 10
50.9761484062
 20
308.7484125015
 40
2.7
100
AcDbArc
 50
62.9318947858
 51
63.768105213
  0
ARC
  5
2D0
100
AcDbEntity
  8
0
100
AcDbCircle
 62
7
  6
BYLAYER
 10
50.9761484062
 20
308.7484125015
 40
2.7
100
AcDbArc
 50
47.2318947857
 51
48.0681052124
  0
ARC
  5
2D1
100
AcDbEntity
  8
0
100
AcDbCircle
 62
7
  6
BYLAYER
 10
50.9761484062
 20
308.7484125015
 40
2.7
100
AcDbArc
 50
31.5318947856
 51
32.3681052136
  0
ARC
  5
2D2
100
AcDbEntity
  8
0
100
AcDbCircle
 62
7
  6
BYLAYER
 10
50.9761484062
 20
308.7484125015
 40
2.7
100
AcDbArc
 50
15.831894786
 51
16.6681052137
  0
ARC
  5
2D3
100
AcDbEntity
  8
0
100
AcDbCircle
 62
7
  6
BYLAYER
 10
50.9761484062
 20
308.7484125015
 40
2.7
100
AcDbArc
 50
344.4318947858
 51
345.2681052137
  0
ARC
  5
2D4
100
AcDbEntity
  8
0
100
AcDbCircle
 62
7
  6
BYLAYER
 10
50.9761484062
 20
308.7484125015
 40
2.7
100
AcDbArc
 50
328.7318947858
 51
329.5681052134
  0
ARC
  5
2D5
100
AcDbEntity
  8
0
100
AcDbCircle
 62
7
  6
BYLAYER
 10
50.9761484062
 20
308.7484125015
 40
2.7
100
AcDbArc
 50
313.0318947865
 51
313.8681052133
  0
ARC
  5
2D6
100
AcDbEntity
  8
0
100
AcDbCircle
 62
7
  6
BYLAYER
 10
50.9761484062
 20
308.7484125015
 40
2.7
100
AcDbArc
 50
297.3318947849
 51
298.1681052134
  0
ARC
  5
2D7
100
AcDbEntity
  8
0
100
AcDbCircle
 62
7
  6
BYLAYER
 10
50.9761484062
 20
308.7484125015
 40
2.7
100
AcDbArc
 50
281.6318947849
 51
282.4681052133
  0
ARC
  5
2D8
100
AcDbEntity
  8
0
100
AcDbCircle
 62
7
  6
BYLAYER
 10
50.9761484062
 20
308.7484125015
 40
2.7
100
AcDbArc
 50
265.9318947859
 51
266.7681052138
  0
ARC
  5
2D9
100
AcDbEntity
  8
0
100
AcDbCircle
 62
7
  6
BYLAYER
 10
50.9761484062
 20
308.7484125015
 40
2.7
100
AcDbArc
 50
250.2318947864
 51
251.0681052127
  0
ARC
  5
2DA
100
AcDbEntity
  8
0
100
AcDbCircle
 62
7
  6
BYLAYER
 10
50.9761484062
 20
308.7484125015
 40
2.7
100
AcDbArc
 50
234.5318947861
 51
235.3681052137
  0
ARC
  5
2DB
100
AcDbEntity
  8
0
100
AcDbCircle
 62
7
  6
BYLAYER
 10
50.9761484062
 20
308.7484125015
 40
2.7
100
AcDbArc
 50
218.8318947858
 51
219.6681052132
  0
ARC
  5
2DC
100
AcDbEntity
  8
0
100
AcDbCircle
 62
7
  6
BYLAYER
 10
50.9761484062
 20
308.7484125015
 40
2.7
100
AcDbArc
 50
203.1318947853
 51
203.9681052132
  0
ARC
  5
2DD
100
AcDbEntity
  8
0
100
AcDbCircle
 62
7
  6
BYLAYER
 10
50.9761484062
 20
308.7484125015
 40
2.7
100
AcDbArc
 50
187.4318947857
 51
188.2681052129
  0
ARC
  5
2DE
100
AcDbEntity
  8
0
100
AcDbCircle
 62
7
  6
BYLAYER
 10
50.9761484062
 20
308.7484125015
 40
2.7
100
AcDbArc
 50
0.1318947865
 51
0.968105213
  0
SPLINE
  5
2DF
100
AcDbEntity
  8
0
100
AcDbSpline
 62
7
  6
BYLAYER
 70
0
 71
3
 72
8
 73
4
 74
0
 42
0.0000001
 43
0.0000001
 44
0.0000000001
 40
0.0
 40
0.0
 40
0.0
 40
0.0
 40
1.0
 40
1.0
 40
1.0
 40
1.0
 10
344.8018008271
 20
303.3094925015
 30
0.0
 10
344.799249047
 20
303.1428438351
 30
0.0
 10
344.8003409128
 20
302.9761592905
 30
0.0
 10
344.799654599
 20
302.8094925015
 30
0.0
  0
SPLINE
  5
2E0
100
AcDbEntity
  8
0
100
AcDbSpline
 62
7
  6
BYLAYER
 70
0
 71
3
 72
8
 73
4
 74
0
 42
0.0000001
 43
0.0000001
 44
0.0000000001
 40
0.0
 40
0.0
 40
0.0
 40
0.0
 40
1.0
 40
1.0
 40
1.0
 40
1.0
 10
383.4023708348
 20
303.3094925015
 30
0.0
 10
383.4059370508
 20
303.142861244
 30
0.0
 10
383.4045804558
 20
302.9761606027
 30
0.0
 10
383.4052422112
 20
302.8094925015
 30
0.0
  0
ENDSEC
  0
SECTION
  2
OBJECTS
  0
DICTIONARY
  5
C
100
AcDbDictionary
280
0
281
1
  3
ACAD_GROUP
350
D
  3
ACAD_MLINESTYLE
350
17
  3
ACAD_LAYOUT
350
1A
  3
ACAD_PLOTSETTINGS
350
19
  3
ACAD_PLOTSTYLENAME
350
E
  0
DICTIONARY
  5
D
102
{ACAD_REACTORS
330
C
102
}
100
AcDbDictionary
280
0
281
1
  0
ACDBDICTIONARYWDFLT
  5
E
102
{ACAD_REACTORS
330
C
102
}
100
AcDbDictionary
281
1
  3
Normal
350
F
100
AcDbDictionaryWithDefault
340
F
  0
DICTIONARY
  5
17
102
{ACAD_REACTORS
330
C
102
}
100
AcDbDictionary
280
0
281
1
  3
Standard
350
18
  0
DICTIONARY
  5
19
102
{ACAD_REACTORS
330
C
102
}
100
AcDbDictionary
281
1
  0
DICTIONARY
  5
1A
102
{ACAD_REACTORS
330
C
102
}
100
AcDbDictionary
281
1
  3
Model
350
2E1
  3
Layout1
350
2E2
  0
ACDBPLACEHOLDER
  5
F
102
{ACAD_REACTORS
330
E
102
}
  0
MLINESTYLE
  5
18
102
{ACAD_REACTORS
330
17
102
}
100
AcDbMlineStyle
  2
STANDARD
 70
0
  3

 62
256
 51
90.0
 52
90.0
 71
2
 49
0.5
 62
256
  6
BYLAYER
 49
-0.5
 62
256
  6
BYLAYER
  0
LAYOUT
  5
2E1
102
{ACAD_REACTORS
330
1A
102
}
100
AcDbPlotSettings
  1

  2
none_device
  4

  6

 40
0.0
 41
0.0
 42
0.0
 43
0.0
 44
210.0
 45
297.0
 46
0.0
 47
0.0
 48
0.0
 49
0.0
140
0.0
141
0.0
142
1.0
143
1.0
 70
1024
 72
1
 73
0
 74
0
  7

 75
0
147
1.0
148
0.0
149
0.0
100
AcDbLayout
  1
Model
 70
0
 71
0
 10
0.0
 20
0.0
 11
210.0
 21
297.0
 12
0.0
 22
0.0
 32
0.0
 14
0.0
 24
0.0
 34
0.0
 15
0.0
 25
0.0
 35
0.0
146
0.0
 13
0.0
 23
0.0
 33
0.0
 16
1.0
 26
0.0
 36
0.0
 17
0.0
 27
1.0
 37
0.0
 76
0
330
211
345
0
346
0
  0
LAYOUT
  5
2E2
102
{ACAD_REACTORS
330
1A
102
}
100
AcDbPlotSettings
  1

  2
none_device
  4

  6

 40
0.0
 41
0.0
 42
0.0
 43
0.0
 44
210.0
 45
297.0
 46
0.0
 47
0.0
 48
0.0
 49
0.0
140
0.0
141
0.0
142
1.0
143
1.0
 70
0
 72
1
 73
0
 74
0
  7

 75
0
147
1.0
148
0.0
149
0.0
100
AcDbLayout
  1
Layout1
 70
0
 71
1
 10
0.0
 20
0.0
 11
210.0
 21
297.0
 12
0.0
 22
0.0
 32
0.0
 14
0.0
 24
0.0
 34
0.0
 15
0.0
 25
0.0
 35
0.0
146
0.0
 13
0.0
 23
0.0
 33
0.0
 16
1.0
 26
0.0
 36
0.0
 17
0.0
 27
1.0
 37
0.0
 76
0
330
212
345
0
346
0
  0
ENDSEC
  0
EOF
