999
DXF file: C:\Users\sesa63760\Dev\_Creo\CAD\MCADID0005752_3D-CAD\mcadid0005752_3d-simplified_5.dxf
999
Pro/ENGINEER 2019471 by Parametric Technology Corporation
  0
SECTION
  2
HEADER
  9
$ACADVER
  1
AC1024
  9
$DWGCODEPAGE
  3
ANSI_1252
  9
$EXTMAX
 10
219.4916622335
 20
310.4239223017
 30
0.0
  9
$EXTMIN
 10
0.0
 20
0.0
 30
0.0
  9
$LIMMIN
 10
0.0
 20
0.0
  9
$LIMMAX
 10
219.4916622335
 20
310.4239223017
  9
$VIEWCTR
 10
109.7458311168
 20
155.2119611509
  9
$VIEWSIZE
 40
310.4239223017
  9
$CLAYER
  8
0
  9
$LTSCALE
 40
20.2350408611
  9
$CELTYPE
  6
BYLAYER
  9
$DIMSCALE
 40
1.0
  9
$DIMASZ
 40
2.612995979
  9
$DIMEXO
 40
1.0
  9
$DIMDLI
 40
13.9805736859
  9
$DIMEXE
 40
1.0
  9
$DIMCEN
 40
3.3111885046
  9
$DIMLFAC
 40
1.0
  9
$DIMBLK
  1
_FILLED
  9
$DIMALT
 70
0
  9
$DIMALTF
 40
0.0393700787
  9
$DIMTXT
 40
3.6581943706
  9
$DIMTOL
 70
1
  9
$DIMLIM
 70
0
  9
$DIMTFAC
 40
1.0
  9
$DIMTP
 40
0.01
  9
$DIMTM
 40
0.01
  9
$DIMGAP
 40
0.625
  9
$DIMDSEP
 70
46
  9
$AUNITS
 70
0
  9
$PDMODE
 70
3
  9
$PDSIZE
 40
0.3125
  9
$HANDSEED
  5
380
  9
$TILEMODE
 70
1
  9
$MEASUREMENT
 70
1
  9
$INSUNITS
 70
4
  0
ENDSEC
  0
SECTION
  2
CLASSES
  0
CLASS
  1
ACDBDICTIONARYWDFLT
  2
AcDbDictionaryWithDefault
  3
AutoCAD 2000
 90
0
 91
1
280
0
281
0
  0
CLASS
  1
ACDBPLACEHOLDER
  2
AcDbPlaceHolder
  3
AutoCAD 2000
 90
0
 91
1
280
0
281
0
  0
CLASS
  1
LAYOUT
  2
AcDbLayout
  3
AutoCAD 2000
 90
0
 91
0
280
0
281
0
  0
ENDSEC
  0
SECTION
  2
TABLES
  0
TABLE
  2
VPORT
  5
8
100
AcDbSymbolTable
 70
2
  0
VPORT
  5
1F4
100
AcDbSymbolTableRecord
100
AcDbViewportTableRecord
  2
*ACTIVE
 70
0
 10
0.0
 20
0.0
 11
1.0
 21
1.0
 12
109.7458311168
 22
155.2119611509
 13
0.0
 23
0.0
 14
1.0
 24
1.0
 15
0.0
 25
0.0
 16
0.0
 26
0.0
 36
1.0
 17
0.0
 27
0.0
 37
0.0
 40
310.4239223017
 41
0.7070707071
 42
50.0
 43
0.0
 44
0.0
 50
0.0
 51
0.0
 71
0
 72
100
 73
1
 74
1
 75
0
 76
0
 77
0
 78
0
  0
ENDTAB
  0
TABLE
  2
LTYPE
  5
5
100
AcDbSymbolTable
 70
6
  0
LTYPE
  5
14
100
AcDbSymbolTableRecord
100
AcDbLinetypeTableRecord
  2
BYBLOCK
 70
0
  3

 72
65
 73
0
 40
0.0
  0
LTYPE
  5
15
100
AcDbSymbolTableRecord
100
AcDbLinetypeTableRecord
  2
BYLAYER
 70
0
  3

 72
65
 73
0
 40
0.0
  0
LTYPE
  5
16
100
AcDbSymbolTableRecord
100
AcDbLinetypeTableRecord
  2
CONTINUOUS
 70
64
  3
Solid line
 72
65
 73
0
 40
0.0
  0
LTYPE
  5
1F5
100
AcDbSymbolTableRecord
100
AcDbLinetypeTableRecord
  2
CENTER
 70
64
  3
____ _ ____ _ ____ _ ____ _ ____ _ ____ _ ____
 72
65
 73
4
 40
0.6
 49
0.375
 74
0
 49
-0.075
 74
0
 49
0.075
 74
0
 49
-0.075
 74
0
  0
LTYPE
  5
1F6
100
AcDbSymbolTableRecord
100
AcDbLinetypeTableRecord
  2
HIDDEN
 70
64
  3
- - - - - - - - - - - - - - - - - - - -
 72
65
 73
2
 40
0.2
 49
0.1
 74
0
 49
-0.1
 74
0
  0
LTYPE
  5
1F7
100
AcDbSymbolTableRecord
100
AcDbLinetypeTableRecord
  2
PHANTOM
 70
64
  3
_____ _ _ _____ _ _ _____ _ _ _____
 72
65
 73
6
 40
0.8
 49
0.45
 74
0
 49
-0.05
 74
0
 49
0.1
 74
0
 49
-0.05
 74
0
 49
0.1
 74
0
 49
-0.05
 74
0
  0
LTYPE
  5
1F8
100
AcDbSymbolTableRecord
100
AcDbLinetypeTableRecord
  2
DOT
 70
64
  3
. . . . . . . . . . . . . . . . . . . .
 72
65
 73
2
 40
0.2
 49
0.1
 74
0
 49
-0.1
 74
0
  0
LTYPE
  5
1F9
100
AcDbSymbolTableRecord
100
AcDbLinetypeTableRecord
  2
DASHED
 70
64
  3
- - - - - - - - - - - - - - - - - - - -
 72
65
 73
2
 40
0.2
 49
0.1
 74
0
 49
-0.1
 74
0
  0
ENDTAB
  0
TABLE
  2
LAYER
  5
2
100
AcDbSymbolTable
 70
36
  0
LAYER
  5
10
100
AcDbSymbolTableRecord
100
AcDbLayerTableRecord
  2
0
 70
0
 62
7
  6
CONTINUOUS
370
-3
390
F
  0
LAYER
  5
1FA
100
AcDbSymbolTableRecord
100
AcDbLayerTableRecord
  2
DEFAULT_1
 70
0
 62
7
  6
CENTER
370
-3
390
F
  0
LAYER
  5
1FB
100
AcDbSymbolTableRecord
100
AcDbLayerTableRecord
  2
DEFAULT_2
 70
0
 62
7
  6
HIDDEN
370
-3
390
F
  0
LAYER
  5
1FC
100
AcDbSymbolTableRecord
100
AcDbLayerTableRecord
  2
DEFAULT_3
 70
0
 62
7
  6
PHANTOM
370
-3
390
F
  0
LAYER
  5
1FD
100
AcDbSymbolTableRecord
100
AcDbLayerTableRecord
  2
00_COMPONENTS
 70
0
 62
7
  6
CONTINUOUS
370
-3
390
F
  0
LAYER
  5
1FE
100
AcDbSymbolTableRecord
100
AcDbLayerTableRecord
  2
01_1_DEFAULT_DATUMS
 70
0
 62
7
  6
CONTINUOUS
370
-3
390
F
  0
LAYER
  5
1FF
100
AcDbSymbolTableRecord
100
AcDbLayerTableRecord
  2
01_PLANES
 70
0
 62
7
  6
CONTINUOUS
370
-3
390
F
  0
LAYER
  5
200
100
AcDbSymbolTableRecord
100
AcDbLayerTableRecord
  2
02_COORD_SYS
 70
0
 62
7
  6
CONTINUOUS
370
-3
390
F
  0
LAYER
  5
201
100
AcDbSymbolTableRecord
100
AcDbLayerTableRecord
  2
03_AXES
 70
0
 62
7
  6
CONTINUOUS
370
-3
390
F
  0
LAYER
  5
202
100
AcDbSymbolTableRecord
100
AcDbLayerTableRecord
  2
04_POINTS
 70
0
 62
7
  6
CONTINUOUS
370
-3
390
F
  0
LAYER
  5
203
100
AcDbSymbolTableRecord
100
AcDbLayerTableRecord
  2
05_CURVES
 70
0
 62
7
  6
CONTINUOUS
370
-3
390
F
  0
LAYER
  5
204
100
AcDbSymbolTableRecord
100
AcDbLayerTableRecord
  2
06_SURFS
 70
0
 62
7
  6
CONTINUOUS
370
-3
390
F
  0
LAYER
  5
205
100
AcDbSymbolTableRecord
100
AcDbLayerTableRecord
  2
07_COSMETICS
 70
0
 62
7
  6
CONTINUOUS
370
-3
390
F
  0
LAYER
  5
206
100
AcDbSymbolTableRecord
100
AcDbLayerTableRecord
  2
10_NOTES
 70
0
 62
7
  6
CONTINUOUS
370
-3
390
F
  0
LAYER
  5
207
100
AcDbSymbolTableRecord
100
AcDbLayerTableRecord
  2
11_NOTES_PUB
 70
0
 62
7
  6
CONTINUOUS
370
-3
390
F
  0
LAYER
  5
208
100
AcDbSymbolTableRecord
100
AcDbLayerTableRecord
  2
13452
 70
0
 62
7
  6
CONTINUOUS
370
-3
390
F
  0
LAYER
  5
209
100
AcDbSymbolTableRecord
100
AcDbLayerTableRecord
  2
13_REF_GTOL
 70
0
 62
7
  6
CONTINUOUS
370
-3
390
F
  0
LAYER
  5
20A
100
AcDbSymbolTableRecord
100
AcDbLayerTableRecord
  2
16_MISC
 70
0
 62
7
  6
CONTINUOUS
370
-3
390
F
  0
LAYER
  5
20B
100
AcDbSymbolTableRecord
100
AcDbLayerTableRecord
  2
17_NO_PRINT
 70
0
 62
7
  6
CONTINUOUS
370
-3
390
F
  0
LAYER
  5
20C
100
AcDbSymbolTableRecord
100
AcDbLayerTableRecord
  2
18_DATUM_CAMS_JOINTS
 70
0
 62
7
  6
CONTINUOUS
370
-3
390
F
  0
LAYER
  5
20D
100
AcDbSymbolTableRecord
100
AcDbLayerTableRecord
  2
19_DATUM_FUNCTIONAL
 70
0
 62
7
  6
CONTINUOUS
370
-3
390
F
  0
LAYER
  5
20E
100
AcDbSymbolTableRecord
100
AcDbLayerTableRecord
  2
20_DATUM_KINEMATIC_SCHEME
 70
0
 62
7
  6
CONTINUOUS
370
-3
390
F
  0
LAYER
  5
20F
100
AcDbSymbolTableRecord
100
AcDbLayerTableRecord
  2
INTF_YELLOW
 70
0
 62
7
  6
CONTINUOUS
370
-3
390
F
  0
ENDTAB
  0
TABLE
  2
STYLE
  5
3
100
AcDbSymbolTable
 70
1
  0
STYLE
  5
11
100
AcDbSymbolTableRecord
100
AcDbTextStyleTableRecord
  2
STANDARD
 70
0
 40
0.0
 41
1.0
 50
0.0
 71
0
 42
0.2
  3
ARIAL.TTF
  4

  0
STYLE
  5
210
100
AcDbSymbolTableRecord
100
AcDbTextStyleTableRecord
  2
TEXTSTYLE_1
 70
0
 40
0.0
 41
0.8
 50
0.0
 71
0
 42
0.2
  3
gdt
  4

  0
ENDTAB
  0
TABLE
  2
VIEW
  5
6
100
AcDbSymbolTable
 70
0
  0
ENDTAB
  0
TABLE
  2
UCS
  5
7
100
AcDbSymbolTable
 70
0
  0
ENDTAB
  0
TABLE
  2
APPID
  5
9
100
AcDbSymbolTable
 70
1
  0
APPID
  5
211
100
AcDbSymbolTableRecord
100
AcDbRegAppTableRecord
  2
ACAD
 70
0
  0
ENDTAB
  0
TABLE
  2
BLOCK_RECORD
  5
1
100
AcDbSymbolTable
 70
0
  0
BLOCK_RECORD
  5
212
100
AcDbSymbolTableRecord
100
AcDbBlockTableRecord
  2
*Model_Space
  0
BLOCK_RECORD
  5
213
100
AcDbSymbolTableRecord
100
AcDbBlockTableRecord
  2
*Paper_Space
  0
BLOCK_RECORD
  5
214
100
AcDbSymbolTableRecord
100
AcDbBlockTableRecord
  2
_FILLED
  0
ENDTAB
  0
TABLE
  2
DIMSTYLE
  5
A
100
AcDbSymbolTable
 70
1
100
AcDbDimStyleTable
 71
0
  0
DIMSTYLE
105
215
100
AcDbSymbolTableRecord
100
AcDbDimStyleTableRecord
  2
STANDARD
 70
0
  3

  4

 40
1.0
 41
2.612995979
 42
1.0
 43
0.38
 44
1.0
 45
0.0
 46
0.0
 47
0.01
 48
0.01
140
3.6581943706
141
0.09
142
0.0
143
25.4
144
1.0
145
0.0
146
1.0
147
0.625
 71
1
 72
0
 73
0
 74
0
 75
0
 76
0
 77
1
 78
8
 79
2
170
0
171
1
172
0
173
0
174
0
175
0
176
0
177
0
178
0
270
2
179
2
271
2
272
2
273
2
274
2
275
0
280
0
281
0
282
0
283
1
284
8
285
0
286
0
287
3
288
0
340
11
278
46
341
214
342
214
343
214
344
214
  0
ENDTAB
  0
ENDSEC
  0
SECTION
  2
BLOCKS
  0
BLOCK
  5
20
100
AcDbEntity
  8
0
100
AcDbBlockBegin
  2
*Model_Space
 70
0
 10
0.0
 20
0.0
 30
0.0
  3
*Model_Space
  1

  0
ENDBLK
  5
21
100
AcDbEntity
  8
0
100
AcDbBlockEnd
  0
BLOCK
  5
1C
100
AcDbEntity
  8
0
100
AcDbBlockBegin
  2
*Paper_Space
 70
0
 10
0.0
 20
0.0
 30
0.0
  3
*Paper_Space
  1

  0
ENDBLK
  5
1D
100
AcDbEntity
  8
0
100
AcDbBlockEnd
  0
BLOCK
  5
216
100
AcDbEntity
  8
0
100
AcDbBlockBegin
  2
_FILLED
 70
64
 10
0.0
 20
0.0
  3
_FILLED
  1

  0
SOLID
  5
217
100
AcDbEntity
  8
0
  6
BYBLOCK
 62
0
100
AcDbTrace
 10
0.0
 20
0.0
 11
-1.0
 21
0.25
 12
-1.0
 22
-0.25
 13
-1.0
 23
-0.25
  0
ENDBLK
  5
218
100
AcDbEntity
  8
0
  6
BYBLOCK
 62
0
100
AcDbBlockEnd
  0
ENDSEC
  0
SECTION
  2
ENTITIES
  0
LINE
  5
219
100
AcDbEntity
  8
0
100
AcDbLine
 62
7
  6
BYLAYER
 10
122.0297530015
 20
26.954532324
 11
115.6687051562
 21
25.3153744949
  0
LINE
  5
21A
100
AcDbEntity
  8
0
100
AcDbLine
 62
7
  6
BYLAYER
 10
113.0087051562
 20
25.2670634432
 11
114.4087051562
 21
25.2670634432
  0
LINE
  5
21B
100
AcDbEntity
  8
0
100
AcDbLine
 62
7
  6
BYLAYER
 10
114.4087051562
 20
25.3153744949
 11
115.6687051562
 21
25.3153744949
  0
LINE
  5
21C
100
AcDbEntity
  8
0
100
AcDbLine
 62
7
  6
BYLAYER
 10
115.6687051562
 20
30.3153744949
 11
114.4087051562
 21
30.3153744949
  0
LINE
  5
21D
100
AcDbEntity
  8
0
100
AcDbLine
 62
7
  6
BYLAYER
 10
113.0087051623
 20
30.2688346631
 11
114.4087051562
 21
30.2670634432
  0
LINE
  5
21E
100
AcDbEntity
  8
0
100
AcDbLine
 62
7
  6
BYLAYER
 10
82.9086630038
 20
31.2128976757
 11
90.0800645945
 21
31.0365031943
  0
LINE
  5
21F
100
AcDbEntity
  8
0
100
AcDbLine
 62
7
  6
BYLAYER
 10
113.0087051562
 20
25.2670634431
 11
87.7211262903
 21
26.2164148258
  0
LINE
  5
220
100
AcDbEntity
  8
0
100
AcDbLine
 62
7
  6
BYLAYER
 10
90.0800907662
 20
31.0365031943
 11
113.0087676246
 21
30.2707078746
  0
LINE
  5
221
100
AcDbEntity
  8
0
100
AcDbLine
 62
7
  6
BYLAYER
 10
115.6781206051
 20
30.1596295788
 11
122.0297530015
 21
31.7963611714
  0
LINE
  5
222
100
AcDbEntity
  8
0
100
AcDbLine
 62
7
  6
BYLAYER
 10
83.4833864011
 20
45.3553744949
 11
83.5039178306
 21
45.3553744949
  0
LINE
  5
223
100
AcDbEntity
  8
0
100
AcDbLine
 62
7
  6
BYLAYER
 10
131.4122259338
 20
257.7344126005
 11
115.9087051562
 21
248.7834507062
  0
LINE
  5
224
100
AcDbEntity
  8
0
100
AcDbLine
 62
7
  6
BYLAYER
 10
117.4087051562
 20
246.1853744949
 11
132.9122259338
 21
255.1363363892
  0
LINE
  5
225
100
AcDbEntity
  8
0
100
AcDbLine
 62
7
  6
BYLAYER
 10
80.923423782
 20
212.8775498568
 11
94.045773911
 21
225.9998999859
  0
LINE
  5
226
100
AcDbEntity
  8
0
100
AcDbLine
 62
7
  6
BYLAYER
 10
83.4833864011
 20
93.3553744949
 11
83.5039178306
 21
93.3553744949
  0
LINE
  5
227
100
AcDbEntity
  8
0
100
AcDbLine
 62
7
  6
BYLAYER
 10
102.5315414832
 20
229.5153744949
 11
101.5903129356
 21
228.4698990615
  0
LINE
  5
228
100
AcDbEntity
  8
0
100
AcDbLine
 62
7
  6
BYLAYER
 10
89.4959826273
 20
207.5853744949
 11
89.2676004347
 21
207.3569923023
  0
LINE
  5
229
100
AcDbEntity
  8
0
100
AcDbLine
 62
7
  6
BYLAYER
 10
113.0087051562
 20
100.1670634432
 11
113.470297276
 21
100.1700431827
  0
LINE
  5
22A
100
AcDbEntity
  8
0
100
AcDbLine
 62
7
  6
BYLAYER
 10
91.0886770298
 20
100.1670327805
 11
115.6687051562
 21
100.1653744949
  0
LINE
  5
22B
100
AcDbEntity
  8
0
100
AcDbLine
 62
7
  6
BYLAYER
 10
113.936983056
 20
100.1700431827
 11
114.4087051562
 21
100.166218969
  0
LINE
  5
22C
100
AcDbEntity
  8
0
100
AcDbLine
 62
7
  6
BYLAYER
 10
84.4136293832
 20
121.1829347412
 11
80.7300325307
 21
123.3096603755
  0
LWPOLYLINE
  5
22D
100
AcDbEntity
  8
0
100
AcDbPolyline
 62
7
  6
BYLAYER
 90
7
 70
0
 10
83.1124352453
 20
48.7846149399
 10
83.1586163439
 20
48.5499515321
 10
83.2561201736
 20
48.007017077
 10
83.3511698516
 20
47.3653757343
 10
83.4297963316
 20
46.6291308582
 10
83.4764875059
 20
45.8091257589
 10
83.4833864011
 20
45.3553744949
  0
LWPOLYLINE
  5
22E
100
AcDbEntity
  8
0
100
AcDbPolyline
 62
7
  6
BYLAYER
 90
3
 70
0
 10
82.9265264224
 20
49.717799468
 10
82.9673079985
 20
49.490917074
 10
83.1124352453
 20
48.7846149399
  0
LINE
  5
22F
100
AcDbEntity
  8
0
100
AcDbLine
 62
7
  6
BYLAYER
 10
82.8454915603
 20
100.9741235255
 11
82.8590961469
 21
100.8388799164
  0
LINE
  5
230
100
AcDbEntity
  8
0
100
AcDbLine
 62
7
  6
BYLAYER
 10
82.9087055286
 20
49.9126335633
 11
82.9265264224
 21
49.717799468
  0
LINE
  5
231
100
AcDbEntity
  8
0
100
AcDbLine
 62
7
  6
BYLAYER
 10
82.9087055286
 20
97.9126335633
 11
82.9265264224
 21
97.717799468
  0
LINE
  5
232
100
AcDbEntity
  8
0
100
AcDbLine
 62
7
  6
BYLAYER
 10
77.4087051562
 20
204.3922684827
 11
77.4087051562
 21
203.3553744949
  0
LINE
  5
233
100
AcDbEntity
  8
0
100
AcDbLine
 62
7
  6
BYLAYER
 10
77.4087051562
 20
177.3553744949
 11
77.4087051562
 21
174.7939062097
  0
LINE
  5
234
100
AcDbEntity
  8
0
100
AcDbLine
 62
7
  6
BYLAYER
 10
77.8087051562
 20
203.3553744949
 11
77.8087051562
 21
177.3553744949
  0
LINE
  5
235
100
AcDbEntity
  8
0
100
AcDbLine
 62
7
  6
BYLAYER
 10
77.7454272346
 20
174.4958857051
 11
77.6616536245
 21
172.7983450673
  0
LINE
  5
236
100
AcDbEntity
  8
0
100
AcDbLine
 62
7
  6
BYLAYER
 10
77.6650986114
 20
172.862428653
 11
77.6616536245
 21
172.7983450673
  0
LINE
  5
237
100
AcDbEntity
  8
0
100
AcDbLine
 62
7
  6
BYLAYER
 10
133.3330873553
 20
119.4303744949
 11
134.4087051562
 21
119.4303744949
  0
LINE
  5
238
100
AcDbEntity
  8
0
100
AcDbLine
 62
7
  6
BYLAYER
 10
115.6687051562
 20
119.6445300207
 11
113.0836827366
 21
119.6462149702
  0
LINE
  5
239
100
AcDbEntity
  8
0
100
AcDbLine
 62
7
  6
BYLAYER
 10
91.8790799747
 20
121.1033412943
 11
89.6739891604
 21
121.3177178809
  0
LINE
  5
23A
100
AcDbEntity
  8
0
100
AcDbLine
 62
7
  6
BYLAYER
 10
80.278944645
 20
113.162721664
 11
82.7163388724
 21
101.7738987594
  0
LWPOLYLINE
  5
23B
100
AcDbEntity
  8
0
100
AcDbPolyline
 62
7
  6
BYLAYER
 90
7
 70
0
 10
83.1124352453
 20
96.7846149399
 10
83.1586163439
 20
96.5499515321
 10
83.2561201736
 20
96.007017077
 10
83.3511698516
 20
95.3653757343
 10
83.4297963316
 20
94.6291308582
 10
83.4764875059
 20
93.8091257589
 10
83.4833864011
 20
93.3553744949
  0
LINE
  5
23C
100
AcDbEntity
  8
0
100
AcDbLine
 62
7
  6
BYLAYER
 10
82.7163390534
 20
101.7738979645
 11
82.7967248787
 21
101.3401317473
  0
LWPOLYLINE
  5
23D
100
AcDbEntity
  8
0
100
AcDbPolyline
 62
7
  6
BYLAYER
 90
3
 70
0
 10
82.9265264224
 20
97.717799468
 10
82.9673079985
 20
97.490917074
 10
83.1124352453
 20
96.7846149399
  0
LINE
  5
23E
100
AcDbEntity
  8
0
100
AcDbLine
 62
7
  6
BYLAYER
 10
80.7300325307
 20
123.3096603755
 11
77.5222082932
 21
144.3219376585
  0
LINE
  5
23F
100
AcDbEntity
  8
0
100
AcDbLine
 62
7
  6
BYLAYER
 10
82.7967248787
 20
101.3401317473
 11
82.8454915603
 21
100.9741235255
  0
LINE
  5
240
100
AcDbEntity
  8
0
100
AcDbLine
 62
7
  6
BYLAYER
 10
82.8594507062
 20
100.8360576762
 11
82.8596450475
 21
100.8337189576
  0
LINE
  5
241
100
AcDbEntity
  8
0
100
AcDbLine
 62
7
  6
BYLAYER
 10
82.8594507062
 20
100.8360576762
 11
82.8653282334
 21
100.7609620135
  0
LINE
  5
242
100
AcDbEntity
  8
0
100
AcDbLine
 62
7
  6
BYLAYER
 10
82.8653278955
 20
100.7609635831
 11
82.8901573763
 21
100.4224898616
  0
LWPOLYLINE
  5
243
100
AcDbEntity
  8
0
100
AcDbPolyline
 62
7
  6
BYLAYER
 90
4
 70
0
 10
77.4087051562
 20
174.7943430548
 10
77.4605544423
 20
173.8850741739
 10
77.615430393
 20
172.9875907547
 10
77.6617409847
 20
172.7983675786
  0
LINE
  5
244
100
AcDbEntity
  8
0
100
AcDbLine
 62
7
  6
BYLAYER
 10
79.5465130881
 20
202.5553744949
 11
79.5465130881
 21
178.1553744949
  0
LINE
  5
245
100
AcDbEntity
  8
0
100
AcDbLine
 62
7
  6
BYLAYER
 10
82.9087051562
 20
88.7987200204
 11
82.9087051562
 21
49.9120289694
  0
LINE
  5
246
100
AcDbEntity
  8
0
100
AcDbLine
 62
7
  6
BYLAYER
 10
82.9087051562
 20
40.7987200204
 11
82.9087051562
 21
31.2128950038
  0
LINE
  5
247
100
AcDbEntity
  8
0
100
AcDbLine
 62
7
  6
BYLAYER
 10
82.9087051562
 20
97.9120289694
 11
82.9087051562
 21
99.9132275672
  0
LWPOLYLINE
  5
248
100
AcDbEntity
  8
0
100
AcDbPolyline
 62
7
  6
BYLAYER
 90
9
 70
0
 10
83.4833864013
 20
93.3553744949
 10
83.4711285357
 20
92.7491434046
 10
83.4005593483
 20
91.7693752603
 10
83.2910190985
 20
90.921682113
 10
83.170672072
 20
90.2239643993
 10
83.0617394987
 20
89.6781623635
 10
82.9786203309
 20
89.276479376
 10
82.9278372698
 20
89.0014773369
 10
82.9087052243
 20
88.798978603
  0
LWPOLYLINE
  5
249
100
AcDbEntity
  8
0
100
AcDbPolyline
 62
7
  6
BYLAYER
 90
9
 70
0
 10
83.4833864013
 20
45.3553744949
 10
83.4711285357
 20
44.7491434054
 10
83.4005593485
 20
43.7693752616
 10
83.2910190988
 20
42.9216821148
 10
83.1706720723
 20
42.2239644011
 10
83.061739499
 20
41.6781623653
 10
82.9786203312
 20
41.2764793775
 10
82.9278372699
 20
41.0014773381
 10
82.9087052243
 20
40.7989786028
  0
LINE
  5
24A
100
AcDbEntity
  8
0
100
AcDbLine
 62
7
  6
BYLAYER
 10
80.7300325307
 20
123.3096603755
 11
80.3753235673
 21
116.910994486
  0
LINE
  5
24B
100
AcDbEntity
  8
0
100
AcDbLine
 62
7
  6
BYLAYER
 10
82.9319641815
 20
101.7704907763
 11
82.9312100492
 21
101.7593513413
  0
LINE
  5
24C
100
AcDbEntity
  8
0
100
AcDbLine
 62
7
  6
BYLAYER
 10
137.3087051562
 20
123.3163199628
 11
137.2225414403
 21
123.3163199628
  0
LINE
  5
24D
100
AcDbEntity
  8
0
100
AcDbLine
 62
7
  6
BYLAYER
 10
81.2496041208
 20
158.8746554946
 11
77.6616536245
 21
172.7983450673
  0
LINE
  5
24E
100
AcDbEntity
  8
0
100
AcDbLine
 62
7
  6
BYLAYER
 10
89.2676004346
 20
141.1764133278
 11
89.2686180023
 21
139.2771596886
  0
LINE
  5
24F
100
AcDbEntity
  8
0
100
AcDbLine
 62
7
  6
BYLAYER
 10
89.2676004346
 20
163.2285271958
 11
89.2676004347
 21
207.3569923023
  0
LINE
  5
250
100
AcDbEntity
  8
0
100
AcDbLine
 62
7
  6
BYLAYER
 10
90.0800907662
 20
31.0365031943
 11
90.0800907662
 21
99.9772658354
  0
LINE
  5
251
100
AcDbEntity
  8
0
100
AcDbLine
 62
7
  6
BYLAYER
 10
90.5174403042
 20
100.0561246212
 11
90.5174403042
 21
31.0200841298
  0
LINE
  5
252
100
AcDbEntity
  8
0
100
AcDbLine
 62
7
  6
BYLAYER
 10
93.2429316147
 20
207.5853744949
 11
93.2429316147
 21
150.7684245214
  0
LINE
  5
253
100
AcDbEntity
  8
0
100
AcDbLine
 62
7
  6
BYLAYER
 10
95.9087051562
 20
207.5867688506
 11
95.9087051562
 21
216.443615293
  0
LINE
  5
254
100
AcDbEntity
  8
0
100
AcDbLine
 62
7
  6
BYLAYER
 10
93.2429316147
 20
147.1882384081
 11
93.2396364088
 21
139.2650885421
  0
LINE
  5
255
100
AcDbEntity
  8
0
100
AcDbLine
 62
7
  6
BYLAYER
 10
104.0837051562
 20
251.9167705411
 11
102.6469943585
 21
240.3743820981
  0
LINE
  5
256
100
AcDbEntity
  8
0
100
AcDbLine
 62
7
  6
BYLAYER
 10
82.9319641815
 20
101.7704907763
 11
82.9299697403
 21
101.7574995898
  0
LWPOLYLINE
  5
257
100
AcDbEntity
  8
0
100
AcDbPolyline
 62
7
  6
BYLAYER
 90
4
 70
0
 10
80.3753468843
 20
116.9109886212
 10
80.1612488014
 20
115.8102807839
 10
80.1223809378
 20
114.2636494139
 10
80.2789660502
 20
113.1626835655
  0
LWPOLYLINE
  5
258
100
AcDbEntity
  8
0
100
AcDbPolyline
 62
7
  6
BYLAYER
 90
3
 70
0
 10
78.497880573
 20
147.5954521982
 10
77.7330694167
 20
146.3352605799
 10
77.5222530097
 20
144.3219444851
  0
LINE
  5
259
100
AcDbEntity
  8
0
100
AcDbLine
 62
7
  6
BYLAYER
 10
79.9908176228
 20
149.6553744949
 11
78.4977801248
 21
147.595542236
  0
LINE
  5
25A
100
AcDbEntity
  8
0
100
AcDbLine
 62
7
  6
BYLAYER
 10
102.6087051562
 20
229.5153744949
 11
102.6087051562
 21
239.756785175
  0
LINE
  5
25B
100
AcDbEntity
  8
0
100
AcDbLine
 62
7
  6
BYLAYER
 10
102.6469943573
 20
240.3743820888
 11
102.6087051562
 21
239.756785175
  0
LINE
  5
25C
100
AcDbEntity
  8
0
100
AcDbLine
 62
7
  6
BYLAYER
 10
115.9058437601
 20
228.4251268519
 11
115.9087051486
 21
228.4403000634
  0
LINE
  5
25D
100
AcDbEntity
  8
0
100
AcDbLine
 62
7
  6
BYLAYER
 10
93.2357983373
 20
138.9810659059
 11
91.918318793
 21
138.97287152
  0
LINE
  5
25E
100
AcDbEntity
  8
0
100
AcDbLine
 62
7
  6
BYLAYER
 10
90.5966941878
 20
138.976901596
 11
89.2713245004
 21
138.9687151811
  0
LINE
  5
25F
100
AcDbEntity
  8
0
100
AcDbLine
 62
7
  6
BYLAYER
 10
113.570405384
 20
139.1212125459
 11
114.4087051562
 21
139.1245300207
  0
LINE
  5
260
100
AcDbEntity
  8
0
100
AcDbLine
 62
7
  6
BYLAYER
 10
93.2359357713
 20
138.9735292585
 11
89.271182268
 21
138.976285061
  0
LINE
  5
261
100
AcDbEntity
  8
0
100
AcDbLine
 62
7
  6
BYLAYER
 10
139.2273408289
 20
139.1227020904
 11
113.1587051095
 21
139.122239967
  0
LINE
  5
262
100
AcDbEntity
  8
0
100
AcDbLine
 62
7
  6
BYLAYER
 10
93.2396364088
 20
139.2650885421
 11
89.2686180023
 21
139.2771596886
  0
LINE
  5
263
100
AcDbEntity
  8
0
100
AcDbLine
 62
7
  6
BYLAYER
 10
113.1587051095
 20
139.1253500379
 11
113.570405384
 21
139.1212125459
  0
LINE
  5
264
100
AcDbEntity
  8
0
100
AcDbLine
 62
7
  6
BYLAYER
 10
86.611313591
 20
155.7790710887
 11
81.2496041208
 21
158.8746554946
  0
LINE
  5
265
100
AcDbEntity
  8
0
100
AcDbLine
 62
7
  6
BYLAYER
 10
105.7587051562
 20
251.9167705411
 11
105.7587051562
 21
257.4167705411
  0
LINE
  5
266
100
AcDbEntity
  8
0
100
AcDbLine
 62
7
  6
BYLAYER
 10
106.7587051562
 20
260.4167705411
 11
106.7587051562
 21
265.9167705411
  0
LINE
  5
267
100
AcDbEntity
  8
0
100
AcDbLine
 62
7
  6
BYLAYER
 10
107.6587051562
 20
268.9167705411
 11
107.6587051562
 21
274.4167705411
  0
LINE
  5
268
100
AcDbEntity
  8
0
100
AcDbLine
 62
7
  6
BYLAYER
 10
108.7587051562
 20
277.4167705411
 11
108.7587051562
 21
282.9167705411
  0
LINE
  5
269
100
AcDbEntity
  8
0
100
AcDbLine
 62
7
  6
BYLAYER
 10
112.9087051562
 20
243.5853744949
 11
112.9087051562
 21
228.4354784197
  0
LINE
  5
26A
100
AcDbEntity
  8
0
100
AcDbLine
 62
7
  6
BYLAYER
 10
113.0087051623
 20
30.2688346631
 11
113.0087051562
 21
100.1670634432
  0
LINE
  5
26B
100
AcDbEntity
  8
0
100
AcDbLine
 62
7
  6
BYLAYER
 10
113.1587051095
 20
139.1253500379
 11
113.1587051562
 21
228.1716138614
  0
LINE
  5
26C
100
AcDbEntity
  8
0
100
AcDbLine
 62
7
  6
BYLAYER
 10
113.1586832122
 20
139.125350204
 11
113.0086814796
 21
100.1670632395
  0
LINE
  5
26D
100
AcDbEntity
  8
0
100
AcDbLine
 62
7
  6
BYLAYER
 10
142.201804322
 20
153.3553744949
 11
142.3087051562
 21
153.3553744949
  0
LINE
  5
26E
100
AcDbEntity
  8
0
100
AcDbLine
 62
7
  6
BYLAYER
 10
142.8087051562
 20
155.8553744949
 11
143.1287051562
 21
155.8553744949
  0
LINE
  5
26F
100
AcDbEntity
  8
0
100
AcDbLine
 62
7
  6
BYLAYER
 10
142.8087051562
 20
156.3553744916
 11
142.6555116643
 21
156.3553744916
  0
LINE
  5
270
100
AcDbEntity
  8
0
100
AcDbLine
 62
7
  6
BYLAYER
 10
114.4087051562
 20
25.2670634432
 11
114.4087051562
 21
30.3153744949
  0
LINE
  5
271
100
AcDbEntity
  8
0
100
AcDbLine
 62
7
  6
BYLAYER
 10
114.4087051562
 20
100.1653744949
 11
114.4087051562
 21
139.1236855466
  0
LINE
  5
272
100
AcDbEntity
  8
0
100
AcDbLine
 62
7
  6
BYLAYER
 10
114.4087051562
 20
218.7778886368
 11
114.4087051562
 21
228.1653086246
  0
LINE
  5
273
100
AcDbEntity
  8
0
100
AcDbLine
 62
7
  6
BYLAYER
 10
115.6687051562
 20
30.3153744949
 11
115.6687051562
 21
228.3149422233
  0
LINE
  5
274
100
AcDbEntity
  8
0
100
AcDbLine
 62
7
  6
BYLAYER
 10
115.9087051562
 20
228.440550874
 11
115.9087051562
 21
243.5853744949
  0
LINE
  5
275
100
AcDbEntity
  8
0
100
AcDbLine
 62
7
  6
BYLAYER
 10
120.0587051562
 20
277.4167705411
 11
120.0587051562
 21
282.9167705411
  0
LINE
  5
276
100
AcDbEntity
  8
0
100
AcDbLine
 62
7
  6
BYLAYER
 10
121.1587051562
 20
268.9167705411
 11
121.1587051562
 21
274.4167705411
  0
LINE
  5
277
100
AcDbEntity
  8
0
100
AcDbLine
 62
7
  6
BYLAYER
 10
122.0297530015
 20
99.3471632979
 11
122.0297530015
 21
31.7963611714
  0
LINE
  5
278
100
AcDbEntity
  8
0
100
AcDbLine
 62
7
  6
BYLAYER
 10
122.0587051562
 20
260.4167705411
 11
122.0587051562
 21
265.9167705411
  0
LINE
  5
279
100
AcDbEntity
  8
0
100
AcDbLine
 62
7
  6
BYLAYER
 10
112.9092242683
 20
228.4354782692
 11
112.9111011783
 21
228.4211875291
  0
LINE
  5
27A
100
AcDbEntity
  8
0
100
AcDbLine
 62
7
  6
BYLAYER
 10
126.1704159551
 20
240.3743820888
 11
126.2087051562
 21
239.756785175
  0
LINE
  5
27B
100
AcDbEntity
  8
0
100
AcDbLine
 62
7
  6
BYLAYER
 10
123.0587051562
 20
252.9115051309
 11
123.0587051562
 21
257.4167705411
  0
LINE
  5
27C
100
AcDbEntity
  8
0
100
AcDbLine
 62
7
  6
BYLAYER
 10
126.2087051562
 20
228.5819816174
 11
126.2087051562
 21
239.756785175
  0
LINE
  5
27D
100
AcDbEntity
  8
0
100
AcDbLine
 62
7
  6
BYLAYER
 10
128.4087051562
 20
35.1856413646
 11
128.4087051562
 21
102.9838075517
  0
LINE
  5
27E
100
AcDbEntity
  8
0
100
AcDbLine
 62
7
  6
BYLAYER
 10
128.4087052545
 20
102.95741313
 11
128.4096365478
 21
103.124138287
  0
LINE
  5
27F
100
AcDbEntity
  8
0
100
AcDbLine
 62
7
  6
BYLAYER
 10
128.409741713
 20
103.1048521317
 11
128.4303138
 21
103.6911394684
  0
LINE
  5
280
100
AcDbEntity
  8
0
100
AcDbLine
 62
7
  6
BYLAYER
 10
128.4291966403
 20
103.6954117498
 11
128.4497344902
 21
103.9852948145
  0
LINE
  5
281
100
AcDbEntity
  8
0
100
AcDbLine
 62
7
  6
BYLAYER
 10
134.4087051562
 20
120.3588003778
 11
134.4087051562
 21
119.4303744949
  0
LINE
  5
282
100
AcDbEntity
  8
0
100
AcDbLine
 62
7
  6
BYLAYER
 10
136.4087051562
 20
122.4141138783
 11
136.4087051562
 21
121.4303744949
  0
LINE
  5
283
100
AcDbEntity
  8
0
100
AcDbLine
 62
7
  6
BYLAYER
 10
137.3087051562
 20
123.3947428122
 11
137.3087051562
 21
123.3163199628
  0
LINE
  5
284
100
AcDbEntity
  8
0
100
AcDbLine
 62
7
  6
BYLAYER
 10
137.8087051562
 20
124.5884525213
 11
137.8087051562
 21
123.8947349689
  0
LINE
  5
285
100
AcDbEntity
  8
0
100
AcDbLine
 62
7
  6
BYLAYER
 10
128.4470408529
 20
103.9724031857
 11
128.4470837499
 21
103.9729986529
  0
LINE
  5
286
100
AcDbEntity
  8
0
100
AcDbLine
 62
7
  6
BYLAYER
 10
128.4497344902
 20
103.9852948145
 11
128.4498256789
 21
103.98648648
  0
LINE
  5
287
100
AcDbEntity
  8
0
100
AcDbLine
 62
7
  6
BYLAYER
 10
128.4470837499
 20
103.9729986529
 11
129.1827342459
 21
109.0124069872
  0
LWPOLYLINE
  5
288
100
AcDbEntity
  8
0
100
AcDbPolyline
 62
7
  6
BYLAYER
 90
5
 70
0
 10
129.1678369392
 20
108.9459441595
 10
130.1073851598
 20
113.2944006356
 10
130.9802522313
 20
116.1252161923
 10
131.986349373
 20
118.0848157774
 10
132.9411982431
 20
119.0934452199
  0
LINE
  5
289
100
AcDbEntity
  8
0
100
AcDbLine
 62
7
  6
BYLAYER
 10
77.4087051562
 20
177.3553744949
 11
79.1151905081
 21
177.3553744949
  0
LINE
  5
28A
100
AcDbEntity
  8
0
100
AcDbLine
 62
7
  6
BYLAYER
 10
124.9081636347
 20
250.5151888662
 11
126.170415954
 21
240.3743820981
  0
LINE
  5
28B
100
AcDbEntity
  8
0
100
AcDbLine
 62
7
  6
BYLAYER
 10
142.8087051562
 20
153.8553744949
 11
142.8087051562
 21
157.3683192521
  0
LINE
  5
28C
100
AcDbEntity
  8
0
100
AcDbLine
 62
7
  6
BYLAYER
 10
143.1287051562
 20
159.4842206481
 11
143.1287051562
 21
155.8553744949
  0
LINE
  5
28D
100
AcDbEntity
  8
0
100
AcDbLine
 62
7
  6
BYLAYER
 10
148.0846108149
 20
192.253619715
 11
138.0692410676
 21
126.0300733735
  0
LINE
  5
28E
100
AcDbEntity
  8
0
100
AcDbLine
 62
7
  6
BYLAYER
 10
139.2273408289
 20
139.1227020904
 11
147.3242190675
 21
192.4031279199
  0
LINE
  5
28F
100
AcDbEntity
  8
0
100
AcDbLine
 62
7
  6
BYLAYER
 10
137.1497170121
 20
123.206188556
 11
137.6750524501
 21
124.0006462992
  0
LINE
  5
290
100
AcDbEntity
  8
0
100
AcDbLine
 62
7
  6
BYLAYER
 10
136.4087051562
 20
122.3854985237
 11
137.1262349592
 21
123.1371815044
  0
LWPOLYLINE
  5
291
100
AcDbEntity
  8
0
100
AcDbPolyline
 62
7
  6
BYLAYER
 90
4
 70
0
 10
132.9411947799
 20
119.0934374279
 10
134.3862604329
 20
120.335860003
 10
136.1770010615
 20
122.1661459309
 10
137.1495753475
 20
123.2069874824
  0
LINE
  5
292
100
AcDbEntity
  8
0
100
AcDbLine
 62
7
  6
BYLAYER
 10
147.2331650155
 20
194.9792900726
 11
141.8722778634
 21
218.7978886368
  0
LINE
  5
293
100
AcDbEntity
  8
0
100
AcDbLine
 62
7
  6
BYLAYER
 10
141.4620758179
 20
224.3152889372
 11
147.9812842156
 21
195.1977735611
  0
LINE
  5
294
100
AcDbEntity
  8
0
100
AcDbLine
 62
7
  6
BYLAYER
 10
139.3931438829
 20
225.2405840917
 11
139.089801301
 21
226.6083435085
  0
LINE
  5
295
100
AcDbEntity
  8
0
100
AcDbLine
 62
7
  6
BYLAYER
 10
79.1151905081
 20
203.3553744949
 11
77.4087051562
 21
203.3553744949
  0
LINE
  5
296
100
AcDbEntity
  8
0
100
AcDbLine
 62
7
  6
BYLAYER
 10
89.4959826273
 20
207.5853744949
 11
95.908711058
 21
207.5853744949
  0
LINE
  5
297
100
AcDbEntity
  8
0
100
AcDbLine
 62
7
  6
BYLAYER
 10
82.9495569097
 20
207.9853744949
 11
95.9087185592
 21
207.9853744949
  0
LINE
  5
298
100
AcDbEntity
  8
0
100
AcDbLine
 62
7
  6
BYLAYER
 10
117.4087051562
 20
246.1853744949
 11
115.9087051562
 21
248.7834507062
  0
LINE
  5
299
100
AcDbEntity
  8
0
100
AcDbLine
 62
7
  6
BYLAYER
 10
117.9888321751
 20
249.9844126005
 11
119.4888321751
 21
247.3863363892
  0
LINE
  5
29A
100
AcDbEntity
  8
0
100
AcDbLine
 62
7
  6
BYLAYER
 10
113.1587051562
 20
218.7778886368
 11
115.6687051562
 21
218.7978886368
  0
LINE
  5
29B
100
AcDbEntity
  8
0
100
AcDbLine
 62
7
  6
BYLAYER
 10
95.9087051562
 20
215.9853744949
 11
88.0818560042
 21
215.9853744949
  0
LINE
  5
29C
100
AcDbEntity
  8
0
100
AcDbLine
 62
7
  6
BYLAYER
 10
115.6687051562
 20
218.7978886368
 11
141.8722778634
 21
218.7978886368
  0
LINE
  5
29D
100
AcDbEntity
  8
0
100
AcDbLine
 62
7
  6
BYLAYER
 10
114.0995243859
 20
228.1716138614
 11
113.1587051562
 21
228.1716138614
  0
LINE
  5
29E
100
AcDbEntity
  8
0
100
AcDbLine
 62
7
  6
BYLAYER
 10
115.6687051562
 20
228.1916138614
 11
114.6676444516
 21
228.1916343173
  0
LINE
  5
29F
100
AcDbEntity
  8
0
100
AcDbLine
 62
7
  6
BYLAYER
 10
102.531541484
 20
229.5153744949
 11
102.6087050309
 21
229.5153744949
  0
LINE
  5
2A0
100
AcDbEntity
  8
0
100
AcDbLine
 62
7
  6
BYLAYER
 10
115.9087051562
 20
230.6288235022
 11
112.9087051562
 21
230.6288235022
  0
LINE
  5
2A1
100
AcDbEntity
  8
0
100
AcDbLine
 62
7
  6
BYLAYER
 10
126.2087051562
 20
228.5819816174
 11
139.0897354385
 21
226.6083559129
  0
LINE
  5
2A2
100
AcDbEntity
  8
0
100
AcDbLine
 62
7
  6
BYLAYER
 10
102.6087051562
 20
239.756785202
 11
112.9087051562
 21
239.756785202
  0
LINE
  5
2A3
100
AcDbEntity
  8
0
100
AcDbLine
 62
7
  6
BYLAYER
 10
115.9087051562
 20
239.756785202
 11
126.2087051562
 21
239.756785202
  0
LINE
  5
2A4
100
AcDbEntity
  8
0
100
AcDbLine
 62
7
  6
BYLAYER
 10
126.170415954
 20
240.3743820981
 11
115.9087051562
 21
240.3743820981
  0
LINE
  5
2A5
100
AcDbEntity
  8
0
100
AcDbLine
 62
7
  6
BYLAYER
 10
112.9087051562
 20
240.3743820981
 11
102.6469943585
 21
240.3743820981
  0
LINE
  5
2A6
100
AcDbEntity
  8
0
100
AcDbLine
 62
7
  6
BYLAYER
 10
112.9087051562
 20
243.5853744949
 11
115.9087051562
 21
243.5853744949
  0
LINE
  5
2A7
100
AcDbEntity
  8
0
100
AcDbLine
 62
7
  6
BYLAYER
 10
104.0846729656
 20
251.9167705411
 11
121.3357743065
 21
251.9167705411
  0
LINE
  5
2A8
100
AcDbEntity
  8
0
100
AcDbLine
 62
7
  6
BYLAYER
 10
123.0587051562
 20
257.4167705411
 11
105.7587051562
 21
257.4167705411
  0
LINE
  5
2A9
100
AcDbEntity
  8
0
100
AcDbLine
 62
7
  6
BYLAYER
 10
123.0587051562
 20
260.4167705411
 11
105.7587051562
 21
260.4167705411
  0
LINE
  5
2AA
100
AcDbEntity
  8
0
100
AcDbLine
 62
7
  6
BYLAYER
 10
122.0587051562
 20
265.9167705411
 11
106.7587051562
 21
265.9167705411
  0
LINE
  5
2AB
100
AcDbEntity
  8
0
100
AcDbLine
 62
7
  6
BYLAYER
 10
122.0587051562
 20
268.9167705411
 11
106.7587051562
 21
268.9167705411
  0
LINE
  5
2AC
100
AcDbEntity
  8
0
100
AcDbLine
 62
7
  6
BYLAYER
 10
121.1587051562
 20
274.4167705411
 11
107.6587051562
 21
274.4167705411
  0
LINE
  5
2AD
100
AcDbEntity
  8
0
100
AcDbLine
 62
7
  6
BYLAYER
 10
121.1587051562
 20
277.4167705411
 11
107.6587438384
 21
277.4167705411
  0
LINE
  5
2AE
100
AcDbEntity
  8
0
100
AcDbLine
 62
7
  6
BYLAYER
 10
120.0587051562
 20
282.9167705411
 11
108.7587051562
 21
282.9167705411
  0
LINE
  5
2AF
100
AcDbEntity
  8
0
100
AcDbLine
 62
7
  6
BYLAYER
 10
120.0587051562
 20
285.9167705411
 11
108.7587375346
 21
285.9167705411
  0
ARC
  5
2B0
100
AcDbEntity
  8
0
100
AcDbCircle
 62
7
  6
BYLAYER
 10
46.5229060219
 20
-2524.12556388
 40
2741.0141074539
100
AcDbArc
 50
88.9676261673
 51
89.1111523008
  0
ARC
  5
2B1
100
AcDbEntity
  8
0
100
AcDbCircle
 62
7
  6
BYLAYER
 10
-3780.7502896505
 20
36.2562039656
 40
3871.3576562012
100
AcDbArc
 50
0.948905289
 51
1.2590065507
  0
ARC
  5
2B2
100
AcDbEntity
  8
0
100
AcDbCircle
 62
7
  6
BYLAYER
 10
90.7382360351
 20
-189.8897376123
 40
328.8611824774
100
AcDbArc
 50
90.2555506617
 51
91.0754967998
  0
ARC
  5
2B3
100
AcDbEntity
  8
0
100
AcDbCircle
 62
7
  6
BYLAYER
 10
103.7442713844
 20
35.4862440249
 40
193.0739539259
100
AcDbArc
 50
79.3599469522
 51
86.4591038355
  0
ARC
  5
2B4
100
AcDbEntity
  8
0
100
AcDbCircle
 62
7
  6
BYLAYER
 10
110.9594292899
 20
130.1174878523
 40
27.4162151302
100
AcDbArc
 50
349.9874215611
 51
351.4259786627
  0
ARC
  5
2B5
100
AcDbEntity
  8
0
100
AcDbCircle
 62
7
  6
BYLAYER
 10
67.713421637
 20
93.3917133187
 40
15.7909730886
100
AcDbArc
 50
352.1281921815
 51
358.5927039897
  0
ARC
  5
2B6
100
AcDbEntity
  8
0
100
AcDbCircle
 62
7
  6
BYLAYER
 10
67.7134216369
 20
45.3917133187
 40
15.7909730886
100
AcDbArc
 50
352.1281921808
 51
358.5927039902
  0
ARC
  5
2B7
100
AcDbEntity
  8
0
100
AcDbCircle
 62
7
  6
BYLAYER
 10
68.921138111
 20
93.3571968838
 40
14.5827739967
100
AcDbArc
 50
358.6117405491
 51
359.9928398263
  0
ARC
  5
2B8
100
AcDbEntity
  8
0
100
AcDbCircle
 62
7
  6
BYLAYER
 10
68.921138111
 20
45.3571968838
 40
14.5827739967
100
AcDbArc
 50
358.6117405496
 51
359.9928398263
  0
ARC
  5
2B9
100
AcDbEntity
  8
0
100
AcDbCircle
 62
7
  6
BYLAYER
 10
76.3033164097
 20
98.1549327649
 40
13.9501553668
100
AcDbArc
 50
7.5372269816
 51
9.1316649532
  0
ARC
  5
2BA
100
AcDbEntity
  8
0
100
AcDbCircle
 62
7
  6
BYLAYER
 10
76.705258985
 20
98.2693657518
 40
13.9272703734
100
AcDbArc
 50
7.3709108781
 51
8.352309399
  0
ARC
  5
2BB
100
AcDbEntity
  8
0
100
AcDbCircle
 62
7
  6
BYLAYER
 10
76.6989798376
 20
98.6545415508
 40
13.920986792
100
AcDbArc
 50
5.8016572698
 51
6.7238532641
  0
ARC
  5
2BC
100
AcDbEntity
  8
0
100
AcDbCircle
 62
7
  6
BYLAYER
 10
76.2288847409
 20
98.8678879526
 40
13.8955614368
100
AcDbArc
 50
4.5791880523
 51
6.2143302534
  0
ARC
  5
2BD
100
AcDbEntity
  8
0
100
AcDbCircle
 62
7
  6
BYLAYER
 10
69.3387051562
 20
155.8053744949
 40
12.3
100
AcDbArc
 50
330.0
 51
14.45
  0
ARC
  5
2BE
100
AcDbEntity
  8
0
100
AcDbCircle
 62
7
  6
BYLAYER
 10
119.9087051562
 20
35.1856413646
 40
8.5
100
AcDbArc
 50
284.4499999999
 51
360.0
  0
ARC
  5
2BF
100
AcDbEntity
  8
0
100
AcDbCircle
 62
7
  6
BYLAYER
 10
74.8941078332
 20
100.0996677662
 40
7.9993921088
100
AcDbArc
 50
5.2651625086
 51
12.0797806006
  0
ARC
  5
2C0
100
AcDbEntity
  8
0
100
AcDbCircle
 62
7
  6
BYLAYER
 10
75.2753687194
 20
100.2039896446
 40
7.6103765821
100
AcDbArc
 50
5.823467553
 51
11.9067044638
  0
ARC
  5
2C1
100
AcDbEntity
  8
0
100
AcDbCircle
 62
7
  6
BYLAYER
 10
75.2907501812
 20
100.205568976
 40
7.5949142555
100
AcDbArc
 50
5.0512041795
 51
5.8233881929
  0
ARC
  5
2C2
100
AcDbEntity
  8
0
100
AcDbCircle
 62
7
  6
BYLAYER
 10
75.3017344827
 20
100.2065544738
 40
7.5838858435
100
AcDbArc
 50
4.7613342301
 51
5.051094279
  0
ARC
  5
2C3
100
AcDbEntity
  8
0
100
AcDbCircle
 62
7
  6
BYLAYER
 10
75.3022473541
 20
100.210173763
 40
7.5828403562
100
AcDbArc
 50
11.9093215581
 51
12.462450864
  0
ARC
  5
2C4
100
AcDbEntity
  8
0
100
AcDbCircle
 62
7
  6
BYLAYER
 10
91.7561666623
 20
139.1961733592
 40
7.196201421
100
AcDbArc
 50
178.9268984288
 51
182.2511462005
  0
ARC
  5
2C5
100
AcDbEntity
  8
0
100
AcDbCircle
 62
7
  6
BYLAYER
 10
75.9051390628
 20
99.913137441
 40
7.0035654453
100
AcDbArc
 50
0.0007373173
 51
4.1706665594
  0
ARC
  5
2C6
100
AcDbEntity
  8
0
100
AcDbCircle
 62
7
  6
BYLAYER
 10
83.8203265795
 20
176.5463790129
 40
6.411624134
100
AcDbArc
 50
180.0526862845
 51
198.6506639549
  0
ARC
  5
2C7
100
AcDbEntity
  8
0
100
AcDbCircle
 62
7
  6
BYLAYER
 10
87.9087051562
 20
31.2128950038
 40
5.0
100
AcDbArc
 50
180.0
 51
267.85
  0
ARC
  5
2C8
100
AcDbEntity
  8
0
100
AcDbCircle
 62
7
  6
BYLAYER
 10
134.7616088583
 20
125.3892999278
 40
3.2655125002
100
AcDbArc
 50
316.3958322827
 51
317.6389170873
  0
ARC
  5
2C9
100
AcDbEntity
  8
0
100
AcDbCircle
 62
7
  6
BYLAYER
 10
84.9709669679
 20
100.9275087252
 40
2.1122206342
100
AcDbArc
 50
182.8970754374
 51
184.201029748
  0
ARC
  5
2CA
100
AcDbEntity
  8
0
100
AcDbCircle
 62
7
  6
BYLAYER
 10
134.4087051562
 20
121.4303744949
 40
2.0
100
AcDbArc
 50
270.0000000002
 51
360.0
  0
ARC
  5
2CB
100
AcDbEntity
  8
0
100
AcDbCircle
 62
7
  6
BYLAYER
 10
90.2136865984
 20
98.8496809849
 40
1.4680077948
100
AcDbArc
 50
77.7878240214
 51
79.357021276
  0
ARC
  5
2CC
100
AcDbEntity
  8
0
100
AcDbCircle
 62
7
  6
BYLAYER
 10
89.9971750564
 20
100.750116427
 40
0.7772856951
100
AcDbArc
 50
276.1235870158
 51
280.0592096775
  0
ARC
  5
2CD
100
AcDbEntity
  8
0
100
AcDbCircle
 62
7
  6
BYLAYER
 10
90.667138775
 20
99.3141599995
 40
0.7569157829
100
AcDbArc
 50
99.0054971423
 51
101.4069303449
  0
ARC
  5
2CE
100
AcDbEntity
  8
0
100
AcDbCircle
 62
7
  6
BYLAYER
 10
201.9253137221
 20
98.0069982919
 40
79.9067998677
100
AcDbArc
 50
177.7598659968
 51
179.0390129616
  0
ARC
  5
2CF
100
AcDbEntity
  8
0
100
AcDbCircle
 62
7
  6
BYLAYER
 10
197.9773922419
 20
86.2577002739
 40
76.9409133244
100
AcDbArc
 50
168.8832984608
 51
170.2360867207
  0
ARC
  5
2D0
100
AcDbEntity
  8
0
100
AcDbCircle
 62
7
  6
BYLAYER
 10
147.9514388866
 20
123.6520867526
 40
63.5857684403
100
AcDbArc
 50
180.7921569278
 51
182.2254597433
  0
ARC
  5
2D1
100
AcDbEntity
  8
0
100
AcDbCircle
 62
7
  6
BYLAYER
 10
157.1152179641
 20
103.5319894571
 40
28.7894148044
100
AcDbArc
 50
180.6926228282
 51
181.3444872514
  0
ARC
  5
2D2
100
AcDbEntity
  8
0
100
AcDbCircle
 62
7
  6
BYLAYER
 10
141.1028607281
 20
103.3374211872
 40
12.7758755689
100
AcDbArc
 50
179.1966226111
 51
180.688171304
  0
ARC
  5
2D3
100
AcDbEntity
  8
0
100
AcDbCircle
 62
7
  6
BYLAYER
 10
136.9176044238
 20
103.3942254529
 40
8.5902344255
100
AcDbArc
 50
177.0045633772
 51
179.1840612128
  0
ARC
  5
2D4
100
AcDbEntity
  8
0
100
AcDbCircle
 62
7
  6
BYLAYER
 10
134.9026422093
 20
125.2616471295
 40
3.0752886408
100
AcDbArc
 50
317.6258003087
 51
320.3607990797
  0
ARC
  5
2D5
100
AcDbEntity
  8
0
100
AcDbCircle
 62
7
  6
BYLAYER
 10
142.3087051562
 20
153.8553744949
 40
0.5
100
AcDbArc
 50
270.0
 51
360.0
  0
ARC
  5
2D6
100
AcDbEntity
  8
0
100
AcDbCircle
 62
7
  6
BYLAYER
 10
137.3087169767
 20
123.8947356183
 40
0.4999881795
100
AcDbArc
 50
269.9999254302
 51
359.9999254267
  0
ARC
  5
2D7
100
AcDbEntity
  8
0
100
AcDbCircle
 62
7
  6
BYLAYER
 10
137.3087169767
 20
123.816312769
 40
0.4999881795
100
AcDbArc
 50
269.9999254303
 51
359.9999254267
  0
ARC
  5
2D8
100
AcDbEntity
  8
0
100
AcDbCircle
 62
7
  6
BYLAYER
 10
132.6075558798
 20
552.767107555
 40
324.2488213145
100
AcDbArc
 50
267.0533024421
 51
268.3319546486
  0
ARC
  5
2D9
100
AcDbEntity
  8
0
100
AcDbCircle
 62
7
  6
BYLAYER
 10
90.1878856737
 20
425.1635244111
 40
285.8878231083
100
AcDbArc
 50
268.8721358608
 51
269.815766048
  0
ARC
  5
2DA
100
AcDbEntity
  8
0
100
AcDbCircle
 62
7
  6
BYLAYER
 10
114.4202671506
 20
349.1301505496
 40
120.1956955841
100
AcDbArc
 50
265.8950187486
 51
269.2749143343
  0
ARC
  5
2DB
100
AcDbEntity
  8
0
100
AcDbCircle
 62
7
  6
BYLAYER
 10
114.1184052964
 20
345.9492494619
 40
117.0013693838
100
AcDbArc
 50
264.3545489139
 51
265.9309556692
  0
ARC
  5
2DC
100
AcDbEntity
  8
0
100
AcDbCircle
 62
7
  6
BYLAYER
 10
133.7865404822
 20
248.8943404061
 40
60.8877804428
100
AcDbArc
 50
222.7120963565
 51
223.0156675132
  0
ARC
  5
2DD
100
AcDbEntity
  8
0
100
AcDbCircle
 62
7
  6
BYLAYER
 10
89.4087051562
 20
204.3922684826
 40
12.0
100
AcDbArc
 50
135.0
 51
179.9999999996
  0
ARC
  5
2DE
100
AcDbEntity
  8
0
100
AcDbCircle
 62
7
  6
BYLAYER
 10
102.5310021659
 20
217.5152249079
 40
11.9999912276
100
AcDbArc
 50
90.0
 51
135.0
  0
ARC
  5
2DF
100
AcDbEntity
  8
0
100
AcDbCircle
 62
7
  6
BYLAYER
 10
101.0325789711
 20
217.5368338952
 40
10.9245512792
100
AcDbArc
 50
129.6692567754
 51
131.4232065326
  0
ARC
  5
2E0
100
AcDbEntity
  8
0
100
AcDbCircle
 62
7
  6
BYLAYER
 10
101.0063410501
 20
217.5661725708
 40
10.8851924587
100
AcDbArc
 50
131.4218200932
 51
134.9861119095
  0
ARC
  5
2E1
100
AcDbEntity
  8
0
100
AcDbCircle
 62
7
  6
BYLAYER
 10
140.1745597665
 20
193.4499024626
 40
8.0
100
AcDbArc
 50
351.4
 51
12.62
  0
ARC
  5
2E2
100
AcDbEntity
  8
0
100
AcDbCircle
 62
7
  6
BYLAYER
 10
140.416987972
 20
193.4491428712
 40
6.9858079918
100
AcDbArc
 50
351.3887045527
 51
12.652435759
  0
ARC
  5
2E3
100
AcDbEntity
  8
0
100
AcDbCircle
 62
7
  6
BYLAYER
 10
118.9087051562
 20
243.5872982835
 40
6.0
100
AcDbArc
 50
120.0
 51
180.0183708278
  0
ARC
  5
2E4
100
AcDbEntity
  8
0
100
AcDbCircle
 62
7
  6
BYLAYER
 10
118.9087051562
 20
243.5872982835
 40
3.0
100
AcDbArc
 50
120.0
 51
180.0367416517
  0
ARC
  5
2E5
100
AcDbEntity
  8
0
100
AcDbCircle
 62
7
  6
BYLAYER
 10
138.5344729017
 20
223.6601306699
 40
2.9999994445
100
AcDbArc
 50
12.6207244498
 51
79.3339743688
  0
ARC
  5
2E6
100
AcDbEntity
  8
0
100
AcDbCircle
 62
7
  6
BYLAYER
 10
138.8677437069
 20
222.316656325
 40
2.971443267
100
AcDbArc
 50
32.1744064083
 51
38.6911868053
  0
ARC
  5
2E7
100
AcDbEntity
  8
0
100
AcDbCircle
 62
7
  6
BYLAYER
 10
138.9105082852
 20
222.3442152464
 40
2.920570973
100
AcDbArc
 50
12.6092826891
 51
32.1635249672
  0
ARC
  5
2E8
100
AcDbEntity
  8
0
100
AcDbCircle
 62
7
  6
BYLAYER
 10
108.7587051562
 20
284.4167705411
 40
1.5
100
AcDbArc
 50
90.0
 51
270.0
  0
ARC
  5
2E9
100
AcDbEntity
  8
0
100
AcDbCircle
 62
7
  6
BYLAYER
 10
120.0587051562
 20
284.4167705411
 40
1.5
100
AcDbArc
 50
270.0
 51
90.0
  0
ARC
  5
2EA
100
AcDbEntity
  8
0
100
AcDbCircle
 62
7
  6
BYLAYER
 10
107.6587051562
 20
275.9167705411
 40
1.5
100
AcDbArc
 50
90.0
 51
270.0
  0
ARC
  5
2EB
100
AcDbEntity
  8
0
100
AcDbCircle
 62
7
  6
BYLAYER
 10
121.1587051562
 20
275.9167705411
 40
1.5
100
AcDbArc
 50
270.0
 51
90.0
  0
ARC
  5
2EC
100
AcDbEntity
  8
0
100
AcDbCircle
 62
7
  6
BYLAYER
 10
106.7587051562
 20
267.4167705411
 40
1.5
100
AcDbArc
 50
90.0
 51
270.0
  0
ARC
  5
2ED
100
AcDbEntity
  8
0
100
AcDbCircle
 62
7
  6
BYLAYER
 10
122.0587051562
 20
267.4167705411
 40
1.5
100
AcDbArc
 50
270.0
 51
90.0
  0
ARC
  5
2EE
100
AcDbEntity
  8
0
100
AcDbCircle
 62
7
  6
BYLAYER
 10
105.7587051562
 20
258.9167705411
 40
1.5
100
AcDbArc
 50
90.0
 51
270.0
  0
ARC
  5
2EF
100
AcDbEntity
  8
0
100
AcDbCircle
 62
7
  6
BYLAYER
 10
123.0587051562
 20
258.9167705411
 40
1.5
100
AcDbArc
 50
270.0
 51
90.0
  0
ARC
  5
2F0
100
AcDbEntity
  8
0
100
AcDbCircle
 62
7
  6
BYLAYER
 10
132.1622259338
 20
256.4353744949
 40
1.5
100
AcDbArc
 50
300.0
 51
120.0
  0
ARC
  5
2F1
100
AcDbEntity
  8
0
100
AcDbCircle
 62
7
  6
BYLAYER
 10
5501.4659144583
 20
-278.7662208614
 40
5424.3448436011
100
AcDbArc
 50
175.5830799538
 51
175.7724655768
  0
ARC
  5
2F2
100
AcDbEntity
  8
0
100
AcDbCircle
 62
7
  6
BYLAYER
 10
1202.4564329515
 20
-457.0588171391
 40
1216.0078861483
100
AcDbArc
 50
151.1921262528
 51
151.6429541045
  0
SPLINE
  5
2F3
100
AcDbEntity
  8
0
100
AcDbSpline
 62
7
  6
BYLAYER
 70
0
 71
3
 72
11
 73
7
 74
0
 42
0.0000001
 43
0.0000001
 44
0.0000000001
 40
0.0
 40
0.0
 40
0.0
 40
0.0
 40
0.3328095237
 40
0.6170903756
 40
0.8356794503
 40
1.0
 40
1.0
 40
1.0
 40
1.0
 10
79.5465159875
 20
178.1553744949
 30
0.0
 10
79.5465159875
 20
178.0468363707
 30
0.0
 10
79.5237097524
 20
177.8443676099
 30
0.0
 10
79.4255438361
 20
177.5872429887
 30
0.0
 10
79.2923222216
 20
177.4096064609
 30
0.0
 10
79.1687883514
 20
177.3553744949
 30
0.0
 10
79.1151990069
 20
177.3553744949
 30
0.0
  0
SPLINE
  5
2F4
100
AcDbEntity
  8
0
100
AcDbSpline
 62
7
  6
BYLAYER
 70
0
 71
3
 72
12
 73
8
 74
0
 42
0.0000001
 43
0.0000001
 44
0.0000000001
 40
0.0
 40
0.0
 40
0.0
 40
0.0
 40
0.3327303379
 40
0.4831190314
 40
0.6177330393
 40
0.8358049311
 40
1.0
 40
1.0
 40
1.0
 40
1.0
 10
79.5465130881
 20
202.5553744949
 30
0.0
 10
79.5465130881
 20
202.6639631923
 30
0.0
 10
79.5283952996
 20
202.8226880981
 30
0.0
 10
79.467091464
 20
203.0153692214
 30
0.0
 10
79.3957151021
 20
203.1634456292
 30
0.0
 10
79.2920986448
 20
203.3010987982
 30
0.0
 10
79.1687766306
 20
203.3553744949
 30
0.0
 10
79.1151905081
 20
203.3553744949
 30
0.0
  0
SPLINE
  5
2F5
100
AcDbEntity
  8
0
100
AcDbSpline
 62
7
  6
BYLAYER
 70
0
 71
3
 72
8
 73
4
 74
0
 42
0.0000001
 43
0.0000001
 44
0.0000000001
 40
0.0
 40
0.0
 40
0.0
 40
0.0
 40
1.0
 40
1.0
 40
1.0
 40
1.0
 10
137.9580847
 20
125.3507847871
 30
0.0
 10
137.8779310693
 20
124.8979959253
 30
0.0
 10
137.7850733221
 20
124.447118869
 30
0.0
 10
137.6750524475
 20
124.0006462885
 30
0.0
  0
SPLINE
  5
2F6
100
AcDbEntity
  8
0
100
AcDbSpline
 62
7
  6
BYLAYER
 70
0
 71
3
 72
17
 73
13
 74
0
 42
0.0000001
 43
0.0000001
 44
0.0000000001
 40
0.0
 40
0.0
 40
0.0
 40
0.0
 40
0.169007654
 40
0.3351366832
 40
0.4943193375
 40
0.6420535671
 40
0.7724253741
 40
0.8790709873
 40
0.9216629584
 40
0.9563198221
 40
0.9825477969
 40
1.0
 40
1.0
 40
1.0
 40
1.0
 10
141.8722778634
 20
218.7978886368
 30
0.0
 10
141.8000907815
 20
219.1808396729
 30
0.0
 10
141.5978698819
 20
219.9293512666
 30
0.0
 10
141.1924142612
 20
220.9954610806
 30
0.0
 10
140.7479786932
 20
221.9918099453
 30
0.0
 10
140.3235141691
 20
222.9063734566
 30
0.0
 10
139.959236084
 20
223.7153139229
 30
0.0
 10
139.7087481704
 20
224.3095677107
 30
0.0
 10
139.5569222185
 20
224.7054712233
 30
0.0
 10
139.4768871431
 20
224.9303603974
 30
0.0
 10
139.422813143
 20
225.1025711867
 30
0.0
 10
139.3982077958
 20
225.2006629508
 30
0.0
 10
139.3931438828
 20
225.2405840917
 30
0.0
  0
SPLINE
  5
2F7
100
AcDbEntity
  8
0
100
AcDbSpline
 62
7
  6
BYLAYER
 70
0
 71
3
 72
17
 73
13
 74
0
 42
0.0000001
 43
0.0000001
 44
0.0000000001
 40
0.0
 40
0.0
 40
0.0
 40
0.0
 40
0.203915344
 40
0.3954589236
 40
0.5681817079
 40
0.7170720961
 40
0.8377289079
 40
0.926705746
 40
0.9583492201
 40
0.9811563021
 40
0.9950190001
 40
1.0
 40
1.0
 40
1.0
 40
1.0
 10
139.2273396594
 20
139.1227039685
 30
0.0
 10
139.2820145505
 20
139.1145179276
 30
0.0
 10
139.3881528436
 20
139.0993735853
 30
0.0
 10
139.5407195136
 20
139.0780251945
 30
0.0
 10
139.6783141918
 20
139.0576769342
 30
0.0
 10
139.7970777782
 20
139.0404565611
 30
0.0
 10
139.8932643207
 20
139.0283599158
 30
0.0
 10
139.9588227573
 20
139.0209268766
 30
0.0
 10
139.9968003159
 20
139.0176260295
 30
0.0
 10
140.0164996176
 20
139.0155972816
 30
0.0
 10
140.0255680279
 20
139.0162704337
 30
0.0
 10
140.0330857292
 20
139.0153906119
 30
0.0
 10
140.0332875977
 20
139.0167258574
 30
0.0
  0
SPLINE
  5
2F8
100
AcDbEntity
  8
0
100
AcDbSpline
 62
7
  6
BYLAYER
 70
0
 71
3
 72
16
 73
12
 74
0
 42
0.0000001
 43
0.0000001
 44
0.0000000001
 40
0.0
 40
0.0
 40
0.0
 40
0.0
 40
0.3870937302
 40
0.5641383057
 40
0.717487645
 40
0.8391182703
 40
0.926949761
 40
0.9580212097
 40
0.9804612776
 40
0.9942891007
 40
1.0
 40
1.0
 40
1.0
 40
1.0
 10
147.3240636236
 20
192.403152878
 30
0.0
 10
147.4230198312
 20
192.387364982
 30
0.0
 10
147.5671102208
 20
192.3634853875
 30
0.0
 10
147.74997611
 20
192.3310823989
 30
0.0
 10
147.865050525
 20
192.3095224049
 30
0.0
 10
147.9569327373
 20
192.2907749596
 30
0.0
 10
148.0179516364
 20
192.2768106039
 30
0.0
 10
148.0528835437
 20
192.2674338313
 30
0.0
 10
148.0701997593
 20
192.261969574
 30
0.0
 10
148.0790537135
 20
192.2583838296
 30
0.0
 10
148.0848319677
 20
192.2550813937
 30
0.0
 10
148.0846108033
 20
192.2536196382
 30
0.0
  0
SPLINE
  5
2F9
100
AcDbEntity
  8
0
100
AcDbSpline
 62
7
  6
BYLAYER
 70
0
 71
3
 72
14
 73
10
 74
0
 42
0.0000001
 43
0.0000001
 44
0.0000000001
 40
0.0
 40
0.0
 40
0.0
 40
0.0
 40
0.3861212478
 40
0.5628550346
 40
0.7160032375
 40
0.8375587468
 40
0.9254956339
 40
0.979406399
 40
1.0
 40
1.0
 40
1.0
 40
1.0
 10
147.2331633358
 20
194.9792896738
 30
0.0
 10
147.3311069849
 20
195.002417914
 30
0.0
 10
147.4737031282
 20
195.0374038692
 30
0.0
 10
147.6539266042
 20
195.084786899
 30
0.0
 10
147.767929651
 20
195.1163871349
 30
0.0
 10
147.8566916439
 20
195.1436153179
 30
0.0
 10
147.9255959413
 20
195.1663034051
 30
0.0
 10
147.9576513398
 20
195.1815845262
 30
0.0
 10
147.982456985
 20
195.1925358025
 30
0.0
 10
147.981284216
 20
195.1977735593
 30
0.0
  0
SPLINE
  5
2FA
100
AcDbEntity
  8
0
100
AcDbSpline
 62
7
  6
BYLAYER
 70
0
 71
3
 72
14
 73
10
 74
0
 42
0.0000001
 43
0.0000001
 44
0.0000000001
 40
0.0
 40
0.0
 40
0.0
 40
0.0
 40
0.3836355978
 40
0.5606274579
 40
0.7153687577
 40
0.8395687501
 40
0.9289039864
 40
0.9812771115
 40
1.0
 40
1.0
 40
1.0
 40
1.0
 10
141.8722778646
 20
218.7978886319
 30
0.0
 10
141.9729601839
 20
218.8213665539
 30
0.0
 10
142.1199903724
 20
218.856690839
 30
0.0
 10
142.3064146558
 20
218.9045932669
 30
0.0
 10
142.4257613427
 20
218.9366963361
 30
0.0
 10
142.5191049669
 20
218.9642466138
 30
0.0
 10
142.591820801
 20
218.9865458888
 30
0.0
 10
142.6244052217
 20
219.0014625006
 30
0.0
 10
142.6495685687
 20
219.0114489123
 30
0.0
 10
142.6484662061
 20
219.0163725255
 30
0.0
  0
SPLINE
  5
2FB
100
AcDbEntity
  8
0
100
AcDbSpline
 62
7
  6
BYLAYER
 70
0
 71
3
 72
9
 73
5
 74
0
 42
0.0000001
 43
0.0000001
 44
0.0000000001
 40
0.0
 40
0.0
 40
0.0
 40
0.0
 40
0.4956930579
 40
1.0
 40
1.0
 40
1.0
 40
1.0
 10
139.3931438831
 20
225.2405840916
 30
0.0
 10
139.737850555
 20
225.1776754536
 30
0.0
 10
140.4162860151
 20
224.9268011597
 30
0.0
 10
140.9641977984
 20
224.4524323479
 30
0.0
 10
141.1870341354
 20
224.1741726768
 30
0.0
  0
SPLINE
  5
2FC
100
AcDbEntity
  8
0
100
AcDbSpline
 62
7
  6
BYLAYER
 70
0
 71
3
 72
21
 73
17
 74
0
 42
0.0000001
 43
0.0000001
 44
0.0000000001
 40
0.0
 40
0.0
 40
0.0
 40
0.0
 40
0.063548239
 40
0.1267390007
 40
0.1888469649
 40
0.2509604679
 40
0.3132199004
 40
0.3755051214
 40
0.4377168177
 40
0.4999196507
 40
0.6245416313
 40
0.7493514162
 40
0.8118645512
 40
0.8744799096
 40
0.9371959725
 40
1.0
 40
1.0
 40
1.0
 40
1.0
 10
93.2412842375
 20
139.2650933982
 30
0.0
 10
93.5761523848
 20
139.2676072705
 30
0.0
 10
94.2435328397
 20
139.3046783326
 30
0.0
 10
95.2388703058
 20
139.2814488306
 30
0.0
 10
96.2262033675
 20
139.2609052917
 30
0.0
 10
97.2089685589
 20
139.2678303354
 30
0.0
 10
98.1925378068
 20
139.2768317237
 30
0.0
 10
99.1766959531
 20
139.2734292503
 30
0.0
 10
100.1605265984
 20
139.2695082917
 30
0.0
 10
101.4728523547
 20
139.2635318432
 30
0.0
 10
103.1150372008
 20
139.254578783
 30
0.0
 10
104.7588067047
 20
139.2379066905
 30
0.0
 10
106.0757563311
 20
139.2187345359
 30
0.0
 10
107.0654332764
 20
139.1976288533
 30
0.0
 10
108.0563151453
 20
139.1660013964
 30
0.0
 10
108.7170928803
 20
139.131996883
 30
0.0
 10
109.048021595
 20
139.1277595133
 30
0.0
  0
SPLINE
  5
2FD
100
AcDbEntity
  8
0
100
AcDbSpline
 62
7
  6
BYLAYER
 70
0
 71
3
 72
11
 73
7
 74
0
 42
0.0000001
 43
0.0000001
 44
0.0000000001
 40
0.0
 40
0.0
 40
0.0
 40
0.0
 40
0.2524372073
 40
0.5084433283
 40
0.7586606086
 40
1.0
 40
1.0
 40
1.0
 40
1.0
 10
93.2429753394
 20
147.1882323837
 30
0.0
 10
93.1629628008
 20
146.5658141438
 30
0.0
 10
92.8929861433
 20
145.3194877177
 30
0.0
 10
92.0247447434
 20
143.617018511
 30
0.0
 10
90.7527020776
 20
142.238052486
 30
0.0
 10
89.7677199401
 20
141.5078058614
 30
0.0
 10
89.2676210988
 20
141.1763799082
 30
0.0
  0
SPLINE
  5
2FE
100
AcDbEntity
  8
0
100
AcDbSpline
 62
7
  6
BYLAYER
 70
0
 71
3
 72
13
 73
9
 74
0
 42
0.0000001
 43
0.0000001
 44
0.0000000001
 40
0.0
 40
0.0
 40
0.0
 40
0.0
 40
0.2558789948
 40
0.5091072296
 40
0.6341005648
 40
0.7579498507
 40
0.8794779945
 40
1.0
 40
1.0
 40
1.0
 40
1.0
 10
82.5319966574
 20
141.0526797894
 30
0.0
 10
82.6639080873
 20
140.859815868
 30
0.0
 10
82.9361326526
 20
140.4826757374
 30
0.0
 10
83.3171617972
 20
140.0442492474
 30
0.0
 10
83.6578880583
 20
139.7367579159
 30
0.0
 10
83.9294574583
 20
139.533788746
 30
0.0
 10
84.2311945122
 20
139.3833967482
 30
0.0
 10
84.4508786459
 20
139.3401548566
 30
0.0
 10
84.5605504419
 20
139.3309581676
 30
0.0
  0
SPLINE
  5
2FF
100
AcDbEntity
  8
0
100
AcDbSpline
 62
7
  6
BYLAYER
 70
0
 71
3
 72
12
 73
8
 74
0
 42
0.0000001
 43
0.0000001
 44
0.0000000001
 40
0.0
 40
0.0
 40
0.0
 40
0.0
 40
0.2513053744
 40
0.509833312
 40
0.6349862208
 40
0.7559256371
 40
1.0
 40
1.0
 40
1.0
 40
1.0
 10
82.7699571475
 20
140.9858532217
 30
0.0
 10
82.7498861073
 20
140.992819369
 30
0.0
 10
82.7082902361
 20
141.0055191944
 30
0.0
 10
82.6632733067
 20
141.0351437654
 30
0.0
 10
82.6248261805
 20
141.0544118855
 30
0.0
 10
82.5832024294
 20
141.0603760371
 30
0.0
 10
82.5524063056
 20
141.0557159624
 30
0.0
 10
82.5319966574
 20
141.0526797894
 30
0.0
  0
SPLINE
  5
300
100
AcDbEntity
  8
0
100
AcDbSpline
 62
7
  6
BYLAYER
 70
0
 71
3
 72
11
 73
7
 74
0
 42
0.0000001
 43
0.0000001
 44
0.0000000001
 40
0.0
 40
0.0
 40
0.0
 40
0.0
 40
0.291706534
 40
0.5536898031
 40
0.7867908463
 40
1.0
 40
1.0
 40
1.0
 40
1.0
 10
89.2675419108
 20
141.1765578485
 30
0.0
 10
88.6792029142
 20
140.9212014199
 30
0.0
 10
87.4856948122
 20
140.6033123261
 30
0.0
 10
85.7469455672
 20
140.5441538371
 30
0.0
 10
84.1998490486
 20
140.7472956747
 30
0.0
 10
83.2349290643
 20
140.9265095316
 30
0.0
 10
82.7699394285
 20
140.9859694175
 30
0.0
  0
SPLINE
  5
301
100
AcDbEntity
  8
0
100
AcDbSpline
 62
7
  6
BYLAYER
 70
0
 71
3
 72
9
 73
5
 74
0
 42
0.0000001
 43
0.0000001
 44
0.0000000001
 40
0.0
 40
0.0
 40
0.0
 40
0.0
 40
0.2790865165
 40
1.0
 40
1.0
 40
1.0
 40
1.0
 10
82.5319650847
 20
141.0526797893
 30
0.0
 10
82.4712765915
 20
141.0056986164
 30
0.0
 10
82.2545291837
 20
140.8364652886
 30
0.0
 10
82.0344396228
 20
140.6714182292
 30
0.0
 10
81.8806967484
 20
140.54625308
 30
0.0
  0
SPLINE
  5
302
100
AcDbEntity
  8
0
100
AcDbSpline
 62
7
  6
BYLAYER
 70
0
 71
3
 72
8
 73
4
 74
0
 42
0.0000001
 43
0.0000001
 44
0.0000000001
 40
0.0
 40
0.0
 40
0.0
 40
0.0
 40
1.0
 40
1.0
 40
1.0
 40
1.0
 10
89.2713245004
 20
138.9687151811
 30
0.0
 10
89.2696368436
 20
139.0715201159
 30
0.0
 10
89.2693264388
 20
139.1743433249
 30
0.0
 10
89.2686205546
 20
139.277159688
 30
0.0
  0
SPLINE
  5
303
100
AcDbEntity
  8
0
100
AcDbSpline
 62
7
  6
BYLAYER
 70
0
 71
3
 72
9
 73
5
 74
0
 42
0.0000001
 43
0.0000001
 44
0.0000000001
 40
0.0
 40
0.0
 40
0.0
 40
0.0
 40
0.2495404028
 40
1.0
 40
1.0
 40
1.0
 40
1.0
 10
86.611313591
 20
155.7790710887
 30
0.0
 10
86.4053521238
 20
156.191623596
 30
0.0
 10
85.5962186422
 20
157.8529743736
 30
0.0
 10
84.8453187773
 20
159.5422967168
 30
0.0
 10
84.3057299965
 20
160.8197281653
 30
0.0
  0
SPLINE
  5
304
100
AcDbEntity
  8
0
100
AcDbSpline
 62
7
  6
BYLAYER
 70
0
 71
3
 72
8
 73
4
 74
0
 42
0.0000001
 43
0.0000001
 44
0.0000000001
 40
0.0
 40
0.0
 40
0.0
 40
0.0
 40
1.0
 40
1.0
 40
1.0
 40
1.0
 10
93.2396389619
 20
139.2650885416
 30
0.0
 10
93.2454408447
 20
139.1705836026
 30
0.0
 10
93.2522102749
 20
139.0743155367
 30
0.0
 10
93.2357983373
 20
138.9810659059
 30
0.0
  0
SPLINE
  5
305
100
AcDbEntity
  8
0
100
AcDbSpline
 62
7
  6
BYLAYER
 70
0
 71
3
 72
23
 73
19
 74
0
 42
0.0000001
 43
0.0000001
 44
0.0000000001
 40
0.0
 40
0.0
 40
0.0
 40
0.0
 40
0.0315028381
 40
0.0629875054
 40
0.0944564851
 40
0.1259101001
 40
0.1887761152
 40
0.251593085
 40
0.3770835795
 40
0.5023735353
 40
0.5649368563
 40
0.6274399479
 40
0.6898737593
 40
0.7522220925
 40
0.8144662342
 40
0.8765788013
 40
0.9384857838
 40
1.0
 40
1.0
 40
1.0
 40
1.0
 10
109.0480195963
 20
139.1274860929
 30
0.0
 10
108.8820685246
 20
139.1208997252
 30
0.0
 10
108.5504286736
 20
139.1037991029
 30
0.0
 10
108.0527536426
 20
139.0862832218
 30
0.0
 10
107.5552751008
 20
139.0711266254
 30
0.0
 10
106.8924525479
 20
139.050201491
 30
0.0
 10
106.0642947528
 20
139.0288297956
 30
0.0
 10
104.7402550392
 20
139.0088920617
 30
0.0
 10
103.0870549017
 20
138.9929463738
 30
0.0
 10
101.4351513196
 20
138.9822074705
 30
0.0
 10
100.1152915771
 20
138.9769339144
 30
0.0
 10
99.1267988508
 20
138.9755392699
 30
0.0
 10
98.1394351599
 20
138.9754092517
 30
0.0
 10
97.1534570705
 20
138.9696017865
 30
0.0
 10
96.1691344941
 20
138.9700841133
 30
0.0
 10
95.1872322494
 20
138.9824372976
 30
0.0
 10
94.2091466143
 20
138.9930090377
 30
0.0
 10
93.5584376236
 20
138.9873293626
 30
0.0
 10
93.2341978362
 20
138.981053105
 30
0.0
  0
SPLINE
  5
306
100
AcDbEntity
  8
0
100
AcDbSpline
 62
7
  6
BYLAYER
 70
0
 71
3
 72
10
 73
6
 74
0
 42
0.0000001
 43
0.0000001
 44
0.0000000001
 40
0.0
 40
0.0
 40
0.0
 40
0.0
 40
0.2505882395
 40
0.5007416293
 40
1.0
 40
1.0
 40
1.0
 40
1.0
 10
113.158683216
 20
139.1253495586
 30
0.0
 10
112.8154858523
 20
139.1141543814
 30
0.0
 10
112.1292364405
 20
139.102343679
 30
0.0
 10
110.7591518486
 20
139.1245444541
 30
0.0
 10
109.7319539541
 20
139.1439064463
 30
0.0
 10
109.0480195963
 20
139.1274860929
 30
0.0
  0
SPLINE
  5
307
100
AcDbEntity
  8
0
100
AcDbSpline
 62
7
  6
BYLAYER
 70
0
 71
3
 72
9
 73
5
 74
0
 42
0.0000001
 43
0.0000001
 44
0.0000000001
 40
0.0
 40
0.0
 40
0.0
 40
0.0
 40
0.2583386493
 40
1.0
 40
1.0
 40
1.0
 40
1.0
 10
89.2718840112
 20
138.9687185826
 30
0.0
 10
89.3079994437
 20
137.4487213831
 30
0.0
 10
89.4459200079
 20
131.5649376105
 30
0.0
 10
89.5777191399
 20
125.6810122412
 30
0.0
 10
89.6741562141
 20
121.3171042351
 30
0.0
  0
SPLINE
  5
308
100
AcDbEntity
  8
0
100
AcDbSpline
 62
7
  6
BYLAYER
 70
0
 71
3
 72
15
 73
11
 74
0
 42
0.0000001
 43
0.0000001
 44
0.0000000001
 40
0.0
 40
0.0
 40
0.0
 40
0.0
 40
0.0162448223
 40
0.0405468332
 40
0.112296213
 40
0.2126256409
 40
0.337819687
 40
0.4838599642
 40
0.6462847814
 40
1.0
 40
1.0
 40
1.0
 40
1.0
 10
82.9087051562
 20
49.9120230008
 30
0.0
 10
82.9087051459
 20
49.8870906862
 30
0.0
 10
82.9157979074
 20
49.8250361046
 30
0.0
 10
82.944399479
 20
49.6551834325
 30
0.0
 10
83.0074930035
 20
49.3602745499
 30
0.0
 10
83.1044131505
 20
48.9145237378
 30
0.0
 10
83.2169912247
 20
48.3553994413
 30
0.0
 10
83.3290774912
 20
47.69917784
 30
0.0
 10
83.4602689248
 20
46.6911949064
 30
0.0
 10
83.503916123
 20
45.8982514171
 30
0.0
 10
83.5039161229
 20
45.3553744949
 30
0.0
  0
SPLINE
  5
309
100
AcDbEntity
  8
0
100
AcDbSpline
 62
7
  6
BYLAYER
 70
0
 71
3
 72
14
 73
10
 74
0
 42
0.0000001
 43
0.0000001
 44
0.0000000001
 40
0.0
 40
0.0
 40
0.0
 40
0.0
 40
0.2555164033
 40
0.3835070345
 40
0.5109752705
 40
0.6373521384
 40
0.7617769194
 40
0.8831264612
 40
1.0
 40
1.0
 40
1.0
 40
1.0
 10
84.5652774401
 20
138.9134314483
 30
0.0
 10
84.9325895092
 20
137.4777094841
 30
0.0
 10
85.4750645704
 20
135.3203328356
 30
0.0
 10
86.1231798071
 20
132.428210164
 30
0.0
 10
86.5463264204
 20
130.2540503628
 30
0.0
 10
86.8796135228
 20
128.0845929918
 30
0.0
 10
87.0773229359
 20
125.9338457157
 30
0.0
 10
87.0810408387
 20
123.8246316277
 30
0.0
 10
86.8466742917
 20
122.4540376113
 30
0.0
 10
86.6744172035
 20
121.7984379768
 30
0.0
  0
SPLINE
  5
30A
100
AcDbEntity
  8
0
100
AcDbSpline
 62
7
  6
BYLAYER
 70
0
 71
3
 72
10
 73
6
 74
0
 42
0.0000001
 43
0.0000001
 44
0.0000000001
 40
0.0
 40
0.0
 40
0.0
 40
0.0
 40
0.5412865415
 40
0.7804499307
 40
1.0
 40
1.0
 40
1.0
 40
1.0
 10
86.3597890742
 20
120.397510002
 30
0.0
 10
86.2307270621
 20
119.5343014977
 30
0.0
 10
85.7305206377
 20
118.3095352186
 30
0.0
 10
84.6456047265
 20
117.1075286098
 30
0.0
 10
84.0138799206
 20
116.6923553272
 30
0.0
 10
83.6845567705
 20
116.5624570933
 30
0.0
  0
SPLINE
  5
30B
100
AcDbEntity
  8
0
100
AcDbSpline
 62
7
  6
BYLAYER
 70
0
 71
3
 72
9
 73
5
 74
0
 42
0.0000001
 43
0.0000001
 44
0.0000000001
 40
0.0
 40
0.0
 40
0.0
 40
0.0
 40
0.2483342321
 40
1.0
 40
1.0
 40
1.0
 40
1.0
 10
86.6747234708
 20
121.7982553723
 30
0.0
 10
86.6419527303
 20
121.6839738538
 30
0.0
 10
86.5148083919
 20
121.2224900337
 30
0.0
 10
86.4129650269
 20
120.7534240467
 30
0.0
 10
86.3597540278
 20
120.397528193
 30
0.0
  0
SPLINE
  5
30C
100
AcDbEntity
  8
0
100
AcDbSpline
 62
7
  6
BYLAYER
 70
0
 71
3
 72
9
 73
5
 74
0
 42
0.0000001
 43
0.0000001
 44
0.0000000001
 40
0.0
 40
0.0
 40
0.0
 40
0.0
 40
0.2805430414
 40
1.0
 40
1.0
 40
1.0
 40
1.0
 10
89.6740093681
 20
121.3169380466
 30
0.0
 10
89.3911716242
 20
121.3444324305
 30
0.0
 10
88.3847686083
 20
121.4595726963
 30
0.0
 10
87.3849317253
 20
121.6344206318
 30
0.0
 10
86.6747438739
 20
121.7979000187
 30
0.0
  0
SPLINE
  5
30D
100
AcDbEntity
  8
0
100
AcDbSpline
 62
7
  6
BYLAYER
 70
0
 71
3
 72
8
 73
4
 74
0
 42
0.0000001
 43
0.0000001
 44
0.0000000001
 40
0.0
 40
0.0
 40
0.0
 40
0.0
 40
1.0
 40
1.0
 40
1.0
 40
1.0
 10
90.042794763
 20
100.3720546804
 30
0.0
 10
90.0540851911
 20
100.3704563982
 30
0.0
 10
90.0654624411
 20
100.3693573439
 30
0.0
 10
90.0768548742
 20
100.3688666907
 30
0.0
  0
SPLINE
  5
30E
100
AcDbEntity
  8
0
100
AcDbSpline
 62
7
  6
BYLAYER
 70
0
 71
3
 72
19
 73
15
 74
0
 42
0.0000001
 43
0.0000001
 44
0.0000000001
 40
0.0
 40
0.0
 40
0.0
 40
0.0
 40
0.2262009248
 40
0.4262613172
 40
0.5984524267
 40
0.7413984302
 40
0.8538155685
 40
0.8982816765
 40
0.934805337
 40
0.9633015337
 40
0.9836872667
 40
0.9908233939
 40
0.9959209933
 40
1.0
 40
1.0
 40
1.0
 40
1.0
 10
123.1690711468
 20
228.6556866982
 30
0.0
 10
123.3982259198
 20
228.6490254078
 30
0.0
 10
123.8300668583
 20
228.636927591
 30
0.0
 10
124.4363865316
 20
228.6211789733
 30
0.0
 10
124.9583796325
 20
228.6085915467
 30
0.0
 10
125.3915932169
 20
228.5988234451
 30
0.0
 10
125.6953902908
 20
228.5923647572
 30
0.0
 10
125.89137376
 20
228.5882644534
 30
0.0
 10
126.0022924514
 20
228.5861280057
 30
0.0
 10
126.0888875114
 20
228.5841240614
 30
0.0
 10
126.1455362344
 20
228.5835932004
 30
0.0
 10
126.1787422422
 20
228.5821520954
 30
0.0
 10
126.1950034568
 20
228.5832125303
 30
0.0
 10
126.2048207494
 20
228.5803517273
 30
0.0
 10
126.20862516
 20
228.5819693073
 30
0.0
  0
SPLINE
  5
30F
100
AcDbEntity
  8
0
100
AcDbSpline
 62
7
  6
BYLAYER
 70
0
 71
3
 72
15
 73
11
 74
0
 42
0.0000001
 43
0.0000001
 44
0.0000000001
 40
0.0
 40
0.0
 40
0.0
 40
0.0
 40
0.1744629094
 40
0.3506781288
 40
0.5195021598
 40
0.6710188666
 40
0.7965144987
 40
0.8482287478
 40
0.8922178646
 40
1.0
 40
1.0
 40
1.0
 40
1.0
 10
122.0297530015
 20
31.7963611714
 30
0.0
 10
122.098164675
 20
31.5132485404
 30
0.0
 10
122.2234954852
 20
30.9411728461
 30
0.0
 10
122.3709147208
 20
30.08609576
 30
0.0
 10
122.4667432791
 20
29.262351091
 30
0.0
 10
122.5044536238
 20
28.5177580102
 30
0.0
 10
122.4823061265
 20
27.9696658228
 30
0.0
 10
122.4253481998
 20
27.6014733982
 30
0.0
 10
122.3477105921
 20
27.2807423256
 30
0.0
 10
122.2040000007
 20
26.9994334692
 30
0.0
 10
122.0297530015
 20
26.954532324
 30
0.0
  0
SPLINE
  5
310
100
AcDbEntity
  8
0
100
AcDbSpline
 62
7
  6
BYLAYER
 70
0
 71
3
 72
9
 73
5
 74
0
 42
0.0000001
 43
0.0000001
 44
0.0000000001
 40
0.0
 40
0.0
 40
0.0
 40
0.0
 40
0.2596133112
 40
1.0
 40
1.0
 40
1.0
 40
1.0
 10
122.1509752462
 20
99.3060192765
 30
0.0
 10
122.1415097006
 20
99.3118891154
 30
0.0
 10
122.1039956132
 20
99.3326336778
 30
0.0
 10
122.0614597224
 20
99.3452595406
 30
0.0
 10
122.0297530015
 20
99.3471632979
 30
0.0
  0
SPLINE
  5
311
100
AcDbEntity
  8
0
100
AcDbSpline
 62
7
  6
BYLAYER
 70
0
 71
3
 72
19
 73
15
 74
0
 42
0.0000001
 43
0.0000001
 44
0.0000000001
 40
0.0
 40
0.0
 40
0.0
 40
0.0
 40
0.012610737
 40
0.0274615214
 40
0.0486272734
 40
0.0778783464
 40
0.1159708845
 40
0.162884132
 40
0.2183340644
 40
0.2819781976
 40
0.4317522042
 40
0.6059349999
 40
0.7974164152
 40
1.0
 40
1.0
 40
1.0
 40
1.0
 10
128.4087051562
 20
96.4689487959
 30
0.0
 10
128.4087052039
 20
96.439121873
 30
0.0
 10
128.3849609143
 20
96.3713780431
 30
0.0
 10
128.2768499399
 20
96.315474291
 30
0.0
 10
128.1229782458
 20
96.297156381
 30
0.0
 10
127.9130477475
 20
96.3124139035
 30
0.0
 10
127.6478298832
 20
96.3659414942
 30
0.0
 10
127.3284720126
 20
96.4585841584
 30
0.0
 10
126.9589680012
 20
96.5919797585
 30
0.0
 10
126.3728543378
 20
96.839380276
 30
0.0
 10
125.5542030769
 20
97.2539388835
 30
0.0
 10
124.4944449116
 20
97.8569339138
 30
0.0
 10
123.34824592
 20
98.5590627346
 30
0.0
 10
122.5581773754
 20
99.0534874588
 30
0.0
 10
122.1509689225
 20
99.3060083164
 30
0.0
  0
SPLINE
  5
312
100
AcDbEntity
  8
0
100
AcDbSpline
 62
7
  6
BYLAYER
 70
0
 71
3
 72
27
 73
23
 74
0
 42
0.0000001
 43
0.0000001
 44
0.0000000001
 40
0.0
 40
0.0
 40
0.0
 40
0.0
 40
0.0096066362
 40
0.0163354188
 40
0.0192994506
 40
0.0224611269
 40
0.030408489
 40
0.0414323584
 40
0.0558692429
 40
0.0736696182
 40
0.0945800866
 40
0.1183052178
 40
0.1445504846
 40
0.2034363771
 40
0.2692387583
 40
0.3402451714
 40
0.4153010696
 40
0.4934978606
 40
0.5741860011
 40
0.656798237
 40
0.8264074976
 40
1.0
 40
1.0
 40
1.0
 40
1.0
 10
77.408699306
 20
176.5404603607
 30
0.0
 10
77.4086990508
 20
176.5995526806
 30
0.0
 10
77.414123372
 20
176.7003138017
 30
0.0
 10
77.4675683202
 20
176.8143137261
 30
0.0
 10
77.5362001842
 20
176.8575123295
 30
0.0
 10
77.6224573583
 20
176.8750057154
 30
0.0
 10
77.7594274608
 20
176.8448520133
 30
0.0
 10
77.9435567149
 20
176.7531458523
 30
0.0
 10
78.1639550432
 20
176.6026092409
 30
0.0
 10
78.4176112918
 20
176.3961903687
 30
0.0
 10
78.7024100434
 20
176.138299246
 30
0.0
 10
79.0146437223
 20
175.8338996827
 30
0.0
 10
79.4813134703
 20
175.3536247161
 30
0.0
 10
80.1073659803
 20
174.667784984
 30
0.0
 10
80.8969681854
 20
173.7591082862
 30
0.0
 10
81.7358057885
 20
172.7616846256
 30
0.0
 10
82.6113714985
 20
171.6956845925
 30
0.0
 10
83.5154603716
 20
170.5761188629
 30
0.0
 10
84.441536247
 20
169.414610105
 30
0.0
 10
85.7113609368
 20
167.8080530998
 30
0.0
 10
87.3224516592
 20
165.7428497905
 30
0.0
 10
88.6132966934
 20
164.0723804541
 30
0.0
 10
89.2675996983
 20
163.2285271958
 30
0.0
  0
SPLINE
  5
313
100
AcDbEntity
  8
0
100
AcDbSpline
 62
7
  6
BYLAYER
 70
0
 71
3
 72
14
 73
10
 74
0
 42
0.0000001
 43
0.0000001
 44
0.0000000001
 40
0.0
 40
0.0
 40
0.0
 40
0.0
 40
0.3471811759
 40
0.4986995293
 40
0.6321915767
 40
0.746958871
 40
0.8439278326
 40
0.9263133923
 40
1.0
 40
1.0
 40
1.0
 40
1.0
 10
122.0297530015
 20
31.7963611714
 30
0.0
 10
122.9158515722
 20
31.8916317472
 30
0.0
 10
124.1850023729
 20
32.1111323232
 30
0.0
 10
125.7304534154
 20
32.6137967304
 30
0.0
 10
126.6678539854
 20
33.0379041358
 30
0.0
 10
127.4193034098
 20
33.5145851549
 30
0.0
 10
127.9751246258
 20
34.0343807048
 30
0.0
 10
128.3249979552
 20
34.5930431815
 30
0.0
 10
128.4087051562
 20
34.9964896734
 30
0.0
 10
128.4087051562
 20
35.1856413646
 30
0.0
  0
SPLINE
  5
314
100
AcDbEntity
  8
0
100
AcDbSpline
 62
7
  6
BYLAYER
 70
0
 71
3
 72
11
 73
7
 74
0
 42
0.0000001
 43
0.0000001
 44
0.0000000001
 40
0.0
 40
0.0
 40
0.0
 40
0.0
 40
0.2383653017
 40
0.4875166656
 40
0.7422849383
 40
1.0
 40
1.0
 40
1.0
 40
1.0
 10
135.9205542676
 20
122.1658299983
 30
0.0
 10
135.9753538448
 20
122.7046122596
 30
0.0
 10
136.1122098973
 20
123.8043605742
 30
0.0
 10
136.405356946
 20
125.4653677743
 30
0.0
 10
136.7021237836
 20
127.1701666461
 30
0.0
 10
136.8670812728
 20
128.3230447347
 30
0.0
 10
136.9411445117
 20
128.9038659516
 30
0.0
  0
SPLINE
  5
315
100
AcDbEntity
  8
0
100
AcDbSpline
 62
7
  6
BYLAYER
 70
0
 71
3
 72
8
 73
4
 74
0
 42
0.0000001
 43
0.0000001
 44
0.0000000001
 40
0.0
 40
0.0
 40
0.0
 40
0.0
 40
1.0
 40
1.0
 40
1.0
 40
1.0
 10
134.1226739329
 20
120.6725556404
 30
0.0
 10
134.7445407134
 20
121.1418076896
 30
0.0
 10
135.339658457
 20
121.6467193785
 30
0.0
 10
135.9205542676
 20
122.1658299983
 30
0.0
  0
SPLINE
  5
316
100
AcDbEntity
  8
0
100
AcDbSpline
 62
7
  6
BYLAYER
 70
0
 71
3
 72
9
 73
5
 74
0
 42
0.0000001
 43
0.0000001
 44
0.0000000001
 40
0.0
 40
0.0
 40
0.0
 40
0.0
 40
0.2533660768
 40
1.0
 40
1.0
 40
1.0
 40
1.0
 10
132.3635680431
 20
120.5018835314
 30
0.0
 10
132.5124760733
 20
120.5123434949
 30
0.0
 10
133.0999715644
 20
120.5564725966
 30
0.0
 10
133.6865165039
 20
120.6153560656
 30
0.0
 10
134.1226739329
 20
120.6725556404
 30
0.0
  0
SPLINE
  5
317
100
AcDbEntity
  8
0
100
AcDbSpline
 62
7
  6
BYLAYER
 70
0
 71
3
 72
9
 73
5
 74
0
 42
0.0000001
 43
0.0000001
 44
0.0000000001
 40
0.0
 40
0.0
 40
0.0
 40
0.0
 40
0.5175324874
 40
1.0
 40
1.0
 40
1.0
 40
1.0
 10
135.920571072
 20
122.1658143436
 30
0.0
 10
136.1278380798
 20
122.3510456478
 30
0.0
 10
136.5620663158
 20
122.6677471378
 30
0.0
 10
136.9729249806
 20
123.0173628144
 30
0.0
 10
137.1496168452
 20
123.2069259754
 30
0.0
  0
SPLINE
  5
318
100
AcDbEntity
  8
0
100
AcDbSpline
 62
7
  6
BYLAYER
 70
0
 71
3
 72
8
 73
4
 74
0
 42
0.0000001
 43
0.0000001
 44
0.0000000001
 40
0.0
 40
0.0
 40
0.0
 40
0.0
 40
1.0
 40
1.0
 40
1.0
 40
1.0
 10
122.0796041266
 20
101.130366923
 30
0.0
 10
122.2137251119
 20
101.1345940393
 30
0.0
 10
122.3492419392
 20
101.1209254753
 30
0.0
 10
122.4803801851
 20
101.0924813602
 30
0.0
  0
SPLINE
  5
319
100
AcDbEntity
  8
0
100
AcDbSpline
 62
7
  6
BYLAYER
 70
0
 71
3
 72
16
 73
12
 74
0
 42
0.0000001
 43
0.0000001
 44
0.0000000001
 40
0.0
 40
0.0
 40
0.0
 40
0.0
 40
0.0625074585
 40
0.1250694436
 40
0.1876447583
 40
0.2502520332
 40
0.3754827036
 40
0.5006460018
 40
0.6256811085
 40
0.7505754287
 40
1.0
 40
1.0
 40
1.0
 40
1.0
 10
115.6688166666
 20
100.1654101236
 30
0.0
 10
115.7951996924
 20
100.2146251253
 30
0.0
 10
116.0529173388
 20
100.3003954123
 30
0.0
 10
116.4430497065
 20
100.4167632179
 30
0.0
 10
116.8363566823
 20
100.5231983205
 30
0.0
 10
117.3657240345
 20
100.6460366692
 30
0.0
 10
118.0331618089
 20
100.7729065463
 30
0.0
 10
118.8385445292
 20
100.8959542798
 30
0.0
 10
119.6469340423
 20
100.9917772846
 30
0.0
 10
120.7266883082
 20
101.0828332269
 30
0.0
 10
121.5384915425
 20
101.1208524429
 30
0.0
 10
122.0796041266
 20
101.130366923
 30
0.0
  0
SPLINE
  5
31A
100
AcDbEntity
  8
0
100
AcDbSpline
 62
7
  6
BYLAYER
 70
0
 71
3
 72
10
 73
6
 74
0
 42
0.0000001
 43
0.0000001
 44
0.0000000001
 40
0.0
 40
0.0
 40
0.0
 40
0.0
 40
0.2602551378
 40
0.5263729002
 40
1.0
 40
1.0
 40
1.0
 40
1.0
 10
115.6686284908
 20
119.6447831117
 30
0.0
 10
117.1181961605
 20
119.6916138322
 30
0.0
 10
120.0498031393
 20
119.7929423448
 30
0.0
 10
125.6168857473
 20
120.0455262349
 30
0.0
 10
129.7314301421
 20
120.306745221
 30
0.0
 10
132.3635709589
 20
120.5021218222
 30
0.0
  0
SPLINE
  5
31B
100
AcDbEntity
  8
0
100
AcDbSpline
 62
7
  6
BYLAYER
 70
0
 71
3
 72
11
 73
7
 74
0
 42
0.0000001
 43
0.0000001
 44
0.0000000001
 40
0.0
 40
0.0
 40
0.0
 40
0.0
 40
0.2473960198
 40
0.4970710556
 40
0.7482709589
 40
1.0
 40
1.0
 40
1.0
 40
1.0
 10
136.9407503104
 20
128.9043044348
 30
0.0
 10
137.0658141969
 20
129.75973049
 30
0.0
 10
137.3259228494
 20
131.4774897229
 30
0.0
 10
137.8370382648
 20
134.0429534221
 30
0.0
 10
138.4653294719
 20
136.597417544
 30
0.0
 10
138.9566744635
 20
138.2857212565
 30
0.0
 10
139.227353619
 20
139.1227023124
 30
0.0
  0
SPLINE
  5
31C
100
AcDbEntity
  8
0
100
AcDbSpline
 62
7
  6
BYLAYER
 70
0
 71
3
 72
13
 73
9
 74
0
 42
0.0000001
 43
0.0000001
 44
0.0000000001
 40
0.0
 40
0.0
 40
0.0
 40
0.0
 40
0.3687123225
 40
0.5370718394
 40
0.6846246072
 40
0.8051653999
 40
0.8964388362
 40
1.0
 40
1.0
 40
1.0
 40
1.0
 10
136.941144553
 20
128.9038659057
 30
0.0
 10
137.1431913183
 20
128.8845016805
 30
0.0
 10
137.4385656701
 20
128.865638256
 30
0.0
 10
137.81592384
 20
128.8696753976
 30
0.0
 10
138.0549703636
 20
128.886008353
 30
0.0
 10
138.2529885723
 20
128.9188462552
 30
0.0
 10
138.4136181962
 20
128.9634573425
 30
0.0
 10
138.5235889969
 20
129.0343057746
 30
0.0
 10
138.5321134356
 20
129.0906742786
 30
0.0
  0
SPLINE
  5
31D
100
AcDbEntity
  8
0
100
AcDbSpline
 62
7
  6
BYLAYER
 70
0
 71
3
 72
15
 73
11
 74
0
 42
0.0000001
 43
0.0000001
 44
0.0000000001
 40
0.0
 40
0.0
 40
0.0
 40
0.0
 40
0.146651397
 40
0.2914152399
 40
0.4324723926
 40
0.567588047
 40
0.6944497586
 40
0.8112267108
 40
0.9144943722
 40
1.0
 40
1.0
 40
1.0
 40
1.0
 10
83.6844644011
 20
116.5625703143
 30
0.0
 10
83.8448826556
 20
115.8477656503
 30
0.0
 10
84.135954349
 20
114.4204673862
 30
0.0
 10
84.3957076142
 20
112.2722963635
 30
0.0
 10
84.4247924684
 20
110.1657217881
 30
0.0
 10
84.2510783192
 20
108.1569131222
 30
0.0
 10
83.929947935
 20
106.2909042692
 30
0.0
 10
83.5527725985
 20
104.599160521
 30
0.0
 10
83.2010605627
 20
103.1143881092
 30
0.0
 10
82.9970951786
 20
102.192631799
 30
0.0
 10
82.9319641815
 20
101.7704907763
 30
0.0
  0
SPLINE
  5
31E
100
AcDbEntity
  8
0
100
AcDbSpline
 62
7
  6
BYLAYER
 70
0
 71
3
 72
9
 73
5
 74
0
 42
0.0000001
 43
0.0000001
 44
0.0000000001
 40
0.0
 40
0.0
 40
0.0
 40
0.0
 40
0.5461114027
 40
1.0
 40
1.0
 40
1.0
 40
1.0
 10
82.9299697403
 20
101.7574995898
 30
0.0
 10
82.9041216149
 20
101.588287081
 30
0.0
 10
82.8656034532
 20
101.277071494
 30
0.0
 10
82.8542213743
 20
100.9628380581
 30
0.0
 10
82.8614458819
 20
100.8207529499
 30
0.0
  0
SPLINE
  5
31F
100
AcDbEntity
  8
0
100
AcDbSpline
 62
7
  6
BYLAYER
 70
0
 71
3
 72
9
 73
5
 74
0
 42
0.0000001
 43
0.0000001
 44
0.0000000001
 40
0.0
 40
0.0
 40
0.0
 40
0.0
 40
0.2442265731
 40
1.0
 40
1.0
 40
1.0
 40
1.0
 10
82.9311510785
 20
118.600463719
 30
0.0
 10
82.9682596125
 20
118.4271974086
 30
0.0
 10
83.1472819567
 20
117.723701515
 30
0.0
 10
83.4274008092
 20
117.0469068707
 30
0.0
 10
83.6845370018
 20
116.562593048
 30
0.0
  0
SPLINE
  5
320
100
AcDbEntity
  8
0
100
AcDbSpline
 62
7
  6
BYLAYER
 70
0
 71
3
 72
13
 73
9
 74
0
 42
0.0000001
 43
0.0000001
 44
0.0000000001
 40
0.0
 40
0.0
 40
0.0
 40
0.0
 40
0.3282335643
 40
0.4699065488
 40
0.5964157492
 40
0.8147222283
 40
0.9112691196
 40
1.0
 40
1.0
 40
1.0
 40
1.0
 10
84.4136293832
 20
121.1829347412
 30
0.0
 10
84.4241357923
 20
120.8354753597
 30
0.0
 10
84.3812422143
 20
120.3288152201
 30
0.0
 10
84.157810476
 20
119.7344187824
 30
0.0
 10
83.8900031296
 20
119.2915042272
 30
0.0
 10
83.5539249446
 20
118.955043951
 30
0.0
 10
83.1963543282
 20
118.7199805768
 30
0.0
 10
83.0192556065
 20
118.6331067183
 30
0.0
 10
82.9311378049
 20
118.6004598178
 30
0.0
  0
SPLINE
  5
321
100
AcDbEntity
  8
0
100
AcDbSpline
 62
7
  6
BYLAYER
 70
0
 71
3
 72
9
 73
5
 74
0
 42
0.0000001
 43
0.0000001
 44
0.0000000001
 40
0.0
 40
0.0
 40
0.0
 40
0.0
 40
0.4610410488
 40
1.0
 40
1.0
 40
1.0
 40
1.0
 10
84.4136293832
 20
121.1829347411
 30
0.0
 10
84.6883077519
 20
121.0123271291
 30
0.0
 10
85.3250664498
 20
120.7086965023
 30
0.0
 10
85.9943458999
 20
120.4942613151
 30
0.0
 10
86.3597560173
 20
120.3975271593
 30
0.0
  0
SPLINE
  5
322
100
AcDbEntity
  8
0
100
AcDbSpline
 62
7
  6
BYLAYER
 70
0
 71
3
 72
12
 73
8
 74
0
 42
0.0000001
 43
0.0000001
 44
0.0000000001
 40
0.0
 40
0.0
 40
0.0
 40
0.0
 40
0.1424747738
 40
0.2754783361
 40
0.525408404
 40
0.7652751294
 40
1.0
 40
1.0
 40
1.0
 40
1.0
 10
84.5655582912
 20
138.9133252489
 30
0.0
 10
84.411128448
 20
138.8981143197
 30
0.0
 10
84.1070586129
 20
138.9114668508
 30
0.0
 10
83.5538268237
 20
139.0705917476
 30
0.0
 10
82.9614361248
 20
139.4196881442
 30
0.0
 10
82.3739875962
 20
139.950248731
 30
0.0
 10
82.0375759743
 20
140.3443317002
 30
0.0
 10
81.8806673091
 20
140.5461671055
 30
0.0
  0
SPLINE
  5
323
100
AcDbEntity
  8
0
100
AcDbSpline
 62
7
  6
BYLAYER
 70
0
 71
3
 72
9
 73
5
 74
0
 42
0.0000001
 43
0.0000001
 44
0.0000000001
 40
0.0
 40
0.0
 40
0.0
 40
0.0
 40
0.4614784193
 40
1.0
 40
1.0
 40
1.0
 40
1.0
 10
84.3717475523
 20
122.7729868612
 30
0.0
 10
84.6910930338
 20
122.5562688394
 30
0.0
 10
85.4431748157
 20
122.1761831153
 30
0.0
 10
86.2395019055
 20
121.914066975
 30
0.0
 10
86.6747263318
 20
121.7982533949
 30
0.0
  0
SPLINE
  5
324
100
AcDbEntity
  8
0
100
AcDbSpline
 62
7
  6
BYLAYER
 70
0
 71
3
 72
9
 73
5
 74
0
 42
0.0000001
 43
0.0000001
 44
0.0000000001
 40
0.0
 40
0.0
 40
0.0
 40
0.0
 40
0.2878846571
 40
1.0
 40
1.0
 40
1.0
 40
1.0
 10
81.8807071139
 20
140.5462772656
 30
0.0
 10
81.8067254692
 20
140.5435120059
 30
0.0
 10
81.549802273
 20
140.5333429386
 30
0.0
 10
81.2926933759
 20
140.5210097325
 30
0.0
 10
81.1105159073
 20
140.5023580487
 30
0.0
  0
SPLINE
  5
325
100
AcDbEntity
  8
0
100
AcDbSpline
 62
7
  6
BYLAYER
 70
0
 71
3
 72
22
 73
18
 74
0
 42
0.0000001
 43
0.0000001
 44
0.0000000001
 40
0.0
 40
0.0
 40
0.0
 40
0.0
 40
0.2253657982
 40
0.4248869408
 40
0.5969834368
 40
0.7400740027
 40
0.8002657282
 40
0.8527212416
 40
0.8973513832
 40
0.9340669797
 40
0.9627788448
 40
0.9741055041
 40
0.9833977798
 40
0.9906445203
 40
0.9958345728
 40
0.9989567841
 40
1.0
 40
1.0
 40
1.0
 40
1.0
 10
81.110525832
 20
140.5023142846
 30
0.0
 10
80.8388623766
 20
140.7872661681
 30
0.0
 10
80.3275752199
 20
141.3253373695
 30
0.0
 10
79.6115880085
 20
142.0836137845
 30
0.0
 10
78.9960982526
 20
142.7391007893
 30
0.0
 10
78.5483257193
 20
143.2181856843
 30
0.0
 10
78.2436669257
 20
143.5449500666
 30
0.0
 10
78.056446945
 20
143.7460394385
 30
0.0
 10
77.8973047595
 20
143.9172443214
 30
0.0
 10
77.7664811401
 20
144.0581175357
 30
0.0
 10
77.6753661087
 20
144.1565285431
 30
0.0
 10
77.6167534732
 20
144.2196407854
 30
0.0
 10
77.5838218745
 20
144.2556240669
 30
0.0
 10
77.5577143166
 20
144.2828378844
 30
0.0
 10
77.5400316534
 20
144.3042907301
 30
0.0
 10
77.5276001863
 20
144.3136762604
 30
0.0
 10
77.5240589537
 20
144.3217431327
 30
0.0
 10
77.5222499915
 20
144.3219642557
 30
0.0
  0
SPLINE
  5
326
100
AcDbEntity
  8
0
100
AcDbSpline
 62
7
  6
BYLAYER
 70
0
 71
3
 72
12
 73
8
 74
0
 42
0.0000001
 43
0.0000001
 44
0.0000000001
 40
0.0
 40
0.0
 40
0.0
 40
0.0
 40
0.118462471
 40
0.2409953069
 40
0.4922836206
 40
0.7466620999
 40
1.0
 40
1.0
 40
1.0
 40
1.0
 10
84.3717475996
 20
122.7729940391
 30
0.0
 10
84.3612695124
 20
123.4862842582
 30
0.0
 10
84.2757340319
 20
124.9364505247
 30
0.0
 10
83.9442109226
 20
127.8830513877
 30
0.0
 10
83.2936060259
 20
131.6129582389
 30
0.0
 10
82.2786176923
 20
136.0704054338
 30
0.0
 10
81.50687601
 20
139.0291553592
 30
0.0
 10
81.1105197013
 20
140.5023387748
 30
0.0
  0
SPLINE
  5
327
100
AcDbEntity
  8
0
100
AcDbSpline
 62
7
  6
BYLAYER
 70
0
 71
3
 72
11
 73
7
 74
0
 42
0.0000001
 43
0.0000001
 44
0.0000000001
 40
0.0
 40
0.0
 40
0.0
 40
0.0
 40
0.1632831088
 40
0.3968494442
 40
0.6842863779
 40
1.0
 40
1.0
 40
1.0
 40
1.0
 10
84.3057301306
 20
160.8197282579
 30
0.0
 10
84.5530860542
 20
160.9904471281
 30
0.0
 10
85.186543257
 20
161.3572088576
 30
0.0
 10
86.3097716564
 20
161.9269159216
 30
0.0
 10
87.7095529886
 20
162.5703198142
 30
0.0
 10
88.7306192448
 20
163.0063613919
 30
0.0
 10
89.267598107
 20
163.2285262328
 30
0.0
  0
SPLINE
  5
328
100
AcDbEntity
  8
0
100
AcDbSpline
 62
7
  6
BYLAYER
 70
0
 71
3
 72
29
 73
25
 74
0
 42
0.0000001
 43
0.0000001
 44
0.0000000001
 40
0.0
 40
0.0
 40
0.0
 40
0.0
 40
0.0129254916
 40
0.0204267584
 40
0.0234365205
 40
0.0272389709
 40
0.032372456
 40
0.0389351413
 40
0.0468480455
 40
0.0560111757
 40
0.0776291448
 40
0.1027290087
 40
0.1304297433
 40
0.1601151315
 40
0.191339029
 40
0.2571359427
 40
0.3260786248
 40
0.3971648048
 40
0.4698035254
 40
0.5436008788
 40
0.6182841139
 40
0.6936697867
 40
0.846064561
 40
1.0
 40
1.0
 40
1.0
 40
1.0
 10
77.7454272346
 20
174.4958857051
 30
0.0
 10
77.7481618895
 20
174.5639307496
 30
0.0
 10
77.7552679215
 20
174.6664290026
 30
0.0
 10
77.8119738736
 20
174.796972612
 30
0.0
 10
77.8922744238
 20
174.8092903756
 30
0.0
 10
77.9508415074
 20
174.7813586451
 30
0.0
 10
78.0146023381
 20
174.7303503169
 30
0.0
 10
78.0854582772
 20
174.6546711201
 30
0.0
 10
78.162926142
 20
174.5571209177
 30
0.0
 10
78.2803656197
 20
174.3903482272
 30
0.0
 10
78.434466967
 20
174.1392400106
 30
0.0
 10
78.6254151618
 20
173.7967453353
 30
0.0
 10
78.8266045825
 20
173.4114791175
 30
0.0
 10
79.0349355355
 20
172.9936654862
 30
0.0
 10
79.3244975826
 20
172.3921453095
 30
0.0
 10
79.6918650462
 20
171.5986101407
 30
0.0
 10
80.1354892084
 20
170.6090632178
 30
0.0
 10
80.5859084011
 20
169.5831002992
 30
0.0
 10
81.0408200608
 20
168.5311999111
 30
0.0
 10
81.4992652847
 20
167.4601906224
 30
0.0
 10
81.9607940187
 20
166.3747632951
 30
0.0
 10
82.5821880227
 20
164.9073301869
 30
0.0
 10
83.3623660957
 20
163.0536933423
 30
0.0
 10
83.9908055713
 20
161.5671216478
 30
0.0
 10
84.3057299965
 20
160.8197281653
 30
0.0
  0
SPLINE
  5
329
100
AcDbEntity
  8
0
100
AcDbSpline
 62
7
  6
BYLAYER
 70
0
 71
3
 72
11
 73
7
 74
0
 42
0.0000001
 43
0.0000001
 44
0.0000000001
 40
0.0
 40
0.0
 40
0.0
 40
0.0
 40
0.1765015858
 40
0.4133516893
 40
0.6951296692
 40
1.0
 40
1.0
 40
1.0
 40
1.0
 10
86.611313591
 20
155.7790710886
 30
0.0
 10
86.8634508919
 20
155.9661347292
 30
0.0
 10
87.4809565544
 20
156.3671699419
 30
0.0
 10
88.5526163791
 20
156.9841622965
 30
0.0
 10
89.8490866846
 20
157.666671341
 30
0.0
 10
90.7859050558
 20
158.126551191
 30
0.0
 10
91.2754948146
 20
158.3597429159
 30
0.0
  0
SPLINE
  5
32A
100
AcDbEntity
  8
0
100
AcDbSpline
 62
7
  6
BYLAYER
 70
0
 71
3
 72
9
 73
5
 74
0
 42
0.0000001
 43
0.0000001
 44
0.0000000001
 40
0.0
 40
0.0
 40
0.0
 40
0.0
 40
0.5010612343
 40
1.0
 40
1.0
 40
1.0
 40
1.0
 10
91.2755201073
 20
158.3597549628
 30
0.0
 10
91.8089961096
 20
157.1592982909
 30
0.0
 10
92.6420992116
 20
154.6592535968
 30
0.0
 10
93.1130736485
 20
152.070054783
 30
0.0
 10
93.2429575532
 20
150.7684272956
 30
0.0
  0
SPLINE
  5
32B
100
AcDbEntity
  8
0
100
AcDbSpline
 62
7
  6
BYLAYER
 70
0
 71
3
 72
9
 73
5
 74
0
 42
0.0000001
 43
0.0000001
 44
0.0000000001
 40
0.0
 40
0.0
 40
0.0
 40
0.0
 40
0.2507248487
 40
1.0
 40
1.0
 40
1.0
 40
1.0
 10
89.267602228
 20
163.2285279378
 30
0.0
 10
89.4261173395
 20
162.8178843778
 30
0.0
 10
90.0659548704
 20
161.1830394301
 30
0.0
 10
90.7412949884
 20
159.5618283759
 30
0.0
 10
91.2754948146
 20
158.3597429159
 30
0.0
  0
SPLINE
  5
32C
100
AcDbEntity
  8
0
100
AcDbSpline
 62
7
  6
BYLAYER
 70
0
 71
3
 72
9
 73
5
 74
0
 42
0.0000001
 43
0.0000001
 44
0.0000000001
 40
0.0
 40
0.0
 40
0.0
 40
0.0
 40
0.4814596337
 40
1.0
 40
1.0
 40
1.0
 40
1.0
 10
88.0660760691
 20
143.4030032421
 30
0.0
 10
88.2327470322
 20
143.0325206339
 30
0.0
 10
88.6137003298
 20
142.2786711206
 30
0.0
 10
89.0374957766
 20
141.548554043
 30
0.0
 10
89.2676004346
 20
141.1764133278
 30
0.0
  0
SPLINE
  5
32D
100
AcDbEntity
  8
0
100
AcDbSpline
 62
7
  6
BYLAYER
 70
0
 71
3
 72
9
 73
5
 74
0
 42
0.0000001
 43
0.0000001
 44
0.0000000001
 40
0.0
 40
0.0
 40
0.0
 40
0.0
 40
0.2389083687
 40
1.0
 40
1.0
 40
1.0
 40
1.0
 10
83.4929208489
 20
143.1794404198
 30
0.0
 10
83.3936119236
 20
143.0234797958
 30
0.0
 10
83.0236320292
 20
142.3422309944
 30
0.0
 10
82.8235869382
 20
141.5724206686
 30
0.0
 10
82.7700138061
 20
140.9858426561
 30
0.0
  0
SPLINE
  5
32E
100
AcDbEntity
  8
0
100
AcDbSpline
 62
7
  6
BYLAYER
 70
0
 71
3
 72
11
 73
7
 74
0
 42
0.0000001
 43
0.0000001
 44
0.0000000001
 40
0.0
 40
0.0
 40
0.0
 40
0.0
 40
0.2697444458
 40
0.528592907
 40
0.7740561735
 40
1.0
 40
1.0
 40
1.0
 40
1.0
 10
88.0660760691
 20
143.4030032421
 30
0.0
 10
87.6740804216
 20
143.2621068462
 30
0.0
 10
86.8753906738
 20
143.0693631351
 30
0.0
 10
85.6830986641
 20
142.9557330327
 30
0.0
 10
84.5533895056
 20
142.9754259779
 30
0.0
 10
83.8298278025
 20
143.0885719521
 30
0.0
 10
83.4929557039
 20
143.1794304039
 30
0.0
  0
SPLINE
  5
32F
100
AcDbEntity
  8
0
100
AcDbSpline
 62
7
  6
BYLAYER
 70
0
 71
3
 72
9
 73
5
 74
0
 42
0.0000001
 43
0.0000001
 44
0.0000000001
 40
0.0
 40
0.0
 40
0.0
 40
0.0
 40
0.2428566557
 40
1.0
 40
1.0
 40
1.0
 40
1.0
 10
82.5014983419
 20
142.3140526023
 30
0.0
 10
82.4877003595
 20
142.2126238283
 30
0.0
 10
82.4497679938
 20
141.7925241395
 30
0.0
 10
82.4782350405
 20
141.3672561277
 30
0.0
 10
82.5319646497
 20
141.0526791374
 30
0.0
  0
SPLINE
  5
330
100
AcDbEntity
  8
0
100
AcDbSpline
 62
7
  6
BYLAYER
 70
0
 71
3
 72
9
 73
5
 74
0
 42
0.0000001
 43
0.0000001
 44
0.0000000001
 40
0.0
 40
0.0
 40
0.0
 40
0.0
 40
0.7511166044
 40
1.0
 40
1.0
 40
1.0
 40
1.0
 10
81.9592466369
 20
141.7138344129
 30
0.0
 10
81.8940330574
 20
141.4275064642
 30
0.0
 10
81.8524698226
 20
141.0338131415
 30
0.0
 10
81.8718534545
 20
140.643162064
 30
0.0
 10
81.8807102603
 20
140.5462612103
 30
0.0
  0
SPLINE
  5
331
100
AcDbEntity
  8
0
100
AcDbSpline
 62
7
  6
BYLAYER
 70
0
 71
3
 72
15
 73
11
 74
0
 42
0.0000001
 43
0.0000001
 44
0.0000000001
 40
0.0
 40
0.0
 40
0.0
 40
0.0
 40
0.0162448223
 40
0.0405468332
 40
0.112296213
 40
0.2126256409
 40
0.337819687
 40
0.4838599642
 40
0.6462847814
 40
1.0
 40
1.0
 40
1.0
 40
1.0
 10
82.9087051562
 20
97.9120230008
 30
0.0
 10
82.9087051459
 20
97.8870906862
 30
0.0
 10
82.9157979074
 20
97.8250361046
 30
0.0
 10
82.944399479
 20
97.6551834325
 30
0.0
 10
83.0074930035
 20
97.3602745499
 30
0.0
 10
83.1044131505
 20
96.9145237378
 30
0.0
 10
83.2169912247
 20
96.3553994413
 30
0.0
 10
83.3290774912
 20
95.69917784
 30
0.0
 10
83.4602689248
 20
94.6911949064
 30
0.0
 10
83.503916123
 20
93.8982514171
 30
0.0
 10
83.5039161229
 20
93.3553744949
 30
0.0
  0
LINE
  5
332
100
AcDbEntity
  8
0
100
AcDbLine
 62
7
  6
BYLAYER
 10
89.4959826262
 20
207.5853744319
 11
89.0479545462
 21
207.5932566752
  0
SPLINE
  5
333
100
AcDbEntity
  8
0
100
AcDbSpline
 62
7
  6
BYLAYER
 70
0
 71
3
 72
19
 73
15
 74
0
 42
0.0000001
 43
0.0000001
 44
0.0000000001
 40
0.0
 40
0.0
 40
0.0
 40
0.0
 40
0.052235773
 40
0.1016043263
 40
0.148431936
 40
0.1943106929
 40
0.2417717402
 40
0.2937372778
 40
0.3525106431
 40
0.4180254555
 40
0.5620428892
 40
0.7119800503
 40
0.8592872513
 40
1.0
 40
1.0
 40
1.0
 40
1.0
 10
82.6724617912
 20
207.641991008
 30
0.0
 10
82.5044489785
 20
207.6371015597
 30
0.0
 10
82.1762738978
 20
207.6597478853
 30
0.0
 10
81.7089037888
 20
207.7651894195
 30
0.0
 10
81.2835825216
 20
207.9428080025
 30
0.0
 10
80.923472781
 20
208.225191742
 30
0.0
 10
80.6559681228
 20
208.6177926096
 30
0.0
 10
80.5066869507
 20
209.1119634388
 30
0.0
 10
80.4915360176
 20
209.6841738563
 30
0.0
 10
80.6429116776
 20
210.538486334
 30
0.0
 10
81.1088791793
 20
211.612024921
 30
0.0
 10
81.9039721316
 20
212.7932194993
 30
0.0
 10
82.8345341622
 20
213.8551902354
 30
0.0
 10
83.5134540418
 20
214.4894608872
 30
0.0
 10
83.8647155848
 20
214.7751691713
 30
0.0
  0
SPLINE
  5
334
100
AcDbEntity
  8
0
100
AcDbSpline
 62
7
  6
BYLAYER
 70
0
 71
3
 72
9
 73
5
 74
0
 42
0.0000001
 43
0.0000001
 44
0.0000000001
 40
0.0
 40
0.0
 40
0.0
 40
0.0
 40
0.2750437566
 40
1.0
 40
1.0
 40
1.0
 40
1.0
 10
89.0479468763
 20
207.5932240654
 30
0.0
 10
88.4634306749
 20
207.5972392814
 30
0.0
 10
86.3382581355
 20
207.6122250865
 30
0.0
 10
84.2130944433
 20
207.6285628642
 30
0.0
 10
82.672457111
 20
207.6419461165
 30
0.0
  0
SPLINE
  5
335
100
AcDbEntity
  8
0
100
AcDbSpline
 62
7
  6
BYLAYER
 70
0
 71
3
 72
27
 73
23
 74
0
 42
0.0000001
 43
0.0000001
 44
0.0000000001
 40
0.0
 40
0.0
 40
0.0
 40
0.0
 40
0.0002819362
 40
0.0011388893
 40
0.0025802665
 40
0.0046043639
 40
0.0103892465
 40
0.0184692292
 40
0.0288195134
 40
0.0414137446
 40
0.0562248476
 40
0.0732256552
 40
0.1136758145
 40
0.1624303497
 40
0.2190956229
 40
0.2832230858
 40
0.3543299656
 40
0.4318943505
 40
0.5153589205
 40
0.6041486844
 40
0.7952701377
 40
1.0
 40
1.0
 40
1.0
 40
1.0
 10
77.408699306
 20
204.3922684827
 30
0.0
 10
77.4086990029
 20
204.3911196779
 30
0.0
 10
77.4161446548
 20
204.3930411803
 30
0.0
 10
77.4236883589
 20
204.3938268429
 30
0.0
 10
77.4423753623
 20
204.398770797
 30
0.0
 10
77.4779193911
 20
204.407679138
 30
0.0
 10
77.5412223906
 20
204.4246001277
 30
0.0
 10
77.6363600741
 20
204.4493084068
 30
0.0
 10
77.7590424933
 20
204.4804041958
 30
0.0
 10
77.908249546
 20
204.517669789
 30
0.0
 10
78.0838661802
 20
204.5613172204
 30
0.0
 10
78.3696167573
 20
204.6323147766
 30
0.0
 10
78.7894387989
 20
204.7373419853
 30
0.0
 10
79.365947028
 20
204.8819753056
 30
0.0
 10
80.0361795121
 20
205.0495115501
 30
0.0
 10
80.7948690071
 20
205.238743931
 30
0.0
 10
81.6361849256
 20
205.4485852556
 30
0.0
 10
82.5538865739
 20
205.6777552366
 30
0.0
 10
83.541356012
 20
205.9249333454
 30
0.0
 10
84.9774644179
 20
206.2853613042
 30
0.0
 10
86.8936620586
 20
206.762720832
 30
0.0
 10
88.4591850475
 20
207.1511385545
 30
0.0
 10
89.2675996984
 20
207.3569923023
 30
0.0
  0
SPLINE
  5
336
100
AcDbEntity
  8
0
100
AcDbSpline
 62
7
  6
BYLAYER
 70
0
 71
3
 72
9
 73
5
 74
0
 42
0.0000001
 43
0.0000001
 44
0.0000000001
 40
0.0
 40
0.0
 40
0.0
 40
0.0
 40
0.225162343
 40
1.0
 40
1.0
 40
1.0
 40
1.0
 10
128.4087051562
 20
102.9838075517
 30
0.0
 10
128.4087051562
 20
102.9724792036
 30
0.0
 10
128.4006931305
 20
102.9220413365
 30
0.0
 10
128.3647397534
 20
102.8800891498
 30
0.0
 10
128.3337190002
 20
102.8564791697
 30
0.0
  0
SPLINE
  5
337
100
AcDbEntity
  8
0
100
AcDbSpline
 62
7
  6
BYLAYER
 70
0
 71
3
 72
9
 73
5
 74
0
 42
0.0000001
 43
0.0000001
 44
0.0000000001
 40
0.0
 40
0.0
 40
0.0
 40
0.0
 40
0.4979093126
 40
1.0
 40
1.0
 40
1.0
 40
1.0
 10
128.408705156
 20
96.4689595162
 30
0.0
 10
128.4087043904
 20
97.5291927223
 30
0.0
 10
128.4033455323
 20
99.6586505424
 30
0.0
 10
128.3574907305
 20
101.7876061104
 30
0.0
 10
128.3337190106
 20
102.8564787022
 30
0.0
  0
LINE
  5
338
100
AcDbEntity
  8
0
100
AcDbLine
 62
7
  6
BYLAYER
 10
128.3393756524
 20
103.8429755934
 11
128.3503876061
 21
103.9784985968
  0
SPLINE
  5
339
100
AcDbEntity
  8
0
100
AcDbSpline
 62
7
  6
BYLAYER
 70
0
 71
3
 72
17
 73
13
 74
0
 42
0.0000001
 43
0.0000001
 44
0.0000000001
 40
0.0
 40
0.0
 40
0.0
 40
0.0
 40
0.117797418
 40
0.2399168026
 40
0.3639477123
 40
0.4891263529
 40
0.6151908988
 40
0.741971998
 40
0.8057364398
 40
0.8699161766
 40
0.9346353385
 40
1.0
 40
1.0
 40
1.0
 40
1.0
 10
128.3503876061
 20
103.9784985968
 30
0.0
 10
128.402808227
 20
104.6226273072
 30
0.0
 10
128.5137916457
 20
105.9345242006
 30
0.0
 10
128.7788991279
 20
107.9139782952
 30
0.0
 10
129.0667144858
 20
109.9306056002
 30
0.0
 10
129.3817759887
 20
111.9654095979
 30
0.0
 10
129.7542337021
 20
114.0056586766
 30
0.0
 10
130.1876677092
 20
115.6921905688
 30
0.0
 10
130.6889993807
 20
116.9983677881
 30
0.0
 10
131.1720431665
 20
117.9424926121
 30
0.0
 10
131.8042162503
 20
118.8052998263
 30
0.0
 10
132.3368940752
 20
119.2951634384
 30
0.0
 10
132.6377369635
 20
119.4903283077
 30
0.0
  0
SPLINE
  5
33A
100
AcDbEntity
  8
0
100
AcDbSpline
 62
7
  6
BYLAYER
 70
0
 71
3
 72
15
 73
11
 74
0
 42
0.0000001
 43
0.0000001
 44
0.0000000001
 40
0.0
 40
0.0
 40
0.0
 40
0.0
 40
0.1361204691
 40
0.2708329498
 40
0.4038844654
 40
0.5343201938
 40
0.6607539741
 40
0.7818583598
 40
0.8961365581
 40
1.0
 40
1.0
 40
1.0
 40
1.0
 10
122.4804111082
 20
101.0926702767
 30
0.0
 10
122.7271489214
 20
101.2344770536
 30
0.0
 10
123.2263154637
 20
101.502266616
 30
0.0
 10
123.9818243404
 20
101.8793371637
 30
0.0
 10
124.7234396574
 20
102.2576260803
 30
0.0
 10
125.4474481835
 20
102.6323011287
 30
0.0
 10
126.1585296184
 20
102.9773733989
 30
0.0
 10
126.851628759
 20
103.280869171
 30
0.0
 10
127.5068878108
 20
103.5518354329
 30
0.0
 10
127.9321060425
 20
103.7181304457
 30
0.0
 10
128.1389191174
 20
103.7843170623
 30
0.0
  0
SPLINE
  5
33B
100
AcDbEntity
  8
0
100
AcDbSpline
 62
7
  6
BYLAYER
 70
0
 71
3
 72
9
 73
5
 74
0
 42
0.0000001
 43
0.0000001
 44
0.0000000001
 40
0.0
 40
0.0
 40
0.0
 40
0.0
 40
0.25661143
 40
1.0
 40
1.0
 40
1.0
 40
1.0
 10
128.1389191174
 20
103.7843170623
 30
0.0
 10
128.1559356118
 20
103.7897628697
 30
0.0
 10
128.2223645491
 20
103.8106148757
 30
0.0
 10
128.2893011755
 20
103.8298793524
 30
0.0
 10
128.3393756524
 20
103.8429755934
 30
0.0
  0
SPLINE
  5
33C
100
AcDbEntity
  8
0
100
AcDbSpline
 62
7
  6
BYLAYER
 70
0
 71
3
 72
9
 73
5
 74
0
 42
0.0000001
 43
0.0000001
 44
0.0000000001
 40
0.0
 40
0.0
 40
0.0
 40
0.0
 40
0.2475890492
 40
1.0
 40
1.0
 40
1.0
 40
1.0
 10
132.3637851963
 20
120.5018976782
 30
0.0
 10
131.5079988695
 20
118.9210244721
 30
0.0
 10
128.1037577399
 20
112.5076225342
 30
0.0
 10
124.8702116343
 20
106.0051802519
 30
0.0
 10
122.4804111082
 20
101.0926702767
 30
0.0
  0
SPLINE
  5
33D
100
AcDbEntity
  8
0
100
AcDbSpline
 62
7
  6
BYLAYER
 70
0
 71
3
 72
8
 73
4
 74
0
 42
0.0000001
 43
0.0000001
 44
0.0000000001
 40
0.0
 40
0.0
 40
0.0
 40
0.0
 40
1.0
 40
1.0
 40
1.0
 40
1.0
 10
132.6377369635
 20
119.4903283077
 30
0.0
 10
133.1613613194
 20
119.8454585212
 30
0.0
 10
133.6524654115
 20
120.2492307189
 30
0.0
 10
134.1226752266
 20
120.6725540758
 30
0.0
  0
SPLINE
  5
33E
100
AcDbEntity
  8
0
100
AcDbSpline
 62
7
  6
BYLAYER
 70
0
 71
3
 72
9
 73
5
 74
0
 42
0.0000001
 43
0.0000001
 44
0.0000000001
 40
0.0
 40
0.0
 40
0.0
 40
0.0
 40
0.2955734213
 40
1.0
 40
1.0
 40
1.0
 40
1.0
 10
128.3391641724
 20
103.8431697351
 30
0.0
 10
128.3541772537
 20
103.8509157442
 30
0.0
 10
128.4023962364
 20
103.880428096
 30
0.0
 10
128.4423237596
 20
103.9323842319
 30
0.0
 10
128.4464781106
 20
103.9724310379
 30
0.0
  0
SPLINE
  5
33F
100
AcDbEntity
  8
0
100
AcDbSpline
 62
7
  6
BYLAYER
 70
0
 71
3
 72
10
 73
6
 74
0
 42
0.0000001
 43
0.0000001
 44
0.0000000001
 40
0.0
 40
0.0
 40
0.0
 40
0.0
 40
0.5623862728
 40
0.8033410936
 40
1.0
 40
1.0
 40
1.0
 40
1.0
 10
84.1482234805
 20
214.2966625683
 30
0.0
 10
84.0650636358
 20
214.3637934572
 30
0.0
 10
83.9629025531
 20
214.4834691139
 30
0.0
 10
83.8790758939
 20
214.6536167042
 30
0.0
 10
83.8606657361
 20
214.7378901204
 30
0.0
 10
83.8646001111
 20
214.7750549521
 30
0.0
  0
SPLINE
  5
340
100
AcDbEntity
  8
0
100
AcDbSpline
 62
7
  6
BYLAYER
 70
0
 71
3
 72
16
 73
12
 74
0
 42
0.0000001
 43
0.0000001
 44
0.0000000001
 40
0.0
 40
0.0
 40
0.0
 40
0.0
 40
0.4070852885
 40
0.582482426
 40
0.7314832261
 40
0.8497459656
 40
0.9338458495
 40
0.9629984636
 40
0.9836630961
 40
0.9959275003
 40
1.0
 40
1.0
 40
1.0
 40
1.0
 10
132.6377076721
 20
119.4903686423
 30
0.0
 10
132.678464109
 20
119.4361732142
 30
0.0
 10
132.7368600101
 20
119.3586689694
 30
0.0
 10
132.8104506742
 20
119.2615959658
 30
0.0
 10
132.8551334884
 20
119.2028490414
 30
0.0
 10
132.8907338821
 20
119.1566340605
 30
0.0
 10
132.9144106427
 20
119.1256913501
 30
0.0
 10
132.9282032243
 20
119.1088268728
 30
0.0
 10
132.9348005485
 20
119.0997777683
 30
0.0
 10
132.9386211622
 20
119.0968352602
 30
0.0
 10
132.9406497211
 20
119.0930335639
 30
0.0
 10
132.9411947799
 20
119.0934374279
 30
0.0
  0
SPLINE
  5
341
100
AcDbEntity
  8
0
100
AcDbSpline
 62
7
  6
BYLAYER
 70
0
 71
3
 72
10
 73
6
 74
0
 42
0.0000001
 43
0.0000001
 44
0.0000000001
 40
0.0
 40
0.0
 40
0.0
 40
0.0
 40
0.6616681249
 40
0.8815859743
 40
1.0
 40
1.0
 40
1.0
 40
1.0
 10
89.0479417589
 20
207.5932498235
 30
0.0
 10
89.0484503872
 20
207.6864410685
 30
0.0
 10
89.0602601982
 20
207.8145207868
 30
0.0
 10
89.1037617059
 20
207.9439995764
 30
0.0
 10
89.1420141711
 20
207.9853240705
 30
0.0
 10
89.1586921162
 20
207.9853743554
 30
0.0
  0
SPLINE
  5
342
100
AcDbEntity
  8
0
100
AcDbSpline
 62
7
  6
BYLAYER
 70
0
 71
3
 72
10
 73
6
 74
0
 42
0.0000001
 43
0.0000001
 44
0.0000000001
 40
0.0
 40
0.0
 40
0.0
 40
0.0
 40
0.4443908921
 40
0.7194937792
 40
1.0
 40
1.0
 40
1.0
 40
1.0
 10
82.9490952753
 20
207.9853741392
 30
0.0
 10
82.8790689312
 20
207.9855079933
 30
0.0
 10
82.7669457985
 20
207.9139257406
 30
0.0
 10
82.6974338987
 20
207.7723460146
 30
0.0
 10
82.676851312
 20
207.6859870374
 30
0.0
 10
82.6724627706
 20
207.6420036703
 30
0.0
  0
SPLINE
  5
343
100
AcDbEntity
  8
0
100
AcDbSpline
 62
7
  6
BYLAYER
 70
0
 71
3
 72
10
 73
6
 74
0
 42
0.0000001
 43
0.0000001
 44
0.0000000001
 40
0.0
 40
0.0
 40
0.0
 40
0.0
 40
0.6661260208
 40
0.8861292547
 40
1.0
 40
1.0
 40
1.0
 40
1.0
 10
89.4959826273
 20
207.5853744949
 30
0.0
 10
89.4959826281
 20
207.6801956458
 30
0.0
 10
89.5069658156
 20
207.8108924794
 30
0.0
 10
89.5469390475
 20
207.9414600148
 30
0.0
 10
89.5833010675
 20
207.9853744949
 30
0.0
 10
89.5995102453
 20
207.9853744949
 30
0.0
  0
SPLINE
  5
344
100
AcDbEntity
  8
0
100
AcDbSpline
 62
7
  6
BYLAYER
 70
0
 71
3
 72
13
 73
9
 74
0
 42
0.0000001
 43
0.0000001
 44
0.0000000001
 40
0.0
 40
0.0
 40
0.0
 40
0.0
 40
0.3702011367
 40
0.6714718866
 40
0.7906616849
 40
0.8861003765
 40
0.9562837108
 40
1.0
 40
1.0
 40
1.0
 40
1.0
 10
83.3555959507
 20
91.2290266043
 30
0.0
 10
83.3140734026
 20
90.926833806
 30
0.0
 10
83.2242076242
 20
90.3806381407
 30
0.0
 10
83.092727108
 20
89.7424678907
 30
0.0
 10
83.0024564686
 20
89.3271474469
 30
0.0
 10
82.9536730803
 20
89.0974684397
 30
0.0
 10
82.9222510478
 20
88.928124297
 30
0.0
 10
82.9087051056
 20
88.8347610377
 30
0.0
 10
82.9087051566
 20
88.7987404204
 30
0.0
  0
LINE
  5
345
100
AcDbEntity
  8
0
100
AcDbLine
 62
7
  6
BYLAYER
 10
82.7163399838
 20
101.7738936173
 11
82.7064192336
 21
101.846543821
  0
SPLINE
  5
346
100
AcDbEntity
  8
0
100
AcDbSpline
 62
7
  6
BYLAYER
 70
0
 71
3
 72
17
 73
13
 74
0
 42
0.0000001
 43
0.0000001
 44
0.0000000001
 40
0.0
 40
0.0
 40
0.0
 40
0.0
 40
0.156613242
 40
0.3042411576
 40
0.4438749337
 40
0.5747686468
 40
0.6963758279
 40
0.7535217276
 40
0.8081409943
 40
0.8601701026
 40
0.9095492209
 40
1.0
 40
1.0
 40
1.0
 40
1.0
 10
90.0800911103
 20
99.9772629135
 30
0.0
 10
89.7946492048
 20
99.9317344955
 30
0.0
 10
89.2298951
 20
99.9263726549
 30
0.0
 10
88.4119013613
 20
99.9326096939
 30
0.0
 10
87.6398301801
 20
99.9289901253
 30
0.0
 10
86.9162352974
 20
99.91898275
 30
0.0
 10
86.3447363082
 20
99.9149713325
 30
0.0
 10
85.9140775067
 20
99.9071357687
 30
0.0
 10
85.6119285836
 20
99.8974917483
 30
0.0
 10
85.3240768635
 20
99.8887111331
 30
0.0
 10
84.9699620739
 20
99.886932155
 30
0.0
 10
84.7118871476
 20
99.8868551164
 30
0.0
 10
84.5449601004
 20
99.8848885698
 30
0.0
  0
SPLINE
  5
347
100
AcDbEntity
  8
0
100
AcDbSpline
 62
7
  6
BYLAYER
 70
0
 71
3
 72
18
 73
14
 74
0
 42
0.0000001
 43
0.0000001
 44
0.0000000001
 40
0.0
 40
0.0
 40
0.0
 40
0.0
 40
0.2306726092
 40
0.4322307235
 40
0.6040574742
 40
0.7454713214
 40
0.8559215777
 40
0.89945211
 40
0.9351492764
 40
0.9629911913
 40
0.9829712788
 40
0.9951405985
 40
1.0
 40
1.0
 40
1.0
 40
1.0
 10
84.5449601004
 20
99.8848885698
 30
0.0
 10
84.4189774587
 20
99.8834043842
 30
0.0
 10
84.1829296394
 20
99.8794701852
 30
0.0
 10
83.8529823526
 20
99.8780553569
 30
0.0
 10
83.5718247883
 20
99.883258348
 30
0.0
 10
83.3405281641
 20
99.8894662672
 30
0.0
 10
83.1791516806
 20
99.8933407153
 30
0.0
 10
83.0757202451
 20
99.8964477095
 30
0.0
 10
83.0170248516
 20
99.8987571083
 30
0.0
 10
82.9721398603
 20
99.9011332818
 30
0.0
 10
82.93796423
 20
99.9042376381
 30
0.0
 10
82.9207240518
 20
99.9068460582
 30
0.0
 10
82.908689663
 20
99.9105665899
 30
0.0
 10
82.9087051897
 20
99.9132207076
 30
0.0
  0
SPLINE
  5
348
100
AcDbEntity
  8
0
100
AcDbSpline
 62
7
  6
BYLAYER
 70
0
 71
3
 72
13
 73
9
 74
0
 42
0.0000001
 43
0.0000001
 44
0.0000000001
 40
0.0
 40
0.0
 40
0.0
 40
0.0
 40
0.3702011367
 40
0.6714718866
 40
0.7906616849
 40
0.8861003765
 40
0.9562837108
 40
1.0
 40
1.0
 40
1.0
 40
1.0
 10
83.3555959507
 20
43.2290266041
 30
0.0
 10
83.3140734026
 20
42.9268338058
 30
0.0
 10
83.2242076242
 20
42.3806381406
 30
0.0
 10
83.092727108
 20
41.7424678906
 30
0.0
 10
83.0024564686
 20
41.3271474468
 30
0.0
 10
82.9536730803
 20
41.0974684396
 30
0.0
 10
82.9222510478
 20
40.928124297
 30
0.0
 10
82.9087051056
 20
40.8347610377
 30
0.0
 10
82.9087051566
 20
40.7987404204
 30
0.0
  0
SPLINE
  5
349
100
AcDbEntity
  8
0
100
AcDbSpline
 62
7
  6
BYLAYER
 70
0
 71
3
 72
10
 73
6
 74
0
 42
0.0000001
 43
0.0000001
 44
0.0000000001
 40
0.0
 40
0.0
 40
0.0
 40
0.0
 40
0.1138707438
 40
0.3338739783
 40
1.0
 40
1.0
 40
1.0
 40
1.0
 10
93.3464592328
 20
207.9853744949
 30
0.0
 10
93.3302500552
 20
207.9853744949
 30
0.0
 10
93.2938880344
 20
207.941460016
 30
0.0
 10
93.2539148041
 20
207.8108924792
 30
0.0
 10
93.2429316147
 20
207.680195646
 30
0.0
 10
93.2429316147
 20
207.5853744949
 30
0.0
  0
SPLINE
  5
34A
100
AcDbEntity
  8
0
100
AcDbSpline
 62
7
  6
BYLAYER
 70
0
 71
3
 72
9
 73
5
 74
0
 42
0.0000001
 43
0.0000001
 44
0.0000000001
 40
0.0
 40
0.0
 40
0.0
 40
0.0
 40
0.2288401293
 40
1.0
 40
1.0
 40
1.0
 40
1.0
 10
81.9954441786
 20
117.887603458
 30
0.0
 10
82.051562305
 20
117.6647174951
 30
0.0
 10
82.3713069853
 20
116.7094180668
 30
0.0
 10
82.9477751187
 20
115.8544597267
 30
0.0
 10
83.4586313684
 20
115.2722805863
 30
0.0
  0
SPLINE
  5
34B
100
AcDbEntity
  8
0
100
AcDbSpline
 62
7
  6
BYLAYER
 70
0
 71
3
 72
9
 73
5
 74
0
 42
0.0000001
 43
0.0000001
 44
0.0000000001
 40
0.0
 40
0.0
 40
0.0
 40
0.0
 40
0.4455914197
 40
1.0
 40
1.0
 40
1.0
 40
1.0
 10
83.6845227612
 20
116.5626422735
 30
0.0
 10
83.621753006
 20
116.3782875053
 30
0.0
 10
83.5435311069
 20
115.9454712414
 30
0.0
 10
83.4872296759
 20
115.5129181779
 30
0.0
 10
83.4586281639
 20
115.2723052369
 30
0.0
  0
SPLINE
  5
34C
100
AcDbEntity
  8
0
100
AcDbSpline
 62
7
  6
BYLAYER
 70
0
 71
3
 72
16
 73
12
 74
0
 42
0.0000001
 43
0.0000001
 44
0.0000000001
 40
0.0
 40
0.0
 40
0.0
 40
0.0
 40
0.1591332704
 40
0.3129997276
 40
0.4529395684
 40
0.5722474117
 40
0.6256629061
 40
0.6766782351
 40
0.7779092365
 40
0.8846495899
 40
1.0
 40
1.0
 40
1.0
 40
1.0
 10
81.8272693464
 20
211.9853744949
 30
0.0
 10
81.6519177906
 20
211.7436516403
 30
0.0
 10
81.3273865243
 20
211.252189576
 30
0.0
 10
80.9692666543
 20
210.4765286015
 30
0.0
 10
80.7980596432
 20
209.7116749134
 30
0.0
 10
80.8661007075
 20
209.1114823777
 30
0.0
 10
81.0534784493
 20
208.7316900118
 30
0.0
 10
81.3001217827
 20
208.4307546548
 30
0.0
 10
81.7221212859
 20
208.165550345
 30
0.0
 10
82.3143438684
 20
208.0112224697
 30
0.0
 10
82.7322583096
 20
207.9853744949
 30
0.0
 10
82.9487231064
 20
207.9853744949
 30
0.0
  0
SPLINE
  5
34D
100
AcDbEntity
  8
0
100
AcDbSpline
 62
7
  6
BYLAYER
 70
0
 71
3
 72
11
 73
7
 74
0
 42
0.0000001
 43
0.0000001
 44
0.0000000001
 40
0.0
 40
0.0
 40
0.0
 40
0.0
 40
0.2410333537
 40
0.4890786261
 40
0.74279349
 40
1.0
 40
1.0
 40
1.0
 40
1.0
 10
84.1482206868
 20
214.2966607607
 30
0.0
 10
83.9363288199
 20
214.1391880809
 30
0.0
 10
83.5198806291
 20
213.8013903783
 30
0.0
 10
82.9203916375
 20
213.2507195433
 30
0.0
 10
82.3472602788
 20
212.6474767379
 30
0.0
 10
81.9959709962
 20
212.2109901515
 30
0.0
 10
81.8272693423
 20
211.9853744949
 30
0.0
  0
SPLINE
  5
34E
100
AcDbEntity
  8
0
100
AcDbSpline
 62
7
  6
BYLAYER
 70
0
 71
3
 72
11
 73
7
 74
0
 42
0.0000001
 43
0.0000001
 44
0.0000000001
 40
0.0
 40
0.0
 40
0.0
 40
0.0
 40
0.2226340784
 40
0.460450148
 40
0.7195830822
 40
1.0
 40
1.0
 40
1.0
 40
1.0
 10
88.0818560042
 20
215.9853744949
 30
0.0
 10
87.7590490661
 20
215.9853775948
 30
0.0
 10
87.0895281853
 20
215.8967662814
 30
0.0
 10
86.1043985166
 20
215.5365493393
 30
0.0
 10
85.1155261595
 20
214.9894256493
 30
0.0
 10
84.4734267481
 20
214.5407006838
 30
0.0
 10
84.1482206868
 20
214.2966607607
 30
0.0
  0
SPLINE
  5
34F
100
AcDbEntity
  8
0
100
AcDbSpline
 62
7
  6
BYLAYER
 70
0
 71
3
 72
11
 73
7
 74
0
 42
0.0000001
 43
0.0000001
 44
0.0000000001
 40
0.0
 40
0.0
 40
0.0
 40
0.0
 40
0.2242398055
 40
0.4561220939
 40
0.7131443655
 40
1.0
 40
1.0
 40
1.0
 40
1.0
 10
88.0818560052
 20
215.9853775441
 30
0.0
 10
88.0258654551
 20
215.9854105373
 30
0.0
 10
87.9107347747
 20
216.0333344546
 30
0.0
 10
87.8084303357
 20
216.1864115786
 30
0.0
 10
87.7685995448
 20
216.3798735387
 30
0.0
 10
87.7932036449
 20
216.5184792779
 30
0.0
 10
87.8214711172
 20
216.584290453
 30
0.0
  0
SPLINE
  5
350
100
AcDbEntity
  8
0
100
AcDbSpline
 62
7
  6
BYLAYER
 70
0
 71
3
 72
9
 73
5
 74
0
 42
0.0000001
 43
0.0000001
 44
0.0000000001
 40
0.0
 40
0.0
 40
0.0
 40
0.0
 40
0.2396783837
 40
1.0
 40
1.0
 40
1.0
 40
1.0
 10
87.8214689955
 20
216.5842992643
 30
0.0
 10
87.9190879134
 20
216.5822323842
 30
0.0
 10
88.3263785803
 20
216.5735802203
 30
0.0
 10
88.7336711941
 20
216.5650137167
 30
0.0
 10
89.0433503028
 20
216.5587833829
 30
0.0
  0
SPLINE
  5
351
100
AcDbEntity
  8
0
100
AcDbSpline
 62
7
  6
BYLAYER
 70
0
 71
3
 72
12
 73
8
 74
0
 42
0.0000001
 43
0.0000001
 44
0.0000000001
 40
0.0
 40
0.0
 40
0.0
 40
0.0
 40
0.284582845
 40
0.4819653669
 40
0.6651986946
 40
0.8363272218
 40
1.0
 40
1.0
 40
1.0
 40
1.0
 10
83.8647256474
 20
214.7751569306
 30
0.0
 10
84.190231585
 20
215.0421838052
 30
0.0
 10
84.7586257192
 20
215.4749021879
 30
0.0
 10
85.5985634452
 20
215.9905892061
 30
0.0
 10
86.3414915668
 20
216.3348157154
 30
0.0
 10
87.0817996484
 20
216.5467714446
 30
0.0
 10
87.5793837048
 20
216.5894763808
 30
0.0
 10
87.8214700479
 20
216.5842880469
 30
0.0
  0
SPLINE
  5
352
100
AcDbEntity
  8
0
100
AcDbSpline
 62
7
  6
BYLAYER
 70
0
 71
3
 72
11
 73
7
 74
0
 42
0.0000001
 43
0.0000001
 44
0.0000000001
 40
0.0
 40
0.0
 40
0.0
 40
0.0
 40
0.1746967163
 40
0.3862388888
 40
0.6567603561
 40
1.0
 40
1.0
 40
1.0
 40
1.0
 10
83.8881427173
 20
215.8422687921
 30
0.0
 10
83.8422932753
 20
215.796418447
 30
0.0
 10
83.766669168
 20
215.6682495143
 30
0.0
 10
83.7322815885
 20
215.4231187793
 30
0.0
 10
83.7645496066
 20
215.1166762289
 30
0.0
 10
83.8249989401
 20
214.8962066113
 30
0.0
 10
83.8647192954
 20
214.7751578632
 30
0.0
  0
SPLINE
  5
353
100
AcDbEntity
  8
0
100
AcDbSpline
 62
7
  6
BYLAYER
 70
0
 71
3
 72
11
 73
7
 74
0
 42
0.0000001
 43
0.0000001
 44
0.0000000001
 40
0.0
 40
0.0
 40
0.0
 40
0.0
 40
0.2966853808
 40
0.5594600665
 40
0.7889997365
 40
1.0
 40
1.0
 40
1.0
 40
1.0
 10
89.0434300749
 20
216.5587100455
 30
0.0
 10
89.0219688546
 20
216.49275482
 30
0.0
 10
89.0062329059
 20
216.359291541
 30
0.0
 10
89.0457237195
 20
216.176300804
 30
0.0
 10
89.1352903237
 20
216.0327240492
 30
0.0
 10
89.2384179447
 20
215.9854282618
 30
0.0
 10
89.2877455088
 20
215.9853782708
 30
0.0
  0
SPLINE
  5
354
100
AcDbEntity
  8
0
100
AcDbSpline
 62
7
  6
BYLAYER
 70
0
 71
3
 72
12
 73
8
 74
0
 42
0.0000001
 43
0.0000001
 44
0.0000000001
 40
0.0
 40
0.0
 40
0.0
 40
0.0
 40
0.2489765674
 40
0.4985467264
 40
0.7487804675
 40
0.8742174015
 40
1.0
 40
1.0
 40
1.0
 40
1.0
 10
103.5782249579
 20
228.3433915614
 30
0.0
 10
104.3732522521
 20
228.3249957113
 30
0.0
 10
105.9652333752
 20
228.2894370003
 30
0.0
 10
108.3563662318
 20
228.2407452598
 30
0.0
 10
110.3530866097
 20
228.2040598431
 30
0.0
 10
111.9545832213
 20
228.1822404654
 30
0.0
 10
112.7569510288
 20
228.1716885501
 30
0.0
 10
113.1587051562
 20
228.1716138614
 30
0.0
  0
SPLINE
  5
355
100
AcDbEntity
  8
0
100
AcDbSpline
 62
7
  6
BYLAYER
 70
0
 71
3
 72
9
 73
5
 74
0
 42
0.0000001
 43
0.0000001
 44
0.0000000001
 40
0.0
 40
0.0
 40
0.0
 40
0.0
 40
0.4579215455
 40
1.0
 40
1.0
 40
1.0
 40
1.0
 10
101.5903972869
 20
228.4699110127
 30
0.0
 10
101.8922669123
 20
228.4329849408
 30
0.0
 10
102.5546179345
 20
228.3786456653
 30
0.0
 10
103.2183150207
 20
228.3517233956
 30
0.0
 10
103.5782295875
 20
228.3433954466
 30
0.0
  0
SPLINE
  5
356
100
AcDbEntity
  8
0
100
AcDbSpline
 62
7
  6
BYLAYER
 70
0
 71
3
 72
9
 73
5
 74
0
 42
0.0000001
 43
0.0000001
 44
0.0000000001
 40
0.0
 40
0.0
 40
0.0
 40
0.0
 40
0.2687231754
 40
1.0
 40
1.0
 40
1.0
 40
1.0
 10
81.9954629927
 20
117.8876462794
 30
0.0
 10
82.067425343
 20
117.9651288166
 30
0.0
 10
82.3420001737
 20
118.2450278303
 30
0.0
 10
82.6636891805
 20
118.4942512709
 30
0.0
 10
82.9311378049
 20
118.6004598178
 30
0.0
  0
SPLINE
  5
357
100
AcDbEntity
  8
0
100
AcDbSpline
 62
7
  6
BYLAYER
 70
0
 71
3
 72
16
 73
12
 74
0
 42
0.0000001
 43
0.0000001
 44
0.0000000001
 40
0.0
 40
0.0
 40
0.0
 40
0.0
 40
0.0282974008
 40
0.0619205088
 40
0.1455034548
 40
0.2497595427
 40
0.3716672296
 40
0.5097286188
 40
0.6627710443
 40
0.8280759117
 40
1.0
 40
1.0
 40
1.0
 40
1.0
 10
82.7064174254
 20
101.8465518444
 30
0.0
 10
82.6895362647
 20
101.973436152
 30
0.0
 10
82.6794919031
 20
102.2545580913
 30
0.0
 10
82.7277039995
 20
102.911495677
 30
0.0
 10
82.9012487006
 20
103.8997756952
 30
0.0
 10
83.1948159738
 20
105.2693374386
 30
0.0
 10
83.5431429964
 20
106.8799079178
 30
0.0
 10
83.8526632779
 20
108.7235524215
 30
0.0
 10
84.0123087789
 20
110.7865019893
 30
0.0
 10
83.8919962833
 20
113.0076447087
 30
0.0
 10
83.6246736624
 20
114.5125312528
 30
0.0
 10
83.4586956611
 20
115.2723058964
 30
0.0
  0
SPLINE
  5
358
100
AcDbEntity
  8
0
100
AcDbSpline
 62
7
  6
BYLAYER
 70
0
 71
3
 72
22
 73
18
 74
0
 42
0.0000001
 43
0.0000001
 44
0.0000000001
 40
0.0
 40
0.0
 40
0.0
 40
0.0
 40
0.2256378973
 40
0.4256777358
 40
0.5982195869
 40
0.741563929
 40
0.8017368979
 40
0.8540743418
 40
0.8985094389
 40
0.9349673609
 40
0.963376546
 40
0.9745514222
 40
0.983702256
 40
0.9908258229
 40
0.9959188525
 40
0.998978029
 40
1.0
 40
1.0
 40
1.0
 40
1.0
 10
83.458609227
 20
115.2723056251
 30
0.0
 10
83.2500810382
 20
115.0733933072
 30
0.0
 10
82.8390066828
 20
114.7162034253
 30
0.0
 10
82.2229475357
 20
114.2633324712
 30
0.0
 10
81.6694425961
 20
113.9051960668
 30
0.0
 10
81.2537485392
 20
113.6643143201
 30
0.0
 10
80.9668134504
 20
113.507924786
 30
0.0
 10
80.7894060627
 20
113.4146055719
 30
0.0
 10
80.6377686385
 20
113.3373649998
 30
0.0
 10
80.5127023211
 20
113.2754049236
 30
0.0
 10
80.4254135537
 20
113.2326729852
 30
0.0
 10
80.3693963483
 20
113.2057667521
 30
0.0
 10
80.3377136414
 20
113.1902709051
 30
0.0
 10
80.313250074
 20
113.1794257144
 30
0.0
 10
80.2952011815
 20
113.1691013217
 30
0.0
 10
80.2853028343
 20
113.1676356384
 30
0.0
 10
80.2798337446
 20
113.1618133016
 30
0.0
 10
80.278947275
 20
113.1627713581
 30
0.0
  0
SPLINE
  5
359
100
AcDbEntity
  8
0
100
AcDbSpline
 62
7
  6
BYLAYER
 70
0
 71
3
 72
23
 73
19
 74
0
 42
0.0000001
 43
0.0000001
 44
0.0000000001
 40
0.0
 40
0.0
 40
0.0
 40
0.0
 40
0.1947553699
 40
0.3823070585
 40
0.5552278948
 40
0.6340794123
 40
0.7068257928
 40
0.7727729261
 40
0.8312791993
 40
0.8817746576
 40
0.9237707487
 40
0.9568614598
 40
0.9699644062
 40
0.9807286728
 40
0.9891302766
 40
0.9951472657
 40
0.9987689662
 40
1.0
 40
1.0
 40
1.0
 40
1.0
 10
113.0087051623
 20
30.2688346713
 30
0.0
 10
113.0782244091
 20
29.9511919667
 30
0.0
 10
113.1351071572
 20
29.3098535202
 30
0.0
 10
113.0826886057
 20
28.3844305387
 30
0.0
 10
113.0600708535
 20
27.6511519284
 30
0.0
 10
113.0539261907
 20
27.1093776657
 30
0.0
 10
113.0488772686
 20
26.7461971796
 30
0.0
 10
113.0403160885
 20
26.4170591721
 30
0.0
 10
113.0317501629
 20
26.1250997792
 30
0.0
 10
113.0248864081
 20
25.8730685474
 30
0.0
 10
113.0200356405
 20
25.663509744
 30
0.0
 10
113.0170231436
 20
25.5161693038
 30
0.0
 10
113.01488231
 20
25.4212985548
 30
0.0
 10
113.0139302119
 20
25.3670050557
 30
0.0
 10
113.0120753662
 20
25.3260951731
 30
0.0
 10
113.012569066
 20
25.2934523809
 30
0.0
 10
113.0086469537
 20
25.2798171506
 30
0.0
 10
113.0107604753
 20
25.2670634432
 30
0.0
 10
113.0087051562
 20
25.2670634432
 30
0.0
  0
SPLINE
  5
35A
100
AcDbEntity
  8
0
100
AcDbSpline
 62
7
  6
BYLAYER
 70
0
 71
3
 72
11
 73
7
 74
0
 42
0.0000001
 43
0.0000001
 44
0.0000000001
 40
0.0
 40
0.0
 40
0.0
 40
0.0
 40
0.24775066
 40
0.4961912834
 40
0.7467130142
 40
1.0
 40
1.0
 40
1.0
 40
1.0
 10
94.0588382575
 20
225.9459219023
 30
0.0
 10
94.5744742115
 20
226.3735461486
 30
0.0
 10
95.688991042
 20
227.1365168472
 30
0.0
 10
97.5467428268
 20
227.9550037407
 30
0.0
 10
99.5368526177
 20
228.425015025
 30
0.0
 10
100.9059325441
 20
228.4948573116
 30
0.0
 10
101.5902986564
 20
228.4690583788
 30
0.0
  0
SPLINE
  5
35B
100
AcDbEntity
  8
0
100
AcDbSpline
 62
7
  6
BYLAYER
 70
0
 71
3
 72
27
 73
23
 74
0
 42
0.0000001
 43
0.0000001
 44
0.0000000001
 40
0.0
 40
0.0
 40
0.0
 40
0.0
 40
0.1116425835
 40
0.2180275911
 40
0.2692651958
 40
0.3191608745
 40
0.4147074915
 40
0.504214991
 40
0.5872906184
 40
0.6635711165
 40
0.7327191946
 40
0.7944284008
 40
0.8484088744
 40
0.8944373927
 40
0.9323112818
 40
0.961864148
 40
0.9734930867
 40
0.9830119685
 40
0.9904136319
 40
0.9956955358
 40
0.9988643622
 40
1.0
 40
1.0
 40
1.0
 40
1.0
 10
90.042794763
 20
100.3720546804
 30
0.0
 10
89.7769936129
 20
100.3886516157
 30
0.0
 10
89.2579657826
 20
100.4272460276
 30
0.0
 10
88.6152536953
 20
100.4208591936
 30
0.0
 10
88.1203201819
 20
100.4134899911
 30
0.0
 10
87.6511217235
 20
100.415925168
 30
0.0
 10
87.0907302636
 20
100.4243996155
 30
0.0
 10
86.4511559034
 20
100.4316866307
 30
0.0
 10
85.8575370157
 20
100.4380590103
 30
0.0
 10
85.3124848012
 20
100.4443157874
 30
0.0
 10
84.8184086652
 20
100.4507163477
 30
0.0
 10
84.3775078276
 20
100.4555231543
 30
0.0
 10
83.991742969
 20
100.4571106951
 30
0.0
 10
83.662804618
 20
100.4558466864
 30
0.0
 10
83.392243779
 20
100.4523577662
 30
0.0
 10
83.2035618112
 20
100.4478376342
 30
0.0
 10
83.0829258835
 20
100.4431433182
 30
0.0
 10
83.0144507457
 20
100.4395961449
 30
0.0
 10
82.9628073309
 20
100.4358276524
 30
0.0
 10
82.9224938433
 20
100.4319178481
 30
0.0
 10
82.9046468657
 20
100.4283332135
 30
0.0
 10
82.8896821082
 20
100.4251568782
 30
0.0
 10
82.8901574624
 20
100.4224898923
 30
0.0
  0
SPLINE
  5
35C
100
AcDbEntity
  8
0
100
AcDbSpline
 62
7
  6
BYLAYER
 70
0
 71
3
 72
8
 73
4
 74
0
 42
0.0000001
 43
0.0000001
 44
0.0000000001
 40
0.0
 40
0.0
 40
0.0
 40
0.0
 40
1.0
 40
1.0
 40
1.0
 40
1.0
 10
90.0768458807
 20
100.3688409763
 30
0.0
 10
90.2132290372
 20
100.3455922309
 30
0.0
 10
90.3489750312
 20
100.3187279232
 30
0.0
 10
90.4848040232
 20
100.2924343028
 30
0.0
  0
SPLINE
  5
35D
100
AcDbEntity
  8
0
100
AcDbSpline
 62
7
  6
BYLAYER
 70
0
 71
3
 72
8
 73
4
 74
0
 42
0.0000001
 43
0.0000001
 44
0.0000000001
 40
0.0
 40
0.0
 40
0.0
 40
0.0
 40
1.0
 40
1.0
 40
1.0
 40
1.0
 10
90.517440299
 20
100.0561246615
 30
0.0
 10
90.3890097259
 20
100.0338119541
 30
0.0
 10
90.261284382
 20
100.0075841601
 30
0.0
 10
90.1329402702
 20
99.98477938
 30
0.0
  0
SPLINE
  5
35E
100
AcDbEntity
  8
0
100
AcDbSpline
 62
7
  6
BYLAYER
 70
0
 71
3
 72
11
 73
7
 74
0
 42
0.0000001
 43
0.0000001
 44
0.0000000001
 40
0.0
 40
0.0
 40
0.0
 40
0.0
 40
0.2836877532
 40
0.55183807
 40
0.7914015936
 40
1.0
 40
1.0
 40
1.0
 40
1.0
 10
96.3508883099
 20
223.2306359485
 30
0.0
 10
96.6131283764
 20
223.9120445885
 30
0.0
 10
97.2358425526
 20
225.1987393565
 30
0.0
 10
98.4825182606
 20
226.8308686582
 30
0.0
 10
99.9491815447
 20
227.9866117617
 30
0.0
 10
101.0597011992
 20
228.3880708413
 30
0.0
 10
101.5903248278
 20
228.4697328766
 30
0.0
  0
SPLINE
  5
35F
100
AcDbEntity
  8
0
100
AcDbSpline
 62
7
  6
BYLAYER
 70
0
 71
3
 72
14
 73
10
 74
0
 42
0.0000001
 43
0.0000001
 44
0.0000000001
 40
0.0
 40
0.0
 40
0.0
 40
0.0
 40
0.0775677866
 40
0.1669285326
 40
0.273919828
 40
0.3995580336
 40
0.5417076612
 40
0.6941624659
 40
1.0
 40
1.0
 40
1.0
 40
1.0
 10
92.4196203107
 20
26.0400230163
 30
0.0
 10
92.265501732
 20
26.045809008
 30
0.0
 10
91.9340901775
 20
26.1218475935
 30
0.0
 10
91.4677914159
 20
26.4197208126
 30
0.0
 10
91.0416329544
 20
26.9059032105
 30
0.0
 10
90.6712311325
 20
27.5570313296
 30
0.0
 10
90.3843648948
 20
28.3451772932
 30
0.0
 10
90.1185982166
 20
29.5111540965
 30
0.0
 10
90.0630999688
 20
30.4286473102
 30
0.0
 10
90.0800907662
 20
31.0365031943
 30
0.0
  0
SPLINE
  5
360
100
AcDbEntity
  8
0
100
AcDbSpline
 62
7
  6
BYLAYER
 70
0
 71
3
 72
14
 73
10
 74
0
 42
0.0000001
 43
0.0000001
 44
0.0000000001
 40
0.0
 40
0.0
 40
0.0
 40
0.0
 40
0.2924868425
 40
0.4400142559
 40
0.5807028561
 40
0.7088452467
 40
0.821439488
 40
0.9177101041
 40
1.0
 40
1.0
 40
1.0
 40
1.0
 10
90.5174403043
 20
31.0200841298
 30
0.0
 10
90.5021428696
 20
30.4728091032
 30
0.0
 10
90.5453216581
 20
29.6446557082
 30
0.0
 10
90.7573503018
 20
28.5770516956
 30
0.0
 10
90.9914550085
 20
27.8316496131
 30
0.0
 10
91.2966883504
 20
27.1831835969
 30
0.0
 10
91.6594278938
 20
26.662685375
 30
0.0
 10
92.0605826516
 20
26.2862335699
 30
0.0
 10
92.3634932701
 20
26.1314164964
 30
0.0
 10
92.5103244124
 20
26.0848658917
 30
0.0
  0
SPLINE
  5
361
100
AcDbEntity
  8
0
100
AcDbSpline
 62
7
  6
BYLAYER
 70
0
 71
3
 72
9
 73
5
 74
0
 42
0.0000001
 43
0.0000001
 44
0.0000000001
 40
0.0
 40
0.0
 40
0.0
 40
0.0
 40
0.2579954508
 40
1.0
 40
1.0
 40
1.0
 40
1.0
 10
92.5103244124
 20
26.0848658917
 30
0.0
 10
92.5392311776
 20
26.0757014367
 30
0.0
 10
92.6523862936
 20
26.0438118824
 30
0.0
 10
92.7698162335
 20
26.0268758855
 30
0.0
 10
92.8569698487
 20
26.0236039518
 30
0.0
  0
SPLINE
  5
362
100
AcDbEntity
  8
0
100
AcDbSpline
 62
7
  6
BYLAYER
 70
0
 71
3
 72
9
 73
5
 74
0
 42
0.0000001
 43
0.0000001
 44
0.0000000001
 40
0.0
 40
0.0
 40
0.0
 40
0.0
 40
0.497914411
 40
1.0
 40
1.0
 40
1.0
 40
1.0
 10
91.0886759265
 20
100.1670217469
 30
0.0
 10
90.9987968536
 20
100.1508235261
 30
0.0
 10
90.8206181242
 20
100.1065130648
 30
0.0
 10
90.6396285308
 20
100.0760866622
 30
0.0
 10
90.5486616505
 20
100.0617344482
 30
0.0
  0
SPLINE
  5
363
100
AcDbEntity
  8
0
100
AcDbSpline
 62
7
  6
BYLAYER
 70
0
 71
3
 72
16
 73
12
 74
0
 42
0.0000001
 43
0.0000001
 44
0.0000000001
 40
0.0
 40
0.0
 40
0.0
 40
0.0
 40
0.1261770185
 40
0.238996885
 40
0.3430020088
 40
0.4452576394
 40
0.5532701441
 40
0.67540278
 40
0.7443035167
 40
0.8200394073
 40
1.0
 40
1.0
 40
1.0
 40
1.0
 10
113.083682767
 20
119.6462205873
 30
0.0
 10
112.1893796516
 20
119.6462208786
 30
0.0
 10
110.495515173
 20
119.6755239879
 30
0.0
 10
108.0654801822
 20
119.7504929525
 30
0.0
 10
105.8072257328
 20
119.8780621495
 30
0.0
 10
103.5873156826
 20
120.0637347099
 30
0.0
 10
101.243143388
 20
120.2991461353
 30
0.0
 10
99.1337859424
 20
120.506868782
 30
0.0
 10
97.2504494105
 20
120.6746797597
 30
0.0
 10
94.9577459212
 20
120.8654487997
 30
0.0
 10
93.1485521731
 20
120.9793042609
 30
0.0
 10
91.8790354108
 20
121.1027473182
 30
0.0
  0
SPLINE
  5
364
100
AcDbEntity
  8
0
100
AcDbSpline
 62
7
  6
BYLAYER
 70
0
 71
3
 72
9
 73
5
 74
0
 42
0.0000001
 43
0.0000001
 44
0.0000000001
 40
0.0
 40
0.0
 40
0.0
 40
0.0
 40
0.2389807268
 40
1.0
 40
1.0
 40
1.0
 40
1.0
 10
91.8773937701
 20
121.1030475738
 30
0.0
 10
91.7537897876
 20
119.4457258199
 30
0.0
 10
91.257307102
 20
112.5092186644
 30
0.0
 10
90.8283649295
 20
105.5680196031
 30
0.0
 10
90.5236543412
 20
100.2845033572
 30
0.0
  0
SPLINE
  5
365
100
AcDbEntity
  8
0
100
AcDbSpline
 62
7
  6
BYLAYER
 70
0
 71
3
 72
15
 73
11
 74
0
 42
0.0000001
 43
0.0000001
 44
0.0000000001
 40
0.0
 40
0.0
 40
0.0
 40
0.0
 40
0.3742457033
 40
0.5430426859
 40
0.6914431334
 40
0.8141430996
 40
0.907136968
 40
0.941756755
 40
0.9683755899
 40
1.0
 40
1.0
 40
1.0
 40
1.0
 10
115.6781206051
 20
30.1596295788
 30
0.0
 10
115.7515498148
 20
29.552465148
 30
0.0
 10
115.8394057725
 20
28.6689343951
 30
0.0
 10
115.9046809272
 20
27.5406491436
 30
0.0
 10
115.9225870475
 20
26.8220425943
 30
0.0
 10
115.9099771816
 20
26.2262487072
 30
0.0
 10
115.8756081375
 20
25.8197049507
 30
0.0
 10
115.826371243
 20
25.569359355
 30
0.0
 10
115.7832073035
 20
25.4298522326
 30
0.0
 10
115.7281660267
 20
25.3306967741
 30
0.0
 10
115.6781206052
 20
25.3178007314
 30
0.0
  0
SPLINE
  5
366
100
AcDbEntity
  8
0
100
AcDbSpline
 62
7
  6
BYLAYER
 70
0
 71
3
 72
9
 73
5
 74
0
 42
0.0000001
 43
0.0000001
 44
0.0000000001
 40
0.0
 40
0.0
 40
0.0
 40
0.0
 40
0.4989383253
 40
1.0
 40
1.0
 40
1.0
 40
1.0
 10
90.5244730771
 20
100.2844229642
 30
0.0
 10
90.6192815326
 20
100.2701593679
 30
0.0
 10
90.8086717798
 20
100.2365675925
 30
0.0
 10
90.9950222923
 20
100.1894169088
 30
0.0
 10
91.088667628
 20
100.1670327797
 30
0.0
  0
SPLINE
  5
367
100
AcDbEntity
  8
0
100
AcDbSpline
 62
7
  6
BYLAYER
 70
0
 71
3
 72
12
 73
8
 74
0
 42
0.0000001
 43
0.0000001
 44
0.0000000001
 40
0.0
 40
0.0
 40
0.0
 40
0.0
 40
0.2523316131
 40
0.5068585995
 40
0.6342352814
 40
0.7595099206
 40
1.0
 40
1.0
 40
1.0
 40
1.0
 10
122.0297533258
 20
99.3471826107
 30
0.0
 10
121.4884071882
 20
99.3568767522
 30
0.0
 10
120.4012276309
 20
99.3827816704
 30
0.0
 10
119.0416331095
 20
99.4663041025
 30
0.0
 10
117.9629399522
 20
99.616001554
 30
0.0
 10
116.9267410532
 20
99.833850295
 30
0.0
 10
116.1715320026
 20
100.0494176667
 30
0.0
 10
115.6687092335
 20
100.1653933461
 30
0.0
  0
SPLINE
  5
368
100
AcDbEntity
  8
0
100
AcDbSpline
 62
7
  6
BYLAYER
 70
0
 71
3
 72
15
 73
11
 74
0
 42
0.0000001
 43
0.0000001
 44
0.0000000001
 40
0.0
 40
0.0
 40
0.0
 40
0.0
 40
0.0193395791
 40
0.0448971596
 40
0.1170709563
 40
0.2190618946
 40
0.348049171
 40
0.4990419751
 40
0.6638003543
 40
1.0
 40
1.0
 40
1.0
 40
1.0
 10
103.5782250379
 20
228.3433915595
 30
0.0
 10
103.5324873856
 20
228.3017114995
 30
0.0
 10
103.4423216731
 20
228.1878894527
 30
0.0
 10
103.261230636
 20
227.8592633258
 30
0.0
 10
103.0500188349
 20
227.2524196887
 30
0.0
 10
102.823572994
 20
226.3091853987
 30
0.0
 10
102.6143820007
 20
225.1041037575
 30
0.0
 10
102.4376093729
 20
223.6918212261
 30
0.0
 10
102.2505846434
 20
221.6138808001
 30
0.0
 10
102.178318662
 20
220.0115767389
 30
0.0
 10
102.155914913
 20
218.936083224
 30
0.0
  0
SPLINE
  5
369
100
AcDbEntity
  8
0
100
AcDbSpline
 62
7
  6
BYLAYER
 70
0
 71
3
 72
12
 73
8
 74
0
 42
0.0000001
 43
0.0000001
 44
0.0000000001
 40
0.0
 40
0.0
 40
0.0
 40
0.0
 40
0.0388760576
 40
0.0983608203
 40
0.2924566813
 40
0.5952854616
 40
1.0
 40
1.0
 40
1.0
 40
1.0
 10
112.9110995393
 20
228.4211833183
 30
0.0
 10
112.916136293
 20
228.4060212797
 30
0.0
 10
112.9455497811
 20
228.374752578
 30
0.0
 10
113.0511855087
 20
228.3180080795
 30
0.0
 10
113.2740752592
 20
228.2561305419
 30
0.0
 10
113.6399333178
 20
228.2005795244
 30
0.0
 10
113.9304821549
 20
228.1785658381
 30
0.0
 10
114.0966693509
 20
228.1718221876
 30
0.0
  0
SPLINE
  5
36A
100
AcDbEntity
  8
0
100
AcDbSpline
 62
7
  6
BYLAYER
 70
0
 71
3
 72
9
 73
5
 74
0
 42
0.0000001
 43
0.0000001
 44
0.0000000001
 40
0.0
 40
0.0
 40
0.0
 40
0.0
 40
0.6563228682
 40
1.0
 40
1.0
 40
1.0
 40
1.0
 10
115.66705571
 20
228.3146609664
 30
0.0
 10
115.7244397717
 20
228.3267005647
 30
0.0
 10
115.8072918892
 20
228.3469815214
 30
0.0
 10
115.8951261123
 20
228.3963582951
 30
0.0
 10
115.9058433841
 20
228.4251298911
 30
0.0
  0
SPLINE
  5
36B
100
AcDbEntity
  8
0
100
AcDbSpline
 62
7
  6
BYLAYER
 70
0
 71
3
 72
9
 73
5
 74
0
 42
0.0000001
 43
0.0000001
 44
0.0000000001
 40
0.0
 40
0.0
 40
0.0
 40
0.0
 40
0.5894288867
 40
1.0
 40
1.0
 40
1.0
 40
1.0
 10
114.6597858928
 20
228.1916580239
 30
0.0
 10
114.8593532238
 20
228.1981229074
 30
0.0
 10
115.1974691839
 20
228.2218625919
 30
0.0
 10
115.5330810473
 20
228.2773128451
 30
0.0
 10
115.66705571
 20
228.3146609664
 30
0.0
  0
SPLINE
  5
36C
100
AcDbEntity
  8
0
100
AcDbSpline
 62
7
  6
BYLAYER
 70
0
 71
3
 72
11
 73
7
 74
0
 42
0.0000001
 43
0.0000001
 44
0.0000000001
 40
0.0
 40
0.0
 40
0.0
 40
0.0
 40
0.2508848893
 40
0.5013361073
 40
0.7521098538
 40
1.0
 40
1.0
 40
1.0
 40
1.0
 10
114.4087051599
 20
228.1762982494
 30
0.0
 10
114.4297677151
 20
228.1762982494
 30
0.0
 10
114.4712130214
 20
228.1857253457
 30
0.0
 10
114.534229827
 20
228.191046109
 30
0.0
 10
114.597168852
 20
228.1883627618
 30
0.0
 10
114.6389856642
 20
228.1909842832
 30
0.0
 10
114.6597858928
 20
228.1916580239
 30
0.0
  0
SPLINE
  5
36D
100
AcDbEntity
  8
0
100
AcDbSpline
 62
7
  6
BYLAYER
 70
0
 71
3
 72
11
 73
7
 74
0
 42
0.0000001
 43
0.0000001
 44
0.0000000001
 40
0.0
 40
0.0
 40
0.0
 40
0.0
 40
0.246038589
 40
0.4957947833
 40
0.7470812876
 40
1.0
 40
1.0
 40
1.0
 40
1.0
 10
114.0966693509
 20
228.1718221876
 30
0.0
 10
114.1222846041
 20
228.1707827554
 30
0.0
 10
114.1739524292
 20
228.170076108
 30
0.0
 10
114.2516289994
 20
228.1640219688
 30
0.0
 10
114.330312964
 20
228.1670466313
 30
0.0
 10
114.382351942
 20
228.1762982494
 30
0.0
 10
114.4087051599
 20
228.1762982494
 30
0.0
  0
SPLINE
  5
36E
100
AcDbEntity
  8
0
100
AcDbSpline
 62
7
  6
BYLAYER
 70
0
 71
3
 72
10
 73
6
 74
0
 42
0.0000001
 43
0.0000001
 44
0.0000000001
 40
0.0
 40
0.0
 40
0.0
 40
0.0
 40
0.2495013155
 40
0.6244680775
 40
1.0
 40
1.0
 40
1.0
 40
1.0
 10
95.9087051851
 20
213.2337229671
 30
0.0
 10
96.4372258242
 20
213.6980111479
 30
0.0
 10
97.7557372066
 20
214.8650338027
 30
0.0
 10
99.8329873125
 20
216.771788022
 30
0.0
 10
101.3836007113
 20
218.2117351482
 30
0.0
 10
102.1559149065
 20
218.9360830501
 30
0.0
  0
SPLINE
  5
36F
100
AcDbEntity
  8
0
100
AcDbSpline
 62
7
  6
BYLAYER
 70
0
 71
3
 72
12
 73
8
 74
0
 42
0.0000001
 43
0.0000001
 44
0.0000000001
 40
0.0
 40
0.0
 40
0.0
 40
0.0
 40
0.1734183077
 40
0.2801435005
 40
0.4018360289
 40
0.6846610792
 40
1.0
 40
1.0
 40
1.0
 40
1.0
 10
112.9110995393
 20
228.4211833183
 30
0.0
 10
112.9225768453
 20
228.522628948
 30
0.0
 10
113.0126666808
 20
228.6774550001
 30
0.0
 10
113.1955583747
 20
228.8270036707
 30
0.0
 10
113.4597380096
 20
228.9749695412
 30
0.0
 10
113.870233854
 20
229.0966062373
 30
0.0
 10
114.2230624707
 20
229.1288235022
 30
0.0
 10
114.4087051562
 20
229.1288235022
 30
0.0
  0
SPLINE
  5
370
100
AcDbEntity
  8
0
100
AcDbSpline
 62
7
  6
BYLAYER
 70
0
 71
3
 72
18
 73
14
 74
0
 42
0.0000001
 43
0.0000001
 44
0.0000000001
 40
0.0
 40
0.0
 40
0.0
 40
0.0
 40
0.0036798235
 40
0.008285072
 40
0.01473668
 40
0.0331878052
 40
0.0590524742
 40
0.0923702768
 40
0.1332067555
 40
0.2377687186
 40
0.3737918905
 40
0.5433203256
 40
1.0
 40
1.0
 40
1.0
 40
1.0
 10
80.3753235632
 20
116.9109944534
 30
0.0
 10
80.3745585755
 20
116.9087797418
 30
0.0
 10
80.3843344056
 20
116.9149414306
 30
0.0
 10
80.3908197327
 20
116.9154135865
 30
0.0
 10
80.4101056953
 20
116.9225345
 30
0.0
 10
80.439765004
 20
116.9316343077
 30
0.0
 10
80.4871208027
 20
116.9478907102
 30
0.0
 10
80.5470539701
 20
116.9686946481
 30
0.0
 10
80.6539560294
 20
117.0080655086
 30
0.0
 10
80.8202481041
 20
117.0747432412
 30
0.0
 10
81.0573349373
 20
117.1848521465
 30
0.0
 10
81.4812982888
 20
117.4212416846
 30
0.0
 10
81.7977430019
 20
117.6744218687
 30
0.0
 10
81.9954629927
 20
117.8876462794
 30
0.0
  0
SPLINE
  5
371
100
AcDbEntity
  8
0
100
AcDbSpline
 62
7
  6
BYLAYER
 70
0
 71
3
 72
13
 73
9
 74
0
 42
0.0000001
 43
0.0000001
 44
0.0000000001
 40
0.0
 40
0.0
 40
0.0
 40
0.0
 40
0.3148073201
 40
0.4621800844
 40
0.5978838246
 40
0.7195890063
 40
0.8264067491
 40
1.0
 40
1.0
 40
1.0
 40
1.0
 10
114.4087051562
 20
229.1288235022
 30
0.0
 10
114.5937266349
 20
229.1288235022
 30
0.0
 10
114.8665732797
 20
229.1043563362
 30
0.0
 10
115.2079344554
 20
229.0185864798
 30
0.0
 10
115.4308407319
 20
228.9338524606
 30
0.0
 10
115.6189441494
 20
228.8288842515
 30
0.0
 10
115.802203364
 20
228.6802124721
 30
0.0
 10
115.8933166898
 20
228.5263837953
 30
0.0
 10
115.9058433841
 20
228.4251298911
 30
0.0
  0
SPLINE
  5
372
100
AcDbEntity
  8
0
100
AcDbSpline
 62
7
  6
BYLAYER
 70
0
 71
3
 72
14
 73
10
 74
0
 42
0.0000001
 43
0.0000001
 44
0.0000000001
 40
0.0
 40
0.0
 40
0.0
 40
0.0
 40
0.0577121434
 40
0.127567057
 40
0.21657043
 40
0.327698388
 40
0.4619619471
 40
0.6193279635
 40
1.0
 40
1.0
 40
1.0
 40
1.0
 10
87.8629452576
 20
219.8170713324
 30
0.0
 10
87.813813298
 20
219.7679393729
 30
0.0
 10
87.7358560892
 20
219.6276632727
 30
0.0
 10
87.7122851357
 20
219.363791907
 30
0.0
 10
87.7611407551
 20
219.0407062918
 30
0.0
 10
87.8812034383
 20
218.6553542654
 30
0.0
 10
88.0717014576
 20
218.2088333316
 30
0.0
 10
88.4428797595
 20
217.4889895834
 30
0.0
 10
88.7881941834
 20
216.9395021989
 30
0.0
 10
89.0433503028
 20
216.5587833829
 30
0.0
  0
SPLINE
  5
373
100
AcDbEntity
  8
0
100
AcDbSpline
 62
7
  6
BYLAYER
 70
0
 71
3
 72
16
 73
12
 74
0
 42
0.0000001
 43
0.0000001
 44
0.0000000001
 40
0.0
 40
0.0
 40
0.0
 40
0.0
 40
0.4237795112
 40
0.5959250052
 40
0.7392574944
 40
0.8523592032
 40
0.9340810832
 40
0.9628523969
 40
0.983458776
 40
0.9958560334
 40
1.0
 40
1.0
 40
1.0
 40
1.0
 10
83.4929557039
 20
143.1794304039
 30
0.0
 10
82.7843368809
 20
143.7998435089
 30
0.0
 10
81.7895732122
 20
144.6742312659
 30
0.0
 10
80.5587449692
 20
145.7625424703
 30
0.0
 10
79.8461294545
 20
146.3945608952
 30
0.0
 10
79.2846380984
 20
146.8940901961
 30
0.0
 10
78.9133584155
 20
147.2244034502
 30
0.0
 10
78.6962766255
 20
147.4187171021
 30
0.0
 10
78.5932378271
 20
147.5095002094
 30
0.0
 10
78.5327068974
 20
147.565583332
 30
0.0
 10
78.5041879888
 20
147.5889247168
 30
0.0
 10
78.4977720186
 20
147.5955319924
 30
0.0
  0
SPLINE
  5
374
100
AcDbEntity
  8
0
100
AcDbSpline
 62
7
  6
BYLAYER
 70
0
 71
3
 72
11
 73
7
 74
0
 42
0.0000001
 43
0.0000001
 44
0.0000000001
 40
0.0
 40
0.0
 40
0.0
 40
0.0
 40
0.2446744913
 40
0.4950485138
 40
0.7475071596
 40
1.0
 40
1.0
 40
1.0
 40
1.0
 10
82.5014989957
 20
142.3140528587
 30
0.0
 10
82.5761887119
 20
142.3915058288
 30
0.0
 10
82.7313928228
 20
142.5442366777
 30
0.0
 10
82.9656348964
 20
142.7747861916
 30
0.0
 10
83.2146730205
 20
142.9954161042
 30
0.0
 10
83.3987397034
 20
143.1206757378
 30
0.0
 10
83.4929726087
 20
143.1794072887
 30
0.0
  0
SPLINE
  5
375
100
AcDbEntity
  8
0
100
AcDbSpline
 62
7
  6
BYLAYER
 70
0
 71
3
 72
9
 73
5
 74
0
 42
0.0000001
 43
0.0000001
 44
0.0000000001
 40
0.0
 40
0.0
 40
0.0
 40
0.0
 40
0.4810264596
 40
1.0
 40
1.0
 40
1.0
 40
1.0
 10
81.9594706185
 20
141.7140407763
 30
0.0
 10
82.0520089687
 20
141.8048474574
 30
0.0
 10
82.2246154666
 20
142.0125968789
 30
0.0
 10
82.4049996613
 20
142.212791982
 30
0.0
 10
82.5014989957
 20
142.3140528587
 30
0.0
  0
SPLINE
  5
376
100
AcDbEntity
  8
0
100
AcDbSpline
 62
7
  6
BYLAYER
 70
0
 71
3
 72
9
 73
5
 74
0
 42
0.0000001
 43
0.0000001
 44
0.0000000001
 40
0.0
 40
0.0
 40
0.0
 40
0.0
 40
0.2214023916
 40
1.0
 40
1.0
 40
1.0
 40
1.0
 10
81.1105188554
 20
140.5023216025
 30
0.0
 10
81.148504329
 20
140.605287023
 30
0.0
 10
81.3539934919
 20
141.0576432823
 30
0.0
 10
81.6759231957
 20
141.4522057072
 30
0.0
 10
81.9594706185
 20
141.7140407763
 30
0.0
  0
SPLINE
  5
377
100
AcDbEntity
  8
0
100
AcDbSpline
 62
7
  6
BYLAYER
 70
0
 71
3
 72
15
 73
11
 74
0
 42
0.0000001
 43
0.0000001
 44
0.0000000001
 40
0.0
 40
0.0
 40
0.0
 40
0.0
 40
0.413568552
 40
0.581599495
 40
0.7218593402
 40
0.8334196444
 40
0.915782224
 40
0.9460894821
 40
0.9695357057
 40
1.0
 40
1.0
 40
1.0
 40
1.0
 10
96.3507511797
 20
223.2306079659
 30
0.0
 10
95.958506053
 20
223.559646348
 30
0.0
 10
95.4035663619
 20
224.0187437548
 30
0.0
 10
94.6921197305
 20
224.5597457767
 30
0.0
 10
94.2676062729
 20
224.8598182146
 30
0.0
 10
93.9174766343
 20
225.080915766
 30
0.0
 10
93.672987324
 20
225.2123572574
 30
0.0
 10
93.5141629642
 20
225.2727631195
 30
0.0
 10
93.4155517154
 20
225.298404115
 30
0.0
 10
93.3377705531
 20
225.2918092464
 30
0.0
 10
93.3110595723
 20
225.2651854875
 30
0.0
  0
SPLINE
  5
378
100
AcDbEntity
  8
0
100
AcDbSpline
 62
7
  6
BYLAYER
 70
0
 71
3
 72
11
 73
7
 74
0
 42
0.0000001
 43
0.0000001
 44
0.0000000001
 40
0.0
 40
0.0
 40
0.0
 40
0.0
 40
0.2766575302
 40
0.5403626428
 40
0.7837338003
 40
1.0
 40
1.0
 40
1.0
 40
1.0
 10
102.1559149065
 20
218.9360830501
 30
0.0
 10
101.6010370003
 20
219.304783239
 30
0.0
 10
100.5296616434
 20
220.0435833254
 30
0.0
 10
98.9977570706
 20
221.1460405988
 30
0.0
 10
97.6091388717
 20
222.1980537101
 30
0.0
 10
96.7500733638
 20
222.8963125651
 30
0.0
 10
96.3507511797
 20
223.2306079659
 30
0.0
  0
SPLINE
  5
379
100
AcDbEntity
  8
0
100
AcDbSpline
 62
7
  6
BYLAYER
 70
0
 71
3
 72
9
 73
5
 74
0
 42
0.0000001
 43
0.0000001
 44
0.0000000001
 40
0.0
 40
0.0
 40
0.0
 40
0.0
 40
0.2476658901
 40
1.0
 40
1.0
 40
1.0
 40
1.0
 10
88.0660760691
 20
143.4030032421
 30
0.0
 10
88.194987381
 20
143.4488890918
 30
0.0
 10
88.7108787672
 20
143.6458822775
 30
0.0
 10
89.2078645211
 20
143.9001662727
 30
0.0
 10
89.5498096659
 20
144.1364878656
 30
0.0
  0
SPLINE
  5
37A
100
AcDbEntity
  8
0
100
AcDbSpline
 62
7
  6
BYLAYER
 70
0
 71
3
 72
8
 73
4
 74
0
 42
0.0000001
 43
0.0000001
 44
0.0000000001
 40
0.0
 40
0.0
 40
0.0
 40
0.0
 40
1.0
 40
1.0
 40
1.0
 40
1.0
 10
93.2429316147
 20
150.7684245214
 30
0.0
 10
93.3217386514
 20
149.5776340117
 30
0.0
 10
93.3418451054
 20
148.3774587664
 30
0.0
 10
93.2421078172
 20
147.1882384081
 30
0.0
  0
SPLINE
  5
37B
100
AcDbEntity
  8
0
100
AcDbSpline
 62
7
  6
BYLAYER
 70
0
 71
3
 72
18
 73
14
 74
0
 42
0.0000001
 43
0.0000001
 44
0.0000000001
 40
0.0
 40
0.0
 40
0.0
 40
0.0
 40
0.0635682495
 40
0.1284541364
 40
0.1941777722
 40
0.2597472599
 40
0.3245850885
 40
0.3886089287
 40
0.5144167828
 40
0.6378255726
 40
0.7593684087
 40
0.8797762098
 40
1.0
 40
1.0
 40
1.0
 40
1.0
 10
89.5498096659
 20
144.1364878656
 30
0.0
 10
89.7795563205
 20
144.295267998
 30
0.0
 10
90.2163766758
 20
144.6614540475
 30
0.0
 10
90.7014105821
 20
145.3808498477
 30
0.0
 10
90.9272401733
 20
146.2275001592
 30
0.0
 10
90.9217087471
 20
147.0957723853
 30
0.0
 10
90.7680947343
 20
147.938715667
 30
0.0
 10
90.4433433848
 20
149.0110036606
 30
0.0
 10
89.8963761883
 20
150.2774984237
 30
0.0
 10
89.1355885851
 20
151.7183909339
 30
0.0
 10
88.3207901822
 20
153.1018206057
 30
0.0
 10
87.4770728464
 20
154.4509465595
 30
0.0
 10
86.9011968694
 20
155.3375480293
 30
0.0
 10
86.611313591
 20
155.7790710887
 30
0.0
  0
SPLINE
  5
37C
100
AcDbEntity
  8
0
100
AcDbSpline
 62
7
  6
BYLAYER
 70
0
 71
3
 72
10
 73
6
 74
0
 42
0.0000001
 43
0.0000001
 44
0.0000000001
 40
0.0
 40
0.0
 40
0.0
 40
0.0
 40
0.2836515596
 40
0.5263412506
 40
1.0
 40
1.0
 40
1.0
 40
1.0
 10
113.1587051328
 20
218.7778888092
 30
0.0
 10
112.1182666683
 20
218.7778888094
 30
0.0
 10
110.1876622381
 20
218.7962887454
 30
0.0
 10
106.5200748267
 20
218.8514788147
 30
0.0
 10
103.8929497179
 20
218.9010584957
 30
0.0
 10
102.1559149123
 20
218.936083224
 30
0.0
  0
ELLIPSE
  5
37D
100
AcDbEntity
  8
0
100
AcDbEllipse
 62
7
  6
BYLAYER
 10
135.0721077215
 20
30.3153744949
 30
0.0
 11
19.4034025653
 21
0.0
 31
0.0
 40
0.2576867631
 41
-3.1415926535
 42
-3.1104386311
  0
ENDSEC
  0
SECTION
  2
OBJECTS
  0
DICTIONARY
  5
C
100
AcDbDictionary
280
0
281
1
  3
ACAD_GROUP
350
D
  3
ACAD_MLINESTYLE
350
17
  3
ACAD_LAYOUT
350
1A
  3
ACAD_PLOTSETTINGS
350
19
  3
ACAD_PLOTSTYLENAME
350
E
  0
DICTIONARY
  5
D
102
{ACAD_REACTORS
330
C
102
}
100
AcDbDictionary
280
0
281
1
  0
ACDBDICTIONARYWDFLT
  5
E
102
{ACAD_REACTORS
330
C
102
}
100
AcDbDictionary
281
1
  3
Normal
350
F
100
AcDbDictionaryWithDefault
340
F
  0
DICTIONARY
  5
17
102
{ACAD_REACTORS
330
C
102
}
100
AcDbDictionary
280
0
281
1
  3
Standard
350
18
  0
DICTIONARY
  5
19
102
{ACAD_REACTORS
330
C
102
}
100
AcDbDictionary
281
1
  0
DICTIONARY
  5
1A
102
{ACAD_REACTORS
330
C
102
}
100
AcDbDictionary
281
1
  3
Model
350
37E
  3
Layout1
350
37F
  0
ACDBPLACEHOLDER
  5
F
102
{ACAD_REACTORS
330
E
102
}
  0
MLINESTYLE
  5
18
102
{ACAD_REACTORS
330
17
102
}
100
AcDbMlineStyle
  2
STANDARD
 70
0
  3

 62
256
 51
90.0
 52
90.0
 71
2
 49
0.5
 62
256
  6
BYLAYER
 49
-0.5
 62
256
  6
BYLAYER
  0
LAYOUT
  5
37E
102
{ACAD_REACTORS
330
1A
102
}
100
AcDbPlotSettings
  1

  2
none_device
  4

  6

 40
0.0
 41
0.0
 42
0.0
 43
0.0
 44
210.0
 45
297.0
 46
0.0
 47
0.0
 48
0.0
 49
0.0
140
0.0
141
0.0
142
1.0
143
1.0
 70
1024
 72
1
 73
0
 74
0
  7

 75
0
147
1.0
148
0.0
149
0.0
100
AcDbLayout
  1
Model
 70
0
 71
0
 10
0.0
 20
0.0
 11
210.0
 21
297.0
 12
0.0
 22
0.0
 32
0.0
 14
0.0
 24
0.0
 34
0.0
 15
0.0
 25
0.0
 35
0.0
146
0.0
 13
0.0
 23
0.0
 33
0.0
 16
1.0
 26
0.0
 36
0.0
 17
0.0
 27
1.0
 37
0.0
 76
0
330
212
345
0
346
0
  0
LAYOUT
  5
37F
102
{ACAD_REACTORS
330
1A
102
}
100
AcDbPlotSettings
  1

  2
none_device
  4

  6

 40
0.0
 41
0.0
 42
0.0
 43
0.0
 44
210.0
 45
297.0
 46
0.0
 47
0.0
 48
0.0
 49
0.0
140
0.0
141
0.0
142
1.0
143
1.0
 70
0
 72
1
 73
0
 74
0
  7

 75
0
147
1.0
148
0.0
149
0.0
100
AcDbLayout
  1
Layout1
 70
0
 71
1
 10
0.0
 20
0.0
 11
210.0
 21
297.0
 12
0.0
 22
0.0
 32
0.0
 14
0.0
 24
0.0
 34
0.0
 15
0.0
 25
0.0
 35
0.0
146
0.0
 13
0.0
 23
0.0
 33
0.0
 16
1.0
 26
0.0
 36
0.0
 17
0.0
 27
1.0
 37
0.0
 76
0
330
213
345
0
346
0
  0
ENDSEC
  0
EOF
