999
DXF file: C:\Users\sesa63760\Dev\_Creo\CAD\MCADID0005085_3D-CAD\drw0001_5.dxf
999
Pro/ENGINEER 2019471 by Parametric Technology Corporation
  0
SECTION
  2
HEADER
  9
$ACADVER
  1
AC1024
  9
$DWGCODEPAGE
  3
ANSI_1252
  9
$EXTMAX
 10
133.4068352407
 20
188.675381269
 30
0.0
  9
$EXTMIN
 10
0.0
 20
0.0
 30
0.0
  9
$LIMMIN
 10
0.0
 20
0.0
  9
$LIMMAX
 10
133.4068352407
 20
188.675381269
  9
$VIEWCTR
 10
66.7034176204
 20
94.3376906345
  9
$VIEWSIZE
 40
188.675381269
  9
$CLAYER
  8
0
  9
$LTSCALE
 40
12.2988396679
  9
$CELTYPE
  6
BYLAYER
  9
$DIMSCALE
 40
1.0
  9
$DIMASZ
 40
1.58817661
  9
$DIMEXO
 40
1.0
  9
$DIMDLI
 40
8.4973801342
  9
$DIMEXE
 40
1.0
  9
$DIMCEN
 40
2.0125374002
  9
$DIMLFAC
 40
1.0
  9
$DIMBLK
  1
_FILLED
  9
$DIMALT
 70
0
  9
$DIMALTF
 40
0.0393700787
  9
$DIMTXT
 40
2.223447254
  9
$DIMTOL
 70
1
  9
$DIMLIM
 70
0
  9
$DIMTFAC
 40
1.0
  9
$DIMTP
 40
0.01
  9
$DIMTM
 40
0.01
  9
$DIMGAP
 40
0.625
  9
$DIMDSEP
 70
46
  9
$AUNITS
 70
0
  9
$PDMODE
 70
3
  9
$PDSIZE
 40
0.3125
  9
$HANDSEED
  5
247
  9
$TILEMODE
 70
1
  9
$MEASUREMENT
 70
1
  9
$INSUNITS
 70
4
  0
ENDSEC
  0
SECTION
  2
CLASSES
  0
CLASS
  1
ACDBDICTIONARYWDFLT
  2
AcDbDictionaryWithDefault
  3
AutoCAD 2000
 90
0
 91
1
280
0
281
0
  0
CLASS
  1
ACDBPLACEHOLDER
  2
AcDbPlaceHolder
  3
AutoCAD 2000
 90
0
 91
1
280
0
281
0
  0
CLASS
  1
LAYOUT
  2
AcDbLayout
  3
AutoCAD 2000
 90
0
 91
0
280
0
281
0
  0
ENDSEC
  0
SECTION
  2
TABLES
  0
TABLE
  2
VPORT
  5
8
100
AcDbSymbolTable
 70
2
  0
VPORT
  5
1F4
100
AcDbSymbolTableRecord
100
AcDbViewportTableRecord
  2
*ACTIVE
 70
0
 10
0.0
 20
0.0
 11
1.0
 21
1.0
 12
66.7034176204
 22
94.3376906345
 13
0.0
 23
0.0
 14
1.0
 24
1.0
 15
0.0
 25
0.0
 16
0.0
 26
0.0
 36
1.0
 17
0.0
 27
0.0
 37
0.0
 40
188.675381269
 41
0.7070707071
 42
50.0
 43
0.0
 44
0.0
 50
0.0
 51
0.0
 71
0
 72
100
 73
1
 74
1
 75
0
 76
0
 77
0
 78
0
  0
ENDTAB
  0
TABLE
  2
LTYPE
  5
5
100
AcDbSymbolTable
 70
6
  0
LTYPE
  5
14
100
AcDbSymbolTableRecord
100
AcDbLinetypeTableRecord
  2
BYBLOCK
 70
0
  3

 72
65
 73
0
 40
0.0
  0
LTYPE
  5
15
100
AcDbSymbolTableRecord
100
AcDbLinetypeTableRecord
  2
BYLAYER
 70
0
  3

 72
65
 73
0
 40
0.0
  0
LTYPE
  5
16
100
AcDbSymbolTableRecord
100
AcDbLinetypeTableRecord
  2
CONTINUOUS
 70
64
  3
Solid line
 72
65
 73
0
 40
0.0
  0
LTYPE
  5
1F5
100
AcDbSymbolTableRecord
100
AcDbLinetypeTableRecord
  2
CENTER
 70
64
  3
____ _ ____ _ ____ _ ____ _ ____ _ ____ _ ____
 72
65
 73
4
 40
0.6
 49
0.375
 74
0
 49
-0.075
 74
0
 49
0.075
 74
0
 49
-0.075
 74
0
  0
LTYPE
  5
1F6
100
AcDbSymbolTableRecord
100
AcDbLinetypeTableRecord
  2
HIDDEN
 70
64
  3
- - - - - - - - - - - - - - - - - - - -
 72
65
 73
2
 40
0.2
 49
0.1
 74
0
 49
-0.1
 74
0
  0
LTYPE
  5
1F7
100
AcDbSymbolTableRecord
100
AcDbLinetypeTableRecord
  2
PHANTOM
 70
64
  3
_____ _ _ _____ _ _ _____ _ _ _____
 72
65
 73
6
 40
0.8
 49
0.45
 74
0
 49
-0.05
 74
0
 49
0.1
 74
0
 49
-0.05
 74
0
 49
0.1
 74
0
 49
-0.05
 74
0
  0
LTYPE
  5
1F8
100
AcDbSymbolTableRecord
100
AcDbLinetypeTableRecord
  2
DOT
 70
64
  3
. . . . . . . . . . . . . . . . . . . .
 72
65
 73
2
 40
0.2
 49
0.1
 74
0
 49
-0.1
 74
0
  0
LTYPE
  5
1F9
100
AcDbSymbolTableRecord
100
AcDbLinetypeTableRecord
  2
DASHED
 70
64
  3
- - - - - - - - - - - - - - - - - - - -
 72
65
 73
2
 40
0.2
 49
0.1
 74
0
 49
-0.1
 74
0
  0
ENDTAB
  0
TABLE
  2
LAYER
  5
2
100
AcDbSymbolTable
 70
36
  0
LAYER
  5
10
100
AcDbSymbolTableRecord
100
AcDbLayerTableRecord
  2
0
 70
0
 62
7
  6
CONTINUOUS
370
-3
390
F
  0
LAYER
  5
1FA
100
AcDbSymbolTableRecord
100
AcDbLayerTableRecord
  2
DEFAULT_1
 70
0
 62
7
  6
CENTER
370
-3
390
F
  0
LAYER
  5
1FB
100
AcDbSymbolTableRecord
100
AcDbLayerTableRecord
  2
DEFAULT_2
 70
0
 62
7
  6
HIDDEN
370
-3
390
F
  0
LAYER
  5
1FC
100
AcDbSymbolTableRecord
100
AcDbLayerTableRecord
  2
DEFAULT_3
 70
0
 62
7
  6
PHANTOM
370
-3
390
F
  0
LAYER
  5
1FD
100
AcDbSymbolTableRecord
100
AcDbLayerTableRecord
  2
00_COMPONENTS
 70
0
 62
7
  6
CONTINUOUS
370
-3
390
F
  0
LAYER
  5
1FE
100
AcDbSymbolTableRecord
100
AcDbLayerTableRecord
  2
01_1_DEFAULT_DATUMS
 70
0
 62
7
  6
CONTINUOUS
370
-3
390
F
  0
LAYER
  5
1FF
100
AcDbSymbolTableRecord
100
AcDbLayerTableRecord
  2
01_PLANES
 70
0
 62
7
  6
CONTINUOUS
370
-3
390
F
  0
LAYER
  5
200
100
AcDbSymbolTableRecord
100
AcDbLayerTableRecord
  2
02_COORD_SYS
 70
0
 62
7
  6
CONTINUOUS
370
-3
390
F
  0
LAYER
  5
201
100
AcDbSymbolTableRecord
100
AcDbLayerTableRecord
  2
03_AXES
 70
0
 62
7
  6
CONTINUOUS
370
-3
390
F
  0
LAYER
  5
202
100
AcDbSymbolTableRecord
100
AcDbLayerTableRecord
  2
04_POINTS
 70
0
 62
7
  6
CONTINUOUS
370
-3
390
F
  0
LAYER
  5
203
100
AcDbSymbolTableRecord
100
AcDbLayerTableRecord
  2
05_CURVES
 70
0
 62
7
  6
CONTINUOUS
370
-3
390
F
  0
LAYER
  5
204
100
AcDbSymbolTableRecord
100
AcDbLayerTableRecord
  2
06_SURFS
 70
0
 62
7
  6
CONTINUOUS
370
-3
390
F
  0
LAYER
  5
205
100
AcDbSymbolTableRecord
100
AcDbLayerTableRecord
  2
07_COSMETICS
 70
0
 62
7
  6
CONTINUOUS
370
-3
390
F
  0
LAYER
  5
206
100
AcDbSymbolTableRecord
100
AcDbLayerTableRecord
  2
10_NOTES
 70
0
 62
7
  6
CONTINUOUS
370
-3
390
F
  0
LAYER
  5
207
100
AcDbSymbolTableRecord
100
AcDbLayerTableRecord
  2
11_NOTES_PUB
 70
0
 62
7
  6
CONTINUOUS
370
-3
390
F
  0
LAYER
  5
208
100
AcDbSymbolTableRecord
100
AcDbLayerTableRecord
  2
13_REF_GTOL
 70
0
 62
7
  6
CONTINUOUS
370
-3
390
F
  0
LAYER
  5
209
100
AcDbSymbolTableRecord
100
AcDbLayerTableRecord
  2
16_MISC
 70
0
 62
7
  6
CONTINUOUS
370
-3
390
F
  0
LAYER
  5
20A
100
AcDbSymbolTableRecord
100
AcDbLayerTableRecord
  2
17_NO_PRINT
 70
0
 62
7
  6
CONTINUOUS
370
-3
390
F
  0
LAYER
  5
20B
100
AcDbSymbolTableRecord
100
AcDbLayerTableRecord
  2
18_DATUM_CAMS_JOINTS
 70
0
 62
7
  6
CONTINUOUS
370
-3
390
F
  0
LAYER
  5
20C
100
AcDbSymbolTableRecord
100
AcDbLayerTableRecord
  2
19_DATUM_FUNCTIONAL
 70
0
 62
7
  6
CONTINUOUS
370
-3
390
F
  0
LAYER
  5
20D
100
AcDbSymbolTableRecord
100
AcDbLayerTableRecord
  2
20_DATUM_KINEMATIC_SCHEME
 70
0
 62
7
  6
CONTINUOUS
370
-3
390
F
  0
ENDTAB
  0
TABLE
  2
STYLE
  5
3
100
AcDbSymbolTable
 70
1
  0
STYLE
  5
11
100
AcDbSymbolTableRecord
100
AcDbTextStyleTableRecord
  2
STANDARD
 70
0
 40
0.0
 41
1.0
 50
0.0
 71
0
 42
0.2
  3
ARIAL.TTF
  4

  0
STYLE
  5
20E
100
AcDbSymbolTableRecord
100
AcDbTextStyleTableRecord
  2
TEXTSTYLE_1
 70
0
 40
0.0
 41
0.8
 50
0.0
 71
0
 42
0.2
  3
gdt
  4

  0
ENDTAB
  0
TABLE
  2
VIEW
  5
6
100
AcDbSymbolTable
 70
0
  0
ENDTAB
  0
TABLE
  2
UCS
  5
7
100
AcDbSymbolTable
 70
0
  0
ENDTAB
  0
TABLE
  2
APPID
  5
9
100
AcDbSymbolTable
 70
1
  0
APPID
  5
20F
100
AcDbSymbolTableRecord
100
AcDbRegAppTableRecord
  2
ACAD
 70
0
  0
ENDTAB
  0
TABLE
  2
BLOCK_RECORD
  5
1
100
AcDbSymbolTable
 70
0
  0
BLOCK_RECORD
  5
210
100
AcDbSymbolTableRecord
100
AcDbBlockTableRecord
  2
*Model_Space
  0
BLOCK_RECORD
  5
211
100
AcDbSymbolTableRecord
100
AcDbBlockTableRecord
  2
*Paper_Space
  0
BLOCK_RECORD
  5
212
100
AcDbSymbolTableRecord
100
AcDbBlockTableRecord
  2
_FILLED
  0
ENDTAB
  0
TABLE
  2
DIMSTYLE
  5
A
100
AcDbSymbolTable
 70
1
100
AcDbDimStyleTable
 71
0
  0
DIMSTYLE
105
213
100
AcDbSymbolTableRecord
100
AcDbDimStyleTableRecord
  2
STANDARD
 70
0
  3

  4

 40
1.0
 41
1.58817661
 42
1.0
 43
0.38
 44
1.0
 45
0.0
 46
0.0
 47
0.01
 48
0.01
140
2.223447254
141
0.09
142
0.0
143
25.4
144
1.0
145
0.0
146
1.0
147
0.625
 71
1
 72
0
 73
0
 74
0
 75
0
 76
0
 77
1
 78
8
 79
2
170
0
171
1
172
0
173
0
174
0
175
0
176
0
177
0
178
0
270
2
179
2
271
2
272
2
273
2
274
2
275
0
280
0
281
0
282
0
283
1
284
8
285
0
286
0
287
3
288
0
340
11
278
46
341
212
342
212
343
212
344
212
  0
ENDTAB
  0
ENDSEC
  0
SECTION
  2
BLOCKS
  0
BLOCK
  5
20
100
AcDbEntity
  8
0
100
AcDbBlockBegin
  2
*Model_Space
 70
0
 10
0.0
 20
0.0
 30
0.0
  3
*Model_Space
  1

  0
ENDBLK
  5
21
100
AcDbEntity
  8
0
100
AcDbBlockEnd
  0
BLOCK
  5
1C
100
AcDbEntity
  8
0
100
AcDbBlockBegin
  2
*Paper_Space
 70
0
 10
0.0
 20
0.0
 30
0.0
  3
*Paper_Space
  1

  0
ENDBLK
  5
1D
100
AcDbEntity
  8
0
100
AcDbBlockEnd
  0
BLOCK
  5
214
100
AcDbEntity
  8
0
100
AcDbBlockBegin
  2
_FILLED
 70
64
 10
0.0
 20
0.0
  3
_FILLED
  1

  0
SOLID
  5
215
100
AcDbEntity
  8
0
  6
BYBLOCK
 62
0
100
AcDbTrace
 10
0.0
 20
0.0
 11
-1.0
 21
0.25
 12
-1.0
 22
-0.25
 13
-1.0
 23
-0.25
  0
ENDBLK
  5
216
100
AcDbEntity
  8
0
  6
BYBLOCK
 62
0
100
AcDbBlockEnd
  0
ENDSEC
  0
SECTION
  2
ENTITIES
  0
LINE
  5
217
100
AcDbEntity
  8
0
100
AcDbLine
 62
7
  6
BYLAYER
 10
16.276337894
 20
69.0912830733
 11
15.5509121738
 21
96.8620417021
  0
LINE
  5
218
100
AcDbEntity
  8
0
100
AcDbLine
 62
7
  6
BYLAYER
 10
15.6710560642
 20
92.2626914344
 11
15.6710560642
 21
103.0108894526
  0
LINE
  5
219
100
AcDbEntity
  8
0
100
AcDbLine
 62
7
  6
BYLAYER
 10
15.9218854767
 20
82.6604359894
 11
15.9218854767
 21
115.8480954396
  0
LINE
  5
21A
100
AcDbEntity
  8
0
100
AcDbLine
 62
7
  6
BYLAYER
 10
15.5509121738
 20
96.8620417021
 11
15.9574826084
 21
117.6699221038
  0
LINE
  5
21B
100
AcDbEntity
  8
0
100
AcDbLine
 62
7
  6
BYLAYER
 10
18.2097523532
 20
67.1455738847
 11
18.2097523532
 21
118.9702705383
  0
LINE
  5
21C
100
AcDbEntity
  8
0
100
AcDbLine
 62
7
  6
BYLAYER
 10
15.9574826084
 20
117.6699221038
 11
21.8009121738
 21
121.0436274537
  0
LINE
  5
21D
100
AcDbEntity
  8
0
100
AcDbLine
 62
7
  6
BYLAYER
 10
38.5509128444
 20
121.0436274537
 11
38.5509128444
 21
121.9936274537
  0
LINE
  5
21E
100
AcDbEntity
  8
0
100
AcDbLine
 62
7
  6
BYLAYER
 10
86.7508935491
 20
67.1436274537
 11
80.2509307985
 21
67.1436274537
  0
LINE
  5
21F
100
AcDbEntity
  8
0
100
AcDbLine
 62
7
  6
BYLAYER
 10
56.7508935491
 20
67.1436274537
 11
50.2509307985
 21
67.1436274537
  0
LINE
  5
220
100
AcDbEntity
  8
0
100
AcDbLine
 62
7
  6
BYLAYER
 10
86.8509121738
 20
67.1455548363
 11
90.8509119818
 21
67.1455548363
  0
LINE
  5
221
100
AcDbEntity
  8
0
100
AcDbLine
 62
7
  6
BYLAYER
 10
41.0608616674
 20
67.1592364495
 11
41.8509119589
 21
67.1592364495
  0
LINE
  5
222
100
AcDbEntity
  8
0
100
AcDbLine
 62
7
  6
BYLAYER
 10
86.8509121738
 20
67.1592364495
 11
90.850911545
 21
67.1592364495
  0
LINE
  5
223
100
AcDbEntity
  8
0
100
AcDbLine
 62
7
  6
BYLAYER
 10
46.0509121738
 20
67.1436939082
 11
18.1873134009
 21
67.1455725522
  0
LINE
  5
224
100
AcDbEntity
  8
0
100
AcDbLine
 62
7
  6
BYLAYER
 10
118.9257977589
 20
67.1455712087
 11
92.109187129
 21
67.1456005477
  0
LINE
  5
225
100
AcDbEntity
  8
0
100
AcDbLine
 62
7
  6
BYLAYER
 10
41.8509120294
 20
67.6436274537
 11
41.8509119589
 21
67.1592364519
  0
LINE
  5
226
100
AcDbEntity
  8
0
100
AcDbLine
 62
7
  6
BYLAYER
 10
44.5509121738
 20
67.1437862932
 11
44.5509121738
 21
67.6436274537
  0
LINE
  5
227
100
AcDbEntity
  8
0
100
AcDbLine
 62
7
  6
BYLAYER
 10
41.8509120294
 20
67.6436274537
 11
86.8509121738
 21
67.6436274537
  0
LINE
  5
228
100
AcDbEntity
  8
0
100
AcDbLine
 62
7
  6
BYLAYER
 10
116.8378362709
 20
69.091273524
 11
20.2631763925
 21
69.091273524
  0
LINE
  5
229
100
AcDbEntity
  8
0
100
AcDbLine
 62
7
  6
BYLAYER
 10
46.0509121738
 20
67.1436939082
 11
46.0509121738
 21
67.6436274537
  0
LINE
  5
22A
100
AcDbEntity
  8
0
100
AcDbLine
 62
7
  6
BYLAYER
 10
50.2509121738
 20
67.6436274537
 11
50.2509121738
 21
67.1436274537
  0
LINE
  5
22B
100
AcDbEntity
  8
0
100
AcDbLine
 62
7
  6
BYLAYER
 10
56.7509121738
 20
67.6436274537
 11
56.7509121738
 21
67.1436274537
  0
LINE
  5
22C
100
AcDbEntity
  8
0
100
AcDbLine
 62
7
  6
BYLAYER
 10
114.5419027634
 20
93.1436274537
 11
22.5586816942
 21
93.1436274537
  0
LINE
  5
22D
100
AcDbEntity
  8
0
100
AcDbLine
 62
7
  6
BYLAYER
 10
80.2509121738
 20
67.6436274537
 11
80.2509121738
 21
67.1436274537
  0
LINE
  5
22E
100
AcDbEntity
  8
0
100
AcDbLine
 62
7
  6
BYLAYER
 10
86.7509121738
 20
67.6436274537
 11
86.7509121738
 21
67.1436274537
  0
LINE
  5
22F
100
AcDbEntity
  8
0
100
AcDbLine
 62
7
  6
BYLAYER
 10
86.8509121738
 20
67.1592364475
 11
86.8509121738
 21
67.6436274537
  0
LINE
  5
230
100
AcDbEntity
  8
0
100
AcDbLine
 62
7
  6
BYLAYER
 10
116.917303799
 20
119.0391235705
 11
20.183727113
 21
119.0391235705
  0
LINE
  5
231
100
AcDbEntity
  8
0
100
AcDbLine
 62
7
  6
BYLAYER
 10
115.3009121738
 20
121.0436274537
 11
21.8009121738
 21
121.0436274537
  0
LINE
  5
232
100
AcDbEntity
  8
0
100
AcDbLine
 62
7
  6
BYLAYER
 10
98.5509115032
 20
121.9936274537
 11
38.5509128444
 21
121.9936274537
  0
LINE
  5
233
100
AcDbEntity
  8
0
100
AcDbLine
 62
7
  6
BYLAYER
 10
98.5509115032
 20
121.0436274537
 11
98.5509115032
 21
121.9936274537
  0
LINE
  5
234
100
AcDbEntity
  8
0
100
AcDbLine
 62
7
  6
BYLAYER
 10
115.3009121738
 20
121.0436274537
 11
121.1443417392
 21
117.6699221038
  0
LINE
  5
235
100
AcDbEntity
  8
0
100
AcDbLine
 62
7
  6
BYLAYER
 10
118.8920621048
 20
67.1455880544
 11
118.8920621048
 21
118.9702762481
  0
LINE
  5
236
100
AcDbEntity
  8
0
100
AcDbLine
 62
7
  6
BYLAYER
 10
121.1443417392
 20
117.6699221038
 11
121.5509121738
 21
96.735235443
  0
LINE
  5
237
100
AcDbEntity
  8
0
100
AcDbLine
 62
7
  6
BYLAYER
 10
121.4307682834
 20
92.1568866326
 11
121.4307682834
 21
102.9215551688
  0
LINE
  5
238
100
AcDbEntity
  8
0
100
AcDbLine
 62
7
  6
BYLAYER
 10
120.8254864536
 20
69.0912830733
 11
121.5509121738
 21
96.735235443
  0
ARC
  5
239
100
AcDbEntity
  8
0
100
AcDbCircle
 62
7
  6
BYLAYER
 10
118.8254183982
 20
69.1437988018
 40
2.0007573886
100
AcDbArc
 50
272.875787626
 51
358.4959319753
  0
ARC
  5
23A
100
AcDbEntity
  8
0
100
AcDbCircle
 62
7
  6
BYLAYER
 10
18.2756648783
 20
69.1436323236
 40
2.0000122084
100
AcDbArc
 50
181.4998576912
 51
267.4681101997
  0
SPLINE
  5
23B
100
AcDbEntity
  8
0
100
AcDbSpline
 62
7
  6
BYLAYER
 70
0
 71
3
 72
9
 73
5
 74
0
 42
0.0000001
 43
0.0000001
 44
0.0000000001
 40
0.0
 40
0.0
 40
0.0
 40
0.0
 40
0.4959287125
 40
1.0
 40
1.0
 40
1.0
 40
1.0
 10
92.1091870319
 20
67.1455911751
 30
0.0
 10
91.9011823778
 20
67.1479808963
 30
0.0
 10
91.4817975202
 20
67.1555478086
 30
0.0
 10
91.0623457838
 20
67.1592364471
 30
0.0
 10
90.8509119818
 20
67.1592364471
 30
0.0
  0
SPLINE
  5
23C
100
AcDbEntity
  8
0
100
AcDbSpline
 62
7
  6
BYLAYER
 70
0
 71
3
 72
9
 73
5
 74
0
 42
0.0000001
 43
0.0000001
 44
0.0000000001
 40
0.0
 40
0.0
 40
0.0
 40
0.0
 40
0.504070382
 40
1.0
 40
1.0
 40
1.0
 40
1.0
 10
41.0608616674
 20
67.159236452
 30
0.0
 10
40.8494508975
 20
67.159236452
 30
0.0
 10
40.4300440036
 20
67.1555561187
 30
0.0
 10
40.0107043153
 20
67.1479729498
 30
0.0
 10
39.8027215633
 20
67.1455837538
 30
0.0
  0
SPLINE
  5
23D
100
AcDbEntity
  8
0
100
AcDbSpline
 62
7
  6
BYLAYER
 70
0
 71
3
 72
33
 73
29
 74
0
 42
0.0000001
 43
0.0000001
 44
0.0000000001
 40
0.0
 40
0.0
 40
0.0
 40
0.0
 40
0.1250334909
 40
0.2500669647
 40
0.3125837459
 40
0.3751005297
 40
0.4376173148
 40
0.5001340999
 40
0.562650881
 40
0.6251676489
 40
0.6876843818
 40
0.7189428126
 40
0.750201244
 40
0.7814596729
 40
0.8127180891
 40
0.843976472
 40
0.8752347645
 40
0.8908640212
 40
0.9064932682
 40
0.9221224818
 40
0.9377516037
 40
0.9533804381
 40
0.9690080997
 40
0.9768223648
 40
0.984635373
 40
0.9885425192
 40
0.9924486238
 40
1.0
 40
1.0
 40
1.0
 40
1.0
 10
116.917303799
 20
119.0391235705
 30
0.0
 10
116.8714637237
 20
117.951010161
 30
0.0
 10
116.7761271434
 20
115.7749353679
 30
0.0
 10
116.6459700981
 20
113.0553414571
 30
0.0
 10
116.5336410457
 20
110.8800798225
 30
0.0
 10
116.4447336111
 20
109.2488795592
 30
0.0
 10
116.3504916073
 20
107.6179779705
 30
0.0
 10
116.2500430741
 20
105.9874457061
 30
0.0
 10
116.1422412821
 20
104.3573809546
 30
0.0
 10
116.0255109781
 20
102.7279293751
 30
0.0
 10
115.9189440853
 20
101.3707420712
 30
0.0
 10
115.8263773245
 20
100.2855996607
 30
0.0
 10
115.7526527507
 20
99.4721186197
 30
0.0
 10
115.6738158035
 20
98.6591155057
 30
0.0
 10
115.5887437052
 20
97.8467375054
 30
0.0
 10
115.4958205553
 20
97.0352173093
 30
0.0
 10
115.4098316824
 20
96.3599666373
 30
0.0
 10
115.3338198585
 20
95.8207499056
 30
0.0
 10
115.2723542121
 20
95.4169853378
 30
0.0
 10
115.2052611508
 20
95.0141128358
 30
0.0
 10
115.1307851479
 20
94.612527389
 30
0.0
 10
115.045840287
 20
94.2130085641
 30
0.0
 10
114.9620483229
 20
93.8830233735
 30
0.0
 10
114.8799272779
 20
93.6232086193
 30
0.0
 10
114.8193643204
 20
93.4644558085
 30
0.0
 10
114.7591452464
 20
93.3411389189
 30
0.0
 10
114.69269859
 20
93.2294540924
 30
0.0
 10
114.6076770207
 20
93.1436407283
 30
0.0
 10
114.54190231
 20
93.1436274537
 30
0.0
  0
SPLINE
  5
23E
100
AcDbEntity
  8
0
100
AcDbSpline
 62
7
  6
BYLAYER
 70
0
 71
3
 72
36
 73
32
 74
0
 42
0.0000001
 43
0.0000001
 44
0.0000000001
 40
0.0
 40
0.0
 40
0.0
 40
0.0
 40
0.1250008989
 40
0.2500017799
 40
0.3125022675
 40
0.3750027577
 40
0.4375032495
 40
0.5000037416
 40
0.5625042288
 40
0.6250047021
 40
0.6875051376
 40
0.7187554244
 40
0.7500057125
 40
0.7812559965
 40
0.8125062681
 40
0.8437565033
 40
0.8750066394
 40
0.8906318276
 40
0.9062570048
 40
0.9218821469
 40
0.9375071888
 40
0.9531319144
 40
0.9687553626
 40
0.9765675619
 40
0.9843784011
 40
0.9882845608
 40
0.9921895705
 40
0.9941433492
 40
0.9960972018
 40
0.9980502546
 40
1.0
 40
1.0
 40
1.0
 40
1.0
 10
116.8378362709
 20
69.091273524
 30
0.0
 10
116.7932042152
 20
70.1024994793
 30
0.0
 10
116.700443248
 20
72.1247990351
 30
0.0
 10
116.5739733905
 20
74.6521730177
 30
0.0
 10
116.464933282
 20
76.6736580288
 30
0.0
 10
116.3786824461
 20
78.1895253931
 30
0.0
 10
116.287311155
 20
79.7050935645
 30
0.0
 10
116.1899794454
 20
81.2202917934
 30
0.0
 10
116.085580078
 20
82.7350215885
 30
0.0
 10
115.9725951363
 20
84.2491370459
 30
0.0
 10
115.8694994443
 20
85.5102094128
 30
0.0
 10
115.7799801
 20
86.5184584022
 30
0.0
 10
115.708699254
 20
87.274268453
 30
0.0
 10
115.6324901089
 20
88.0295991039
 30
0.0
 10
115.5502703411
 20
88.7843028126
 30
0.0
 10
115.460476999
 20
89.5381456663
 30
0.0
 10
115.37739405
 20
90.1653279189
 30
0.0
 10
115.3039556548
 20
90.6660852732
 30
0.0
 10
115.2445704418
 20
91.0410025572
 30
0.0
 10
115.1797493194
 20
91.4150206053
 30
0.0
 10
115.1077824249
 20
91.7877518143
 30
0.0
 10
115.0257167192
 20
92.1583700636
 30
0.0
 10
114.9446560458
 20
92.4643439689
 30
0.0
 10
114.8654006915
 20
92.7046917006
 30
0.0
 10
114.8064909756
 20
92.851731452
 30
0.0
 10
114.7490187226
 20
92.9645112422
 30
0.0
 10
114.7064364311
 20
93.0314559976
 30
0.0
 10
114.6657353099
 20
93.0800383005
 30
0.0
 10
114.6306031107
 20
93.1122350805
 30
0.0
 10
114.5895049426
 20
93.1368728631
 30
0.0
 10
114.5576910709
 20
93.1436242673
 30
0.0
 10
114.5419027634
 20
93.1436274537
 30
0.0
  0
SPLINE
  5
23F
100
AcDbEntity
  8
0
100
AcDbSpline
 62
7
  6
BYLAYER
 70
0
 71
3
 72
33
 73
29
 74
0
 42
0.0000001
 43
0.0000001
 44
0.0000000001
 40
0.0
 40
0.0
 40
0.0
 40
0.0
 40
0.1250335023
 40
0.2500669875
 40
0.3125837745
 40
0.3751005639
 40
0.4376173548
 40
0.5001341456
 40
0.5626509324
 40
0.6251677059
 40
0.6876844446
 40
0.7189428782
 40
0.7502013125
 40
0.7814597442
 40
0.8127181632
 40
0.843976549
 40
0.8752348444
 40
0.8908641024
 40
0.9064933509
 40
0.9221225659
 40
0.9377516893
 40
0.9533805252
 40
0.9690081887
 40
0.9768224547
 40
0.9846354639
 40
0.9885426103
 40
0.9924487157
 40
1.0
 40
1.0
 40
1.0
 40
1.0
 10
20.183727113
 20
119.0391235705
 30
0.0
 10
20.2295564737
 20
117.951012303
 30
0.0
 10
20.3248711114
 20
115.7749417371
 30
0.0
 10
20.4549991207
 20
113.0553529248
 30
0.0
 10
20.5673036929
 20
110.880095216
 30
0.0
 10
20.6561920421
 20
109.2488978059
 30
0.0
 10
20.7504141141
 20
107.61799896
 30
0.0
 10
20.8508417153
 20
105.9874693019
 30
0.0
 10
20.9586213626
 20
104.3574069836
 30
0.0
 10
21.07532803
 20
102.7279576106
 30
0.0
 10
21.1818736424
 20
101.3707718903
 30
0.0
 10
21.2744221102
 20
100.2856305217
 30
0.0
 10
21.3481322155
 20
99.4721501229
 30
0.0
 10
21.4269537895
 20
98.6591474733
 30
0.0
 10
21.5120094099
 20
97.8467697056
 30
0.0
 10
21.6049146738
 20
97.0352494226
 30
0.0
 10
21.6908870995
 20
96.3599982998
 30
0.0
 10
21.7668844535
 20
95.8207808399
 30
0.0
 10
21.8283384418
 20
95.4170154853
 30
0.0
 10
21.8954188202
 20
95.0141418604
 30
0.0
 10
21.9698807965
 20
94.6125548202
 30
0.0
 10
22.0548097749
 20
94.2130335968
 30
0.0
 10
22.1385861281
 20
93.8830454282
 30
0.0
 10
22.2206923615
 20
93.6232265331
 30
0.0
 10
22.281244366
 20
93.464470461
 30
0.0
 10
22.3414540105
 20
93.3411484771
 30
0.0
 10
22.4078885849
 20
93.229461474
 30
0.0
 10
22.4929079935
 20
93.1436288745
 30
0.0
 10
22.5586817427
 20
93.1436274537
 30
0.0
  0
SPLINE
  5
240
100
AcDbEntity
  8
0
100
AcDbSpline
 62
7
  6
BYLAYER
 70
0
 71
3
 72
16
 73
12
 74
0
 42
0.0000001
 43
0.0000001
 44
0.0000000001
 40
0.0
 40
0.0
 40
0.0
 40
0.0
 40
0.0792208637
 40
0.1574451986
 40
0.3090521895
 40
0.4534020517
 40
0.5890965655
 40
0.7142027581
 40
0.8261613356
 40
0.9220901306
 40
1.0
 40
1.0
 40
1.0
 40
1.0
 10
20.2631646289
 20
69.091273524
 30
0.0
 10
20.2599507033
 20
69.0185429253
 30
0.0
 10
20.2401002214
 20
68.874290039
 30
0.0
 10
20.1547654364
 20
68.6023647899
 30
0.0
 10
19.9876227393
 20
68.2984230628
 30
0.0
 10
19.7422392097
 20
67.9856506359
 30
0.0
 10
19.4811681694
 20
67.7192981425
 30
0.0
 10
19.2197350733
 20
67.4973238504
 30
0.0
 10
18.9681013424
 20
67.3219403099
 30
0.0
 10
18.7355607253
 20
67.1989129175
 30
0.0
 10
18.5800478403
 20
67.1521204418
 30
0.0
 10
18.5087485114
 20
67.1456005477
 30
0.0
  0
SPLINE
  5
241
100
AcDbEntity
  8
0
100
AcDbSpline
 62
7
  6
BYLAYER
 70
0
 71
3
 72
16
 73
12
 74
0
 42
0.0000001
 43
0.0000001
 44
0.0000000001
 40
0.0
 40
0.0
 40
0.0
 40
0.0
 40
0.0779326473
 40
0.1738738924
 40
0.2858367128
 40
0.4109411559
 40
0.5466296267
 40
0.6909704185
 40
0.8425664387
 40
0.9207849737
 40
1.0
 40
1.0
 40
1.0
 40
1.0
 10
118.5928427627
 20
67.1456005477
 30
0.0
 10
118.5215107742
 20
67.1521196638
 30
0.0
 10
118.3659354552
 20
67.1989022964
 30
0.0
 10
118.1333019496
 20
67.3219241722
 30
0.0
 10
117.8815858954
 20
67.4972997094
 30
0.0
 10
117.6200772186
 20
67.7192654613
 30
0.0
 10
117.3589347692
 20
67.9856105487
 30
0.0
 10
117.1134834995
 20
68.2983802132
 30
0.0
 10
116.9462845524
 20
68.6023292273
 30
0.0
 10
116.8609237997
 20
68.8742724366
 30
0.0
 10
116.8410586799
 20
69.0185366178
 30
0.0
 10
116.8378437397
 20
69.091273524
 30
0.0
  0
SPLINE
  5
242
100
AcDbEntity
  8
0
100
AcDbSpline
 62
7
  6
BYLAYER
 70
0
 71
3
 72
36
 73
32
 74
0
 42
0.0000001
 43
0.0000001
 44
0.0000000001
 40
0.0
 40
0.0
 40
0.0
 40
0.0
 40
0.1250008992
 40
0.2500017804
 40
0.3125022681
 40
0.3750027585
 40
0.4375032504
 40
0.5000037426
 40
0.5625042299
 40
0.6250047033
 40
0.6875051389
 40
0.7187554258
 40
0.7500057139
 40
0.781255998
 40
0.8125062696
 40
0.8437565048
 40
0.8750066411
 40
0.8906318293
 40
0.9062570065
 40
0.9218821486
 40
0.9375071906
 40
0.9531319163
 40
0.9687553651
 40
0.9765675645
 40
0.9843784041
 40
0.9882845635
 40
0.9921895734
 40
0.9941433501
 40
0.9960972067
 40
0.9980502467
 40
1.0
 40
1.0
 40
1.0
 40
1.0
 10
20.2631763925
 20
69.091273524
 30
0.0
 10
20.3077981397
 20
70.10249739
 30
0.0
 10
20.4005382016
 20
72.1247928145
 30
0.0
 10
20.5269801981
 20
74.6521618256
 30
0.0
 10
20.6359968335
 20
76.673643011
 30
0.0
 10
20.7222293542
 20
78.1895075974
 30
0.0
 10
20.813581508
 20
79.7050731015
 30
0.0
 10
20.9108931075
 20
81.2202687998
 30
0.0
 10
21.0152711878
 20
82.7349962378
 30
0.0
 10
21.1282333945
 20
84.2491095651
 30
0.0
 10
21.2313086056
 20
85.5101804127
 30
0.0
 10
21.320810338
 20
86.5184284123
 30
0.0
 10
21.3920772485
 20
87.2742378603
 30
0.0
 10
21.468271582
 20
88.0295680868
 30
0.0
 10
21.5504754695
 20
88.7842716039
 30
0.0
 10
21.640251571
 20
89.538114586
 30
0.0
 10
21.723318657
 20
90.1652973264
 30
0.0
 10
21.7967431037
 20
90.6660554386
 30
0.0
 10
21.8561170663
 20
91.0409735348
 30
0.0
 10
21.9209259591
 20
91.414992729
 30
0.0
 10
21.9928793277
 20
91.787725566
 30
0.0
 10
22.0749297129
 20
92.1583462202
 30
0.0
 10
22.1559753807
 20
92.46432321
 30
0.0
 10
22.2352164589
 20
92.7046749484
 30
0.0
 10
22.2941158483
 20
92.8517183658
 30
0.0
 10
22.3515789225
 20
92.9645023903
 30
0.0
 10
22.3941549685
 20
93.0314509599
 30
0.0
 10
22.4348518512
 20
93.0800364286
 30
0.0
 10
22.4699809411
 20
93.1122368876
 30
0.0
 10
22.5110793943
 20
93.1368731266
 30
0.0
 10
22.5428933621
 20
93.1436271126
 30
0.0
 10
22.5586816942
 20
93.1436274537
 30
0.0
  0
ELLIPSE
  5
243
100
AcDbEntity
  8
0
100
AcDbEllipse
 62
7
  6
BYLAYER
 10
22.558684263
 20
121.2445764282
 30
0.0
 11
4.4980538445
 21
0.0
 31
0.0
 40
0.5773502692
 41
-2.4206480096
 42
-2.1270361285
  0
ELLIPSE
  5
244
100
AcDbEntity
  8
0
100
AcDbEllipse
 62
7
  6
BYLAYER
 10
114.5418787546
 20
121.2455223082
 30
0.0
 11
4.4996922462
 21
-0.0
 31
0.0
 40
0.5773502692
 41
-1.0146604578
 42
-0.7210275091
  0
ENDSEC
  0
SECTION
  2
OBJECTS
  0
DICTIONARY
  5
C
100
AcDbDictionary
280
0
281
1
  3
ACAD_GROUP
350
D
  3
ACAD_MLINESTYLE
350
17
  3
ACAD_LAYOUT
350
1A
  3
ACAD_PLOTSETTINGS
350
19
  3
ACAD_PLOTSTYLENAME
350
E
  0
DICTIONARY
  5
D
102
{ACAD_REACTORS
330
C
102
}
100
AcDbDictionary
280
0
281
1
  0
ACDBDICTIONARYWDFLT
  5
E
102
{ACAD_REACTORS
330
C
102
}
100
AcDbDictionary
281
1
  3
Normal
350
F
100
AcDbDictionaryWithDefault
340
F
  0
DICTIONARY
  5
17
102
{ACAD_REACTORS
330
C
102
}
100
AcDbDictionary
280
0
281
1
  3
Standard
350
18
  0
DICTIONARY
  5
19
102
{ACAD_REACTORS
330
C
102
}
100
AcDbDictionary
281
1
  0
DICTIONARY
  5
1A
102
{ACAD_REACTORS
330
C
102
}
100
AcDbDictionary
281
1
  3
Model
350
245
  3
Layout1
350
246
  0
ACDBPLACEHOLDER
  5
F
102
{ACAD_REACTORS
330
E
102
}
  0
MLINESTYLE
  5
18
102
{ACAD_REACTORS
330
17
102
}
100
AcDbMlineStyle
  2
STANDARD
 70
0
  3

 62
256
 51
90.0
 52
90.0
 71
2
 49
0.5
 62
256
  6
BYLAYER
 49
-0.5
 62
256
  6
BYLAYER
  0
LAYOUT
  5
245
102
{ACAD_REACTORS
330
1A
102
}
100
AcDbPlotSettings
  1

  2
none_device
  4

  6

 40
0.0
 41
0.0
 42
0.0
 43
0.0
 44
210.0
 45
297.0
 46
0.0
 47
0.0
 48
0.0
 49
0.0
140
0.0
141
0.0
142
1.0
143
1.0
 70
1024
 72
1
 73
0
 74
0
  7

 75
0
147
1.0
148
0.0
149
0.0
100
AcDbLayout
  1
Model
 70
0
 71
0
 10
0.0
 20
0.0
 11
210.0
 21
297.0
 12
0.0
 22
0.0
 32
0.0
 14
0.0
 24
0.0
 34
0.0
 15
0.0
 25
0.0
 35
0.0
146
0.0
 13
0.0
 23
0.0
 33
0.0
 16
1.0
 26
0.0
 36
0.0
 17
0.0
 27
1.0
 37
0.0
 76
0
330
210
345
0
346
0
  0
LAYOUT
  5
246
102
{ACAD_REACTORS
330
1A
102
}
100
AcDbPlotSettings
  1

  2
none_device
  4

  6

 40
0.0
 41
0.0
 42
0.0
 43
0.0
 44
210.0
 45
297.0
 46
0.0
 47
0.0
 48
0.0
 49
0.0
140
0.0
141
0.0
142
1.0
143
1.0
 70
0
 72
1
 73
0
 74
0
  7

 75
0
147
1.0
148
0.0
149
0.0
100
AcDbLayout
  1
Layout1
 70
0
 71
1
 10
0.0
 20
0.0
 11
210.0
 21
297.0
 12
0.0
 22
0.0
 32
0.0
 14
0.0
 24
0.0
 34
0.0
 15
0.0
 25
0.0
 35
0.0
146
0.0
 13
0.0
 23
0.0
 33
0.0
 16
1.0
 26
0.0
 36
0.0
 17
0.0
 27
1.0
 37
0.0
 76
0
330
211
345
0
346
0
  0
ENDSEC
  0
EOF
