999
DXF file: C:\Users\sesa63760\Dev\_Creo\CAD\MCADID0005580_3D-CAD\drw0001_2.dxf
999
Pro/ENGINEER 2019471 by Parametric Technology Corporation
  0
SECTION
  2
HEADER
  9
$ACADVER
  1
AC1024
  9
$DWGCODEPAGE
  3
ANSI_1252
  9
$EXTMAX
 10
37.041473313
 20
52.3872265426
 30
0.0
  9
$EXTMIN
 10
0.0
 20
0.0
 30
0.0
  9
$LIMMIN
 10
0.0
 20
0.0
  9
$LIMMAX
 10
37.041473313
 20
52.3872265426
  9
$VIEWCTR
 10
18.5207366565
 20
26.1936132713
  9
$VIEWSIZE
 40
52.3872265426
  9
$CLAYER
  8
0
  9
$LTSCALE
 40
3.4148710635
  9
$CELTYPE
  6
BYLAYER
  9
$DIMSCALE
 40
1.0
  9
$DIMASZ
 40
0.4409699204
  9
$DIMEXO
 40
1.0
  9
$DIMDLI
 40
2.3593654621
  9
$DIMEXE
 40
1.0
  9
$DIMCEN
 40
0.5587970831
  9
$DIMLFAC
 40
1.0
  9
$DIMBLK
  1
_FILLED
  9
$DIMALT
 70
0
  9
$DIMALTF
 40
0.0393700787
  9
$DIMTXT
 40
0.6173578885
  9
$DIMTOL
 70
1
  9
$DIMLIM
 70
0
  9
$DIMTFAC
 40
1.0
  9
$DIMTP
 40
0.01
  9
$DIMTM
 40
0.01
  9
$DIMGAP
 40
0.625
  9
$DIMDSEP
 70
46
  9
$AUNITS
 70
0
  9
$PDMODE
 70
3
  9
$PDSIZE
 40
0.3125
  9
$HANDSEED
  5
2F8
  9
$TILEMODE
 70
1
  9
$MEASUREMENT
 70
1
  9
$INSUNITS
 70
4
  0
ENDSEC
  0
SECTION
  2
CLASSES
  0
CLASS
  1
ACDBDICTIONARYWDFLT
  2
AcDbDictionaryWithDefault
  3
AutoCAD 2000
 90
0
 91
1
280
0
281
0
  0
CLASS
  1
ACDBPLACEHOLDER
  2
AcDbPlaceHolder
  3
AutoCAD 2000
 90
0
 91
1
280
0
281
0
  0
CLASS
  1
LAYOUT
  2
AcDbLayout
  3
AutoCAD 2000
 90
0
 91
0
280
0
281
0
  0
ENDSEC
  0
SECTION
  2
TABLES
  0
TABLE
  2
VPORT
  5
8
100
AcDbSymbolTable
 70
2
  0
VPORT
  5
1F4
100
AcDbSymbolTableRecord
100
AcDbViewportTableRecord
  2
*ACTIVE
 70
0
 10
0.0
 20
0.0
 11
1.0
 21
1.0
 12
18.5207366565
 22
26.1936132713
 13
0.0
 23
0.0
 14
1.0
 24
1.0
 15
0.0
 25
0.0
 16
0.0
 26
0.0
 36
1.0
 17
0.0
 27
0.0
 37
0.0
 40
52.3872265426
 41
0.7070707071
 42
50.0
 43
0.0
 44
0.0
 50
0.0
 51
0.0
 71
0
 72
100
 73
1
 74
1
 75
0
 76
0
 77
0
 78
0
  0
ENDTAB
  0
TABLE
  2
LTYPE
  5
5
100
AcDbSymbolTable
 70
6
  0
LTYPE
  5
14
100
AcDbSymbolTableRecord
100
AcDbLinetypeTableRecord
  2
BYBLOCK
 70
0
  3

 72
65
 73
0
 40
0.0
  0
LTYPE
  5
15
100
AcDbSymbolTableRecord
100
AcDbLinetypeTableRecord
  2
BYLAYER
 70
0
  3

 72
65
 73
0
 40
0.0
  0
LTYPE
  5
16
100
AcDbSymbolTableRecord
100
AcDbLinetypeTableRecord
  2
CONTINUOUS
 70
64
  3
Solid line
 72
65
 73
0
 40
0.0
  0
LTYPE
  5
1F5
100
AcDbSymbolTableRecord
100
AcDbLinetypeTableRecord
  2
CENTER
 70
64
  3
____ _ ____ _ ____ _ ____ _ ____ _ ____ _ ____
 72
65
 73
4
 40
0.6
 49
0.375
 74
0
 49
-0.075
 74
0
 49
0.075
 74
0
 49
-0.075
 74
0
  0
LTYPE
  5
1F6
100
AcDbSymbolTableRecord
100
AcDbLinetypeTableRecord
  2
HIDDEN
 70
64
  3
- - - - - - - - - - - - - - - - - - - -
 72
65
 73
2
 40
0.2
 49
0.1
 74
0
 49
-0.1
 74
0
  0
LTYPE
  5
1F7
100
AcDbSymbolTableRecord
100
AcDbLinetypeTableRecord
  2
PHANTOM
 70
64
  3
_____ _ _ _____ _ _ _____ _ _ _____
 72
65
 73
6
 40
0.8
 49
0.45
 74
0
 49
-0.05
 74
0
 49
0.1
 74
0
 49
-0.05
 74
0
 49
0.1
 74
0
 49
-0.05
 74
0
  0
LTYPE
  5
1F8
100
AcDbSymbolTableRecord
100
AcDbLinetypeTableRecord
  2
DOT
 70
64
  3
. . . . . . . . . . . . . . . . . . . .
 72
65
 73
2
 40
0.2
 49
0.1
 74
0
 49
-0.1
 74
0
  0
LTYPE
  5
1F9
100
AcDbSymbolTableRecord
100
AcDbLinetypeTableRecord
  2
DASHED
 70
64
  3
- - - - - - - - - - - - - - - - - - - -
 72
65
 73
2
 40
0.2
 49
0.1
 74
0
 49
-0.1
 74
0
  0
ENDTAB
  0
TABLE
  2
LAYER
  5
2
100
AcDbSymbolTable
 70
36
  0
LAYER
  5
10
100
AcDbSymbolTableRecord
100
AcDbLayerTableRecord
  2
0
 70
0
 62
7
  6
CONTINUOUS
370
-3
390
F
  0
LAYER
  5
1FA
100
AcDbSymbolTableRecord
100
AcDbLayerTableRecord
  2
DEFAULT_1
 70
0
 62
7
  6
CENTER
370
-3
390
F
  0
LAYER
  5
1FB
100
AcDbSymbolTableRecord
100
AcDbLayerTableRecord
  2
DEFAULT_2
 70
0
 62
7
  6
HIDDEN
370
-3
390
F
  0
LAYER
  5
1FC
100
AcDbSymbolTableRecord
100
AcDbLayerTableRecord
  2
DEFAULT_3
 70
0
 62
7
  6
PHANTOM
370
-3
390
F
  0
LAYER
  5
1FD
100
AcDbSymbolTableRecord
100
AcDbLayerTableRecord
  2
00_COMPONENTS
 70
0
 62
7
  6
CONTINUOUS
370
-3
390
F
  0
LAYER
  5
1FE
100
AcDbSymbolTableRecord
100
AcDbLayerTableRecord
  2
01_1_DEFAULT_DATUMS
 70
0
 62
7
  6
CONTINUOUS
370
-3
390
F
  0
LAYER
  5
1FF
100
AcDbSymbolTableRecord
100
AcDbLayerTableRecord
  2
01_PLANES
 70
0
 62
7
  6
CONTINUOUS
370
-3
390
F
  0
LAYER
  5
200
100
AcDbSymbolTableRecord
100
AcDbLayerTableRecord
  2
02_COORD_SYS
 70
0
 62
7
  6
CONTINUOUS
370
-3
390
F
  0
LAYER
  5
201
100
AcDbSymbolTableRecord
100
AcDbLayerTableRecord
  2
03_AXES
 70
0
 62
7
  6
CONTINUOUS
370
-3
390
F
  0
LAYER
  5
202
100
AcDbSymbolTableRecord
100
AcDbLayerTableRecord
  2
04_POINTS
 70
0
 62
7
  6
CONTINUOUS
370
-3
390
F
  0
LAYER
  5
203
100
AcDbSymbolTableRecord
100
AcDbLayerTableRecord
  2
05_CURVES
 70
0
 62
7
  6
CONTINUOUS
370
-3
390
F
  0
LAYER
  5
204
100
AcDbSymbolTableRecord
100
AcDbLayerTableRecord
  2
06_SURFS
 70
0
 62
7
  6
CONTINUOUS
370
-3
390
F
  0
LAYER
  5
205
100
AcDbSymbolTableRecord
100
AcDbLayerTableRecord
  2
07_COSMETICS
 70
0
 62
7
  6
CONTINUOUS
370
-3
390
F
  0
LAYER
  5
206
100
AcDbSymbolTableRecord
100
AcDbLayerTableRecord
  2
10_NOTES
 70
0
 62
7
  6
CONTINUOUS
370
-3
390
F
  0
LAYER
  5
207
100
AcDbSymbolTableRecord
100
AcDbLayerTableRecord
  2
11_NOTES_PUB
 70
0
 62
7
  6
CONTINUOUS
370
-3
390
F
  0
LAYER
  5
208
100
AcDbSymbolTableRecord
100
AcDbLayerTableRecord
  2
13_REF_GTOL
 70
0
 62
7
  6
CONTINUOUS
370
-3
390
F
  0
LAYER
  5
209
100
AcDbSymbolTableRecord
100
AcDbLayerTableRecord
  2
16_MISC
 70
0
 62
7
  6
CONTINUOUS
370
-3
390
F
  0
LAYER
  5
20A
100
AcDbSymbolTableRecord
100
AcDbLayerTableRecord
  2
17_NO_PRINT
 70
0
 62
7
  6
CONTINUOUS
370
-3
390
F
  0
LAYER
  5
20B
100
AcDbSymbolTableRecord
100
AcDbLayerTableRecord
  2
18_DATUM_CAMS_JOINTS
 70
0
 62
7
  6
CONTINUOUS
370
-3
390
F
  0
LAYER
  5
20C
100
AcDbSymbolTableRecord
100
AcDbLayerTableRecord
  2
19_DATUM_FUNCTIONAL
 70
0
 62
7
  6
CONTINUOUS
370
-3
390
F
  0
LAYER
  5
20D
100
AcDbSymbolTableRecord
100
AcDbLayerTableRecord
  2
20_DATUM_KINEMATIC_SCHEME
 70
0
 62
7
  6
CONTINUOUS
370
-3
390
F
  0
ENDTAB
  0
TABLE
  2
STYLE
  5
3
100
AcDbSymbolTable
 70
1
  0
STYLE
  5
11
100
AcDbSymbolTableRecord
100
AcDbTextStyleTableRecord
  2
STANDARD
 70
0
 40
0.0
 41
1.0
 50
0.0
 71
0
 42
0.2
  3
ARIAL.TTF
  4

  0
STYLE
  5
20E
100
AcDbSymbolTableRecord
100
AcDbTextStyleTableRecord
  2
TEXTSTYLE_1
 70
0
 40
0.0
 41
0.8
 50
0.0
 71
0
 42
0.2
  3
gdt
  4

  0
ENDTAB
  0
TABLE
  2
VIEW
  5
6
100
AcDbSymbolTable
 70
0
  0
ENDTAB
  0
TABLE
  2
UCS
  5
7
100
AcDbSymbolTable
 70
0
  0
ENDTAB
  0
TABLE
  2
APPID
  5
9
100
AcDbSymbolTable
 70
1
  0
APPID
  5
20F
100
AcDbSymbolTableRecord
100
AcDbRegAppTableRecord
  2
ACAD
 70
0
  0
ENDTAB
  0
TABLE
  2
BLOCK_RECORD
  5
1
100
AcDbSymbolTable
 70
0
  0
BLOCK_RECORD
  5
210
100
AcDbSymbolTableRecord
100
AcDbBlockTableRecord
  2
*Model_Space
  0
BLOCK_RECORD
  5
211
100
AcDbSymbolTableRecord
100
AcDbBlockTableRecord
  2
*Paper_Space
  0
BLOCK_RECORD
  5
212
100
AcDbSymbolTableRecord
100
AcDbBlockTableRecord
  2
_FILLED
  0
ENDTAB
  0
TABLE
  2
DIMSTYLE
  5
A
100
AcDbSymbolTable
 70
1
100
AcDbDimStyleTable
 71
0
  0
DIMSTYLE
105
213
100
AcDbSymbolTableRecord
100
AcDbDimStyleTableRecord
  2
STANDARD
 70
0
  3

  4

 40
1.0
 41
0.4409699204
 42
1.0
 43
0.38
 44
1.0
 45
0.0
 46
0.0
 47
0.01
 48
0.01
140
0.6173578885
141
0.09
142
0.0
143
25.4
144
1.0
145
0.0
146
1.0
147
0.625
 71
1
 72
0
 73
0
 74
0
 75
0
 76
0
 77
1
 78
8
 79
2
170
0
171
1
172
0
173
0
174
0
175
0
176
0
177
0
178
0
270
2
179
2
271
2
272
2
273
2
274
2
275
0
280
0
281
0
282
0
283
1
284
8
285
0
286
0
287
3
288
0
340
11
278
46
341
212
342
212
343
212
344
212
  0
ENDTAB
  0
ENDSEC
  0
SECTION
  2
BLOCKS
  0
BLOCK
  5
20
100
AcDbEntity
  8
0
100
AcDbBlockBegin
  2
*Model_Space
 70
0
 10
0.0
 20
0.0
 30
0.0
  3
*Model_Space
  1

  0
ENDBLK
  5
21
100
AcDbEntity
  8
0
100
AcDbBlockEnd
  0
BLOCK
  5
1C
100
AcDbEntity
  8
0
100
AcDbBlockBegin
  2
*Paper_Space
 70
0
 10
0.0
 20
0.0
 30
0.0
  3
*Paper_Space
  1

  0
ENDBLK
  5
1D
100
AcDbEntity
  8
0
100
AcDbBlockEnd
  0
BLOCK
  5
214
100
AcDbEntity
  8
0
100
AcDbBlockBegin
  2
_FILLED
 70
64
 10
0.0
 20
0.0
  3
_FILLED
  1

  0
SOLID
  5
215
100
AcDbEntity
  8
0
  6
BYBLOCK
 62
0
100
AcDbTrace
 10
0.0
 20
0.0
 11
-1.0
 21
0.25
 12
-1.0
 22
-0.25
 13
-1.0
 23
-0.25
  0
ENDBLK
  5
216
100
AcDbEntity
  8
0
  6
BYBLOCK
 62
0
100
AcDbBlockEnd
  0
ENDSEC
  0
SECTION
  2
ENTITIES
  0
LINE
  5
217
100
AcDbEntity
  8
0
100
AcDbLine
 62
7
  6
BYLAYER
 10
8.6772224658
 20
24.3474310928
 11
8.6772224658
 21
27.8474310928
  0
LINE
  5
218
100
AcDbEntity
  8
0
100
AcDbLine
 62
7
  6
BYLAYER
 10
23.381568239
 20
15.9974310928
 11
14.1728766925
 21
15.9974310928
  0
LINE
  5
219
100
AcDbEntity
  8
0
100
AcDbLine
 62
7
  6
BYLAYER
 10
10.4148267769
 20
28.7098241204
 11
10.4148267769
 21
27.5974311059
  0
LINE
  5
21A
100
AcDbEntity
  8
0
100
AcDbLine
 62
7
  6
BYLAYER
 10
10.4148267769
 20
24.5974310798
 11
10.4148267769
 21
23.4850322993
  0
LINE
  5
21B
100
AcDbEntity
  8
0
100
AcDbLine
 62
7
  6
BYLAYER
 10
10.5772223075
 20
20.373796111
 11
10.5772223454
 21
23.1117171756
  0
LINE
  5
21C
100
AcDbEntity
  8
0
100
AcDbLine
 62
7
  6
BYLAYER
 10
10.5772223454
 20
29.0831448881
 11
10.5772222639
 21
29.8974309241
  0
LINE
  5
21D
100
AcDbEntity
  8
0
100
AcDbLine
 62
7
  6
BYLAYER
 10
10.6372224658
 20
23.8974310928
 11
10.6372224658
 21
28.2974310928
  0
LINE
  5
21E
100
AcDbEntity
  8
0
100
AcDbLine
 62
7
  6
BYLAYER
 10
11.2700427207
 20
32.0974309122
 11
11.2700427207
 21
29.8974309241
  0
LINE
  5
21F
100
AcDbEntity
  8
0
100
AcDbLine
 62
7
  6
BYLAYER
 10
15.7217824366
 20
19.6954292876
 11
15.9319565984
 21
19.6181753387
  0
LINE
  5
220
100
AcDbEntity
  8
0
100
AcDbLine
 62
7
  6
BYLAYER
 10
12.956668716
 20
31.3206655664
 11
12.956668716
 21
32.0974309122
  0
LINE
  5
221
100
AcDbEntity
  8
0
100
AcDbLine
 62
7
  6
BYLAYER
 10
12.977615092
 20
20.8822169041
 11
12.977615092
 21
20.3574450386
  0
LINE
  5
222
100
AcDbEntity
  8
0
100
AcDbLine
 62
7
  6
BYLAYER
 10
12.9872224658
 20
28.2974310928
 11
12.9872224658
 21
23.8974310928
  0
LINE
  5
223
100
AcDbEntity
  8
0
100
AcDbLine
 62
7
  6
BYLAYER
 10
12.956668716
 20
31.3206546312
 11
12.9775729317
 21
31.8363708034
  0
LINE
  5
224
100
AcDbEntity
  8
0
100
AcDbLine
 62
7
  6
BYLAYER
 10
14.177222766
 20
19.1813869178
 11
14.177222766
 21
17.2182417686
  0
LINE
  5
225
100
AcDbEntity
  8
0
100
AcDbLine
 62
7
  6
BYLAYER
 10
14.3772224658
 20
21.1780815423
 11
14.3772224658
 21
21.4498510774
  0
LINE
  5
226
100
AcDbEntity
  8
0
100
AcDbLine
 62
7
  6
BYLAYER
 10
14.3772224658
 20
30.7450111083
 11
14.3772224658
 21
31.0167806433
  0
LINE
  5
227
100
AcDbEntity
  8
0
100
AcDbLine
 62
7
  6
BYLAYER
 10
14.6772224456
 20
33.3274657149
 11
14.6772224456
 21
35.2182863069
  0
LINE
  5
228
100
AcDbEntity
  8
0
100
AcDbLine
 62
7
  6
BYLAYER
 10
8.8993758887
 20
27.6556472025
 11
10.1199099743
 21
28.1049972524
  0
LINE
  5
229
100
AcDbEntity
  8
0
100
AcDbLine
 62
7
  6
BYLAYER
 10
10.1199099743
 20
24.0898644676
 11
8.8993756417
 21
24.5392150207
  0
LINE
  5
22A
100
AcDbEntity
  8
0
100
AcDbLine
 62
7
  6
BYLAYER
 10
15.0572225698
 20
20.0923461187
 11
15.0572224658
 21
20.6456790809
  0
LINE
  5
22B
100
AcDbEntity
  8
0
100
AcDbLine
 62
7
  6
BYLAYER
 10
15.0572224658
 20
31.5491831048
 11
15.0572224658
 21
31.6096085211
  0
LINE
  5
22C
100
AcDbEntity
  8
0
100
AcDbLine
 62
7
  6
BYLAYER
 10
15.5756555964
 20
18.9800985789
 11
15.5756555964
 21
19.6087534239
  0
LINE
  5
22D
100
AcDbEntity
  8
0
100
AcDbLine
 62
7
  6
BYLAYER
 10
15.5883094762
 20
32.6481630726
 11
15.5883094762
 21
33.2350522911
  0
LINE
  5
22E
100
AcDbEntity
  8
0
100
AcDbLine
 62
7
  6
BYLAYER
 10
16.1772224296
 20
16.4413449421
 11
16.1772224296
 21
19.5117246727
  0
LINE
  5
22F
100
AcDbEntity
  8
0
100
AcDbLine
 62
7
  6
BYLAYER
 10
10.4148267769
 20
23.4850322993
 11
11.4279860631
 21
23.4854404514
  0
LINE
  5
230
100
AcDbEntity
  8
0
100
AcDbLine
 62
7
  6
BYLAYER
 10
10.5772223454
 20
23.1117170574
 11
11.570117142
 21
23.1117170574
  0
LINE
  5
231
100
AcDbEntity
  8
0
100
AcDbLine
 62
7
  6
BYLAYER
 10
25.9842850857
 20
23.1117170574
 11
26.9772219843
 21
23.1117170574
  0
LINE
  5
232
100
AcDbEntity
  8
0
100
AcDbLine
 62
7
  6
BYLAYER
 10
26.1263936758
 20
23.4854404514
 11
27.1396181546
 21
23.4850322993
  0
LINE
  5
233
100
AcDbEntity
  8
0
100
AcDbLine
 62
7
  6
BYLAYER
 10
16.2772224658
 20
39.2596413546
 11
16.2772224662
 21
37.8985068894
  0
LINE
  5
234
100
AcDbEntity
  8
0
100
AcDbLine
 62
7
  6
BYLAYER
 10
16.2772224662
 20
14.2963552963
 11
16.2772224658
 21
12.9352208311
  0
LINE
  5
235
100
AcDbEntity
  8
0
100
AcDbLine
 62
7
  6
BYLAYER
 10
16.5272224658
 20
36.8879999376
 11
16.5272224658
 21
36.7371268122
  0
LINE
  5
236
100
AcDbEntity
  8
0
100
AcDbLine
 62
7
  6
BYLAYER
 10
16.7772224658
 20
36.3474310928
 11
16.7772224658
 21
36.1974310928
  0
LINE
  5
237
100
AcDbEntity
  8
0
100
AcDbLine
 62
7
  6
BYLAYER
 10
17.0322224658
 20
30.7830447133
 11
17.0322224658
 21
30.5974310928
  0
LINE
  5
238
100
AcDbEntity
  8
0
100
AcDbLine
 62
7
  6
BYLAYER
 10
17.0334712369
 20
18.5045013711
 11
17.0334712369
 21
19.1439853414
  0
LINE
  5
239
100
AcDbEntity
  8
0
100
AcDbLine
 62
7
  6
BYLAYER
 10
17.3772224658
 20
37.0839431543
 11
17.3772224658
 21
36.7506928764
  0
LINE
  5
23A
100
AcDbEntity
  8
0
100
AcDbLine
 62
7
  6
BYLAYER
 10
19.6830891236
 20
29.4781714849
 11
20.0282284015
 21
29.8233107627
  0
LINE
  5
23B
100
AcDbEntity
  8
0
100
AcDbLine
 62
7
  6
BYLAYER
 10
28.9260309224
 20
34.8435997332
 11
27.7472538978
 21
34.1630325002
  0
LINE
  5
23C
100
AcDbEntity
  8
0
100
AcDbLine
 62
7
  6
BYLAYER
 10
7.3071910651
 20
22.3619566088
 11
6.1284140092
 21
21.6813894714
  0
LINE
  5
23D
100
AcDbEntity
  8
0
100
AcDbLine
 62
7
  6
BYLAYER
 10
10.6372224658
 20
23.8974310928
 11
14.2872336016
 21
23.8974310928
  0
LINE
  5
23E
100
AcDbEntity
  8
0
100
AcDbLine
 62
7
  6
BYLAYER
 10
23.2672113299
 20
23.8974310928
 11
26.9172224658
 21
23.8974310928
  0
LINE
  5
23F
100
AcDbEntity
  8
0
100
AcDbLine
 62
7
  6
BYLAYER
 10
27.4345342656
 20
24.0898644676
 11
27.1396181546
 21
24.0898644676
  0
LINE
  5
240
100
AcDbEntity
  8
0
100
AcDbLine
 62
7
  6
BYLAYER
 10
10.4148267769
 20
24.0898644676
 11
10.1199099743
 21
24.0898644676
  0
LINE
  5
241
100
AcDbEntity
  8
0
100
AcDbLine
 62
7
  6
BYLAYER
 10
7.8160409601
 20
24.3474310928
 11
8.6772224658
 21
24.3474310928
  0
LINE
  5
242
100
AcDbEntity
  8
0
100
AcDbLine
 62
7
  6
BYLAYER
 10
28.8772224658
 20
24.3474310928
 11
29.7384039714
 21
24.3474310928
  0
LINE
  5
243
100
AcDbEntity
  8
0
100
AcDbLine
 62
7
  6
BYLAYER
 10
8.8903625011
 20
24.5974310798
 11
10.4148267769
 21
24.5974310798
  0
LINE
  5
244
100
AcDbEntity
  8
0
100
AcDbLine
 62
7
  6
BYLAYER
 10
27.1396181546
 20
24.5974310798
 11
28.6640823819
 21
24.5974310798
  0
LINE
  5
245
100
AcDbEntity
  8
0
100
AcDbLine
 62
7
  6
BYLAYER
 10
6.1284140543
 20
30.5134725922
 11
7.3071911008
 21
29.8329056867
  0
LINE
  5
246
100
AcDbEntity
  8
0
100
AcDbLine
 62
7
  6
BYLAYER
 10
27.7472543977
 20
18.0318302414
 11
28.9260304675
 21
17.3512620935
  0
LINE
  5
247
100
AcDbEntity
  8
0
100
AcDbLine
 62
7
  6
BYLAYER
 10
17.7372224658
 20
30.9880752222
 11
17.7372224658
 21
30.5974310928
  0
LINE
  5
248
100
AcDbEntity
  8
0
100
AcDbLine
 62
7
  6
BYLAYER
 10
18.7772224658
 20
36.3474310928
 11
18.7772224658
 21
36.1974310928
  0
LINE
  5
249
100
AcDbEntity
  8
0
100
AcDbLine
 62
7
  6
BYLAYER
 10
15.4686285335
 20
23.8494973324
 11
15.8295074291
 21
24.210376228
  0
LINE
  5
24A
100
AcDbEntity
  8
0
100
AcDbLine
 62
7
  6
BYLAYER
 10
24.5672224658
 20
26.0974310928
 11
23.7772224658
 21
26.0974310928
  0
LINE
  5
24B
100
AcDbEntity
  8
0
100
AcDbLine
 62
7
  6
BYLAYER
 10
13.7772224658
 20
26.0974310928
 11
12.9872224658
 21
26.0974310928
  0
LINE
  5
24C
100
AcDbEntity
  8
0
100
AcDbLine
 62
7
  6
BYLAYER
 10
19.8172224658
 20
30.9880752222
 11
19.8172224658
 21
30.5974310928
  0
LINE
  5
24D
100
AcDbEntity
  8
0
100
AcDbLine
 62
7
  6
BYLAYER
 10
20.1772224658
 20
36.7506928764
 11
20.1772224658
 21
37.08490872
  0
LINE
  5
24E
100
AcDbEntity
  8
0
100
AcDbLine
 62
7
  6
BYLAYER
 10
16.8901676009
 20
23.1497160562
 11
16.5292887053
 21
22.7888371606
  0
LINE
  5
24F
100
AcDbEntity
  8
0
100
AcDbLine
 62
7
  6
BYLAYER
 10
8.8903600984
 20
27.5974311059
 11
10.4148267769
 21
27.5974311059
  0
LINE
  5
250
100
AcDbEntity
  8
0
100
AcDbLine
 62
7
  6
BYLAYER
 10
27.1396181546
 20
27.5974311059
 11
28.6640823851
 21
27.5974311059
  0
LINE
  5
251
100
AcDbEntity
  8
0
100
AcDbLine
 62
7
  6
BYLAYER
 10
20.5209736945
 20
19.1439853415
 11
20.5209736945
 21
18.5045003788
  0
LINE
  5
252
100
AcDbEntity
  8
0
100
AcDbLine
 62
7
  6
BYLAYER
 10
20.5222224658
 20
30.7830447133
 11
20.5222224658
 21
30.5974310928
  0
LINE
  5
253
100
AcDbEntity
  8
0
100
AcDbLine
 62
7
  6
BYLAYER
 10
20.7772224658
 20
36.3474310928
 11
20.7772224658
 21
36.1974310928
  0
LINE
  5
254
100
AcDbEntity
  8
0
100
AcDbLine
 62
7
  6
BYLAYER
 10
21.0272224658
 20
36.7371268122
 11
21.0272224658
 21
36.887378726
  0
LINE
  5
255
100
AcDbEntity
  8
0
100
AcDbLine
 62
7
  6
BYLAYER
 10
21.2772224658
 20
12.9352208311
 11
21.277222334
 21
14.2963552685
  0
LINE
  5
256
100
AcDbEntity
  8
0
100
AcDbLine
 62
7
  6
BYLAYER
 10
21.2772224099
 20
37.8985069012
 11
21.2772224099
 21
39.2596414559
  0
LINE
  5
257
100
AcDbEntity
  8
0
100
AcDbLine
 62
7
  6
BYLAYER
 10
21.3772225019
 20
16.4413447616
 11
21.3772225019
 21
19.5117245919
  0
LINE
  5
258
100
AcDbEntity
  8
0
100
AcDbLine
 62
7
  6
BYLAYER
 10
22.4892030813
 20
27.3345379742
 11
22.1579628578
 21
27.0032977507
  0
LINE
  5
259
100
AcDbEntity
  8
0
100
AcDbLine
 62
7
  6
BYLAYER
 10
30.2472538665
 20
29.8329055769
 11
31.4260309224
 21
30.5134727142
  0
LINE
  5
25A
100
AcDbEntity
  8
0
100
AcDbLine
 62
7
  6
BYLAYER
 10
8.6284140092
 20
17.3512624525
 11
9.8071910337
 21
18.0318296855
  0
LINE
  5
25B
100
AcDbEntity
  8
0
100
AcDbLine
 62
7
  6
BYLAYER
 10
29.7384039714
 20
27.8474310928
 11
28.8772224658
 21
27.8474310928
  0
LINE
  5
25C
100
AcDbEntity
  8
0
100
AcDbLine
 62
7
  6
BYLAYER
 10
8.6772224658
 20
27.8474310928
 11
7.8160409601
 21
27.8474310928
  0
LINE
  5
25D
100
AcDbEntity
  8
0
100
AcDbLine
 62
7
  6
BYLAYER
 10
10.1199099743
 20
28.1049972524
 11
10.4148267769
 21
28.1049972524
  0
LINE
  5
25E
100
AcDbEntity
  8
0
100
AcDbLine
 62
7
  6
BYLAYER
 10
27.1396181546
 20
28.1049972524
 11
27.4345342656
 21
28.1049972524
  0
LINE
  5
25F
100
AcDbEntity
  8
0
100
AcDbLine
 62
7
  6
BYLAYER
 10
14.2872336016
 20
28.2974310928
 11
10.6372224658
 21
28.2974310928
  0
LINE
  5
260
100
AcDbEntity
  8
0
100
AcDbLine
 62
7
  6
BYLAYER
 10
23.2672113299
 20
28.2974310928
 11
26.9172224658
 21
28.2974310928
  0
LINE
  5
261
100
AcDbEntity
  8
0
100
AcDbLine
 62
7
  6
BYLAYER
 10
27.1396181546
 20
28.7098241204
 11
26.1263382621
 21
28.7097784856
  0
LINE
  5
262
100
AcDbEntity
  8
0
100
AcDbLine
 62
7
  6
BYLAYER
 10
11.4281066694
 20
28.7097784856
 11
10.4148267769
 21
28.7098241204
  0
LINE
  5
263
100
AcDbEntity
  8
0
100
AcDbLine
 62
7
  6
BYLAYER
 10
31.4260308772
 20
21.6813895935
 11
30.2472538307
 21
22.361956499
  0
LINE
  5
264
100
AcDbEntity
  8
0
100
AcDbLine
 62
7
  6
BYLAYER
 10
9.8071910337
 20
34.1630325002
 11
8.6284140096
 21
34.8435997329
  0
LINE
  5
265
100
AcDbEntity
  8
0
100
AcDbLine
 62
7
  6
BYLAYER
 10
21.9661354553
 20
33.2350527568
 11
21.9661354553
 21
32.6481630726
  0
LINE
  5
266
100
AcDbEntity
  8
0
100
AcDbLine
 62
7
  6
BYLAYER
 10
21.9787893352
 20
19.6087534239
 11
21.9787893352
 21
18.9800985789
  0
LINE
  5
267
100
AcDbEntity
  8
0
100
AcDbLine
 62
7
  6
BYLAYER
 10
22.4972224658
 20
20.6456790809
 11
22.4972225698
 21
20.0923461187
  0
LINE
  5
268
100
AcDbEntity
  8
0
100
AcDbLine
 62
7
  6
BYLAYER
 10
22.4972224658
 20
31.6096085211
 11
22.4972224658
 21
31.5491831048
  0
LINE
  5
269
100
AcDbEntity
  8
0
100
AcDbLine
 62
7
  6
BYLAYER
 10
22.877222253
 20
33.3274661898
 11
22.877222253
 21
35.2182864115
  0
LINE
  5
26A
100
AcDbEntity
  8
0
100
AcDbLine
 62
7
  6
BYLAYER
 10
26.9772219843
 20
29.0831450295
 11
25.9915889158
 21
29.0831450295
  0
LINE
  5
26B
100
AcDbEntity
  8
0
100
AcDbLine
 62
7
  6
BYLAYER
 10
11.5628560157
 20
29.0831450295
 11
10.5772223454
 21
29.0831450295
  0
LINE
  5
26C
100
AcDbEntity
  8
0
100
AcDbLine
 62
7
  6
BYLAYER
 10
10.5772222639
 20
29.8974309241
 11
11.9421942527
 21
29.8974309241
  0
LINE
  5
26D
100
AcDbEntity
  8
0
100
AcDbLine
 62
7
  6
BYLAYER
 10
25.6122506789
 20
29.8974309241
 11
26.9772220659
 21
29.8974309241
  0
LINE
  5
26E
100
AcDbEntity
  8
0
100
AcDbLine
 62
7
  6
BYLAYER
 10
23.1772224658
 20
31.0167806433
 11
23.1772224658
 21
30.7450111083
  0
LINE
  5
26F
100
AcDbEntity
  8
0
100
AcDbLine
 62
7
  6
BYLAYER
 10
23.1772224658
 20
21.4498510774
 11
23.1772224658
 21
21.1780815423
  0
LINE
  5
270
100
AcDbEntity
  8
0
100
AcDbLine
 62
7
  6
BYLAYER
 10
23.3772223863
 20
17.2182417944
 11
23.3772223863
 21
19.181560574
  0
LINE
  5
271
100
AcDbEntity
  8
0
100
AcDbLine
 62
7
  6
BYLAYER
 10
28.6550750126
 20
24.5392174705
 11
27.4345342656
 21
24.0898644676
  0
LINE
  5
272
100
AcDbEntity
  8
0
100
AcDbLine
 62
7
  6
BYLAYER
 10
20.5222224658
 20
30.5974310928
 11
17.0322224658
 21
30.5974310928
  0
LINE
  5
273
100
AcDbEntity
  8
0
100
AcDbLine
 62
7
  6
BYLAYER
 10
27.4345342656
 20
28.1049972524
 11
28.6550750245
 21
27.6556446574
  0
LINE
  5
274
100
AcDbEntity
  8
0
100
AcDbLine
 62
7
  6
BYLAYER
 10
24.5977757499
 20
31.3206661192
 11
24.5768298395
 21
31.8374109154
  0
LINE
  5
275
100
AcDbEntity
  8
0
100
AcDbLine
 62
7
  6
BYLAYER
 10
24.5672224658
 20
23.8974310928
 11
24.5672224658
 21
28.2974310928
  0
LINE
  5
276
100
AcDbEntity
  8
0
100
AcDbLine
 62
7
  6
BYLAYER
 10
24.5768298395
 20
20.3574450386
 11
24.5768298395
 21
20.8822169041
  0
LINE
  5
277
100
AcDbEntity
  8
0
100
AcDbLine
 62
7
  6
BYLAYER
 10
24.5768298395
 20
31.8366798719
 11
24.5768298395
 21
32.0974309122
  0
LINE
  5
278
100
AcDbEntity
  8
0
100
AcDbLine
 62
7
  6
BYLAYER
 10
24.5977757535
 20
32.0974309122
 11
24.5977757535
 21
31.320666115
  0
LINE
  5
279
100
AcDbEntity
  8
0
100
AcDbLine
 62
7
  6
BYLAYER
 10
21.6224886007
 20
19.6181753612
 11
21.8326624949
 21
19.6954292876
  0
LINE
  5
27A
100
AcDbEntity
  8
0
100
AcDbLine
 62
7
  6
BYLAYER
 10
10.7772223303
 20
32.0974309122
 11
12.956668716
 21
32.0974309122
  0
LINE
  5
27B
100
AcDbEntity
  8
0
100
AcDbLine
 62
7
  6
BYLAYER
 10
24.5768298395
 20
32.0974309122
 11
26.7772226013
 21
32.0974309122
  0
LINE
  5
27C
100
AcDbEntity
  8
0
100
AcDbLine
 62
7
  6
BYLAYER
 10
26.2844018638
 20
29.8974309241
 11
26.2844018638
 21
32.0974309122
  0
LINE
  5
27D
100
AcDbEntity
  8
0
100
AcDbLine
 62
7
  6
BYLAYER
 10
26.9172224658
 20
28.2974310928
 11
26.9172224658
 21
23.8974310928
  0
LINE
  5
27E
100
AcDbEntity
  8
0
100
AcDbLine
 62
7
  6
BYLAYER
 10
26.9772220659
 20
29.8974309241
 11
26.9772219843
 21
29.0831448881
  0
LINE
  5
27F
100
AcDbEntity
  8
0
100
AcDbLine
 62
7
  6
BYLAYER
 10
26.9772219843
 20
23.1117171756
 11
26.9772220222
 21
20.3737952489
  0
LINE
  5
280
100
AcDbEntity
  8
0
100
AcDbLine
 62
7
  6
BYLAYER
 10
27.1396181546
 20
23.4850322993
 11
27.1396181546
 21
24.5974310798
  0
LINE
  5
281
100
AcDbEntity
  8
0
100
AcDbLine
 62
7
  6
BYLAYER
 10
27.1396181546
 20
27.5974311059
 11
27.1396181546
 21
28.7098241204
  0
LINE
  5
282
100
AcDbEntity
  8
0
100
AcDbLine
 62
7
  6
BYLAYER
 10
28.8772224658
 20
27.8474310928
 11
28.8772224658
 21
24.3474310928
  0
LINE
  5
283
100
AcDbEntity
  8
0
100
AcDbLine
 62
7
  6
BYLAYER
 10
14.1728766925
 20
36.1974310928
 11
23.381568239
 21
36.1974310928
  0
LINE
  5
284
100
AcDbEntity
  8
0
100
AcDbLine
 62
7
  6
BYLAYER
 10
16.7772224658
 20
36.3474310928
 11
20.7772224658
 21
36.3474310928
  0
ARC
  5
285
100
AcDbEntity
  8
0
100
AcDbCircle
 62
7
  6
BYLAYER
 10
18.7339211956
 20
26.0724310928
 40
14.75
100
AcDbArc
 50
25.6716745676
 51
34.3283254326
  0
ARC
  5
286
100
AcDbEntity
  8
0
100
AcDbCircle
 62
7
  6
BYLAYER
 10
18.6984348505
 20
26.0607138225
 40
8.2320408997
100
AcDbArc
 50
227.5144515319
 51
244.2721877551
  0
ARC
  5
287
100
AcDbEntity
  8
0
100
AcDbCircle
 62
7
  6
BYLAYER
 10
18.6336673225
 20
26.0119508531
 40
7.6357774471
100
AcDbArc
 50
199.3220722426
 51
222.2063311552
  0
ARC
  5
288
100
AcDbEntity
  8
0
100
AcDbCircle
 62
7
  6
BYLAYER
 10
6.8784140092
 20
20.3823513658
 40
1.5
100
AcDbArc
 50
120.0000000001
 51
205.6716745674
  0
ARC
  5
289
100
AcDbEntity
  8
0
100
AcDbCircle
 62
7
  6
BYLAYER
 10
7.8784140092
 20
18.6503005582
 40
1.5
100
AcDbArc
 50
214.328325433
 51
299.9999999999
  0
ARC
  5
28A
100
AcDbEntity
  8
0
100
AcDbCircle
 62
7
  6
BYLAYER
 10
17.7772224658
 20
12.9352208311
 40
1.5
100
AcDbArc
 50
180.0
 51
265.6716745673
  0
ARC
  5
28B
100
AcDbEntity
  8
0
100
AcDbCircle
 62
7
  6
BYLAYER
 10
13.4793519259
 20
20.3581804445
 40
0.5017373729
100
AcDbArc
 50
180.0004453842
 51
227.2044845566
  0
ARC
  5
28C
100
AcDbEntity
  8
0
100
AcDbCircle
 62
7
  6
BYLAYER
 10
17.5330307079
 20
18.5045019056
 40
0.4995595667
100
AcDbArc
 50
180.0000612932
 51
260.7319322548
  0
ARC
  5
28D
100
AcDbEntity
  8
0
100
AcDbCircle
 62
7
  6
BYLAYER
 10
15.2208225968
 20
18.9864349416
 40
0.3548895703
100
AcDbArc
 50
254.3244771231
 51
358.9769602569
  0
ARC
  5
28E
100
AcDbEntity
  8
0
100
AcDbCircle
 62
7
  6
BYLAYER
 10
16.9334923609
 20
19.1439853409
 40
0.0999788761
100
AcDbArc
 50
0.0000002715
 51
76.3690131483
  0
ARC
  5
28F
100
AcDbEntity
  8
0
100
AcDbCircle
 62
7
  6
BYLAYER
 10
15.6755702649
 20
19.6068228357
 40
0.0999333185
100
AcDbArc
 50
62.4559728249
 51
178.8930474622
  0
ARC
  5
290
100
AcDbEntity
  8
0
100
AcDbCircle
 62
7
  6
BYLAYER
 10
18.7339211956
 20
26.1224310929
 40
14.75
100
AcDbArc
 50
325.6716745674
 51
334.3283254326
  0
ARC
  5
291
100
AcDbEntity
  8
0
100
AcDbCircle
 62
7
  6
BYLAYER
 10
18.7447851147
 20
26.1363281186
 40
8.2618113023
100
AcDbArc
 50
116.4079498431
 51
132.7328310878
  0
ARC
  5
292
100
AcDbEntity
  8
0
100
AcDbCircle
 62
7
  6
BYLAYER
 10
18.6183540833
 20
26.2040248098
 40
7.2386626637
100
AcDbArc
 50
285.8665744432
 51
302.4018662363
  0
ARC
  5
293
100
AcDbEntity
  8
0
100
AcDbCircle
 62
7
  6
BYLAYER
 10
18.2946191727
 20
26.4426281374
 40
7.231110887
100
AcDbArc
 50
137.5776552775
 51
161.7280715913
  0
ARC
  5
294
100
AcDbEntity
  8
0
100
AcDbCircle
 62
7
  6
BYLAYER
 10
6.8784141761
 20
31.8125108075
 40
1.5000001558
100
AcDbArc
 50
154.3283277674
 51
239.9999980645
  0
ARC
  5
295
100
AcDbEntity
  8
0
100
AcDbCircle
 62
7
  6
BYLAYER
 10
7.8784140092
 20
33.5445616275
 40
1.5
100
AcDbArc
 50
59.9999999817
 51
145.6716745684
  0
ARC
  5
296
100
AcDbEntity
  8
0
100
AcDbCircle
 62
7
  6
BYLAYER
 10
17.7772224658
 20
39.2596413546
 40
1.5
100
AcDbArc
 50
94.328325433
 51
180.0
  0
ARC
  5
297
100
AcDbEntity
  8
0
100
AcDbCircle
 62
7
  6
BYLAYER
 10
13.4793610777
 20
31.8366719694
 40
0.5017465299
100
AcDbArc
 50
132.7959715242
 51
180.0343880994
  0
ARC
  5
298
100
AcDbEntity
  8
0
100
AcDbCircle
 62
7
  6
BYLAYER
 10
15.2375724096
 20
33.227669938
 40
0.3508147503
100
AcDbArc
 50
1.2057899423
 51
118.483584251
  0
ARC
  5
299
100
AcDbEntity
  8
0
100
AcDbCircle
 62
7
  6
BYLAYER
 10
15.688057078
 20
32.6497915496
 40
0.0997608942
100
AcDbArc
 50
180.9353264911
 51
297.3958750506
  0
ARC
  5
29A
100
AcDbEntity
  8
0
100
AcDbCircle
 62
7
  6
BYLAYER
 10
19.7772224658
 20
12.9352208311
 40
1.5
100
AcDbArc
 50
274.3283254315
 51
360.0
  0
ARC
  5
29B
100
AcDbEntity
  8
0
100
AcDbCircle
 62
7
  6
BYLAYER
 10
20.021415388
 20
18.5045009167
 40
0.4995584029
100
AcDbArc
 50
279.2680056601
 51
359.9999383137
  0
ARC
  5
29C
100
AcDbEntity
  8
0
100
AcDbCircle
 62
7
  6
BYLAYER
 10
22.3414010026
 20
18.9894046046
 40
0.3627310622
100
AcDbArc
 50
181.4701098434
 51
271.9233534472
  0
ARC
  5
29D
100
AcDbEntity
  8
0
100
AcDbCircle
 62
7
  6
BYLAYER
 10
20.6209525704
 20
19.143985341
 40
0.099978876
100
AcDbArc
 50
103.6310056166
 51
179.9999997284
  0
ARC
  5
29E
100
AcDbEntity
  8
0
100
AcDbCircle
 62
7
  6
BYLAYER
 10
18.7772224658
 20
26.0974310928
 40
14.7500000894
100
AcDbArc
 50
335.35690776
 51
24.6435701839
  0
ARC
  5
29F
100
AcDbEntity
  8
0
100
AcDbCircle
 62
7
  6
BYLAYER
 10
18.7772224658
 20
26.0974310928
 40
14.7500000894
100
AcDbArc
 50
213.0977706366
 51
333.8364423926
  0
ARC
  5
2A0
100
AcDbEntity
  8
0
100
AcDbCircle
 62
7
  6
BYLAYER
 10
18.7772224658
 20
26.0974310928
 40
14.7500000894
100
AcDbArc
 50
155.35690776
 51
204.6435701839
  0
ARC
  5
2A1
100
AcDbEntity
  8
0
100
AcDbCircle
 62
7
  6
BYLAYER
 10
18.7772224658
 20
26.0974310928
 40
14.7500000894
100
AcDbArc
 50
33.0977706366
 51
153.8364423926
  0
ARC
  5
2A2
100
AcDbEntity
  8
0
100
AcDbCircle
 62
7
  6
BYLAYER
 10
18.8205237355
 20
26.0724310931
 40
14.7499999995
100
AcDbArc
 50
145.6716745674
 51
154.3283254328
  0
ARC
  5
2A3
100
AcDbEntity
  8
0
100
AcDbCircle
 62
7
  6
BYLAYER
 10
18.7772224657
 20
26.0474310935
 40
14.7499999993
100
AcDbArc
 50
85.6716745671
 51
94.3283254327
  0
ARC
  5
2A4
100
AcDbEntity
  8
0
100
AcDbCircle
 62
7
  6
BYLAYER
 10
18.7772224658
 20
26.0974310928
 40
14.7079322487
100
AcDbArc
 50
97.6844271736
 51
145.8370387873
  0
ARC
  5
2A5
100
AcDbEntity
  8
0
100
AcDbCircle
 62
7
  6
BYLAYER
 10
18.7772224658
 20
26.0974310928
 40
14.7079322487
100
AcDbArc
 50
146.1534948804
 51
153.8375073397
  0
ARC
  5
2A6
100
AcDbEntity
  8
0
100
AcDbCircle
 62
7
  6
BYLAYER
 10
18.7772224658
 20
26.0974310928
 40
14.7079322487
100
AcDbArc
 50
155.7031515369
 51
204.2961549413
  0
ARC
  5
2A7
100
AcDbEntity
  8
0
100
AcDbCircle
 62
7
  6
BYLAYER
 10
18.7772224658
 20
26.0974310928
 40
14.7079322487
100
AcDbArc
 50
206.1591571643
 51
260.7400601521
  0
ARC
  5
2A8
100
AcDbEntity
  8
0
100
AcDbCircle
 62
7
  6
BYLAYER
 10
18.7772224658
 20
26.0974310928
 40
14.7079322487
100
AcDbArc
 50
268.7229747379
 51
271.2797346757
  0
ARC
  5
2A9
100
AcDbEntity
  8
0
100
AcDbCircle
 62
7
  6
BYLAYER
 10
18.7772224658
 20
26.0974310928
 40
14.7079322487
100
AcDbArc
 50
277.6844271733
 51
325.8370390859
  0
ARC
  5
2AA
100
AcDbEntity
  8
0
100
AcDbCircle
 62
7
  6
BYLAYER
 10
18.7772224658
 20
26.0974310928
 40
14.7079322487
100
AcDbArc
 50
326.1534948803
 51
333.8375073397
  0
ARC
  5
2AB
100
AcDbEntity
  8
0
100
AcDbCircle
 62
7
  6
BYLAYER
 10
18.7772224658
 20
26.0974310928
 40
14.7079322487
100
AcDbArc
 50
335.7031515369
 51
24.2961549413
  0
ARC
  5
2AC
100
AcDbEntity
  8
0
100
AcDbCircle
 62
7
  6
BYLAYER
 10
18.7772224658
 20
26.0974310928
 40
14.7079322487
100
AcDbArc
 50
26.1591571644
 51
80.7400597985
  0
ARC
  5
2AD
100
AcDbEntity
  8
0
100
AcDbCircle
 62
7
  6
BYLAYER
 10
18.7772224658
 20
26.0974310928
 40
14.7079322487
100
AcDbArc
 50
88.7229747378
 51
91.2797346757
  0
ARC
  5
2AE
100
AcDbEntity
  8
0
100
AcDbCircle
 62
7
  6
BYLAYER
 10
18.7772224658
 20
26.0974310928
 40
13.9230568562
100
AcDbArc
 50
339.9015996634
 51
20.0984004941
  0
ARC
  5
2AF
100
AcDbEntity
  8
0
100
AcDbCircle
 62
7
  6
BYLAYER
 10
18.7772224658
 20
26.0974310928
 40
13.9230568562
100
AcDbArc
 50
219.9015995059
 51
260.0984004941
  0
ARC
  5
2B0
100
AcDbEntity
  8
0
100
AcDbCircle
 62
7
  6
BYLAYER
 10
18.7772224658
 20
26.0974310928
 40
13.9230568562
100
AcDbArc
 50
39.9015995059
 51
80.0984006
  0
ARC
  5
2B1
100
AcDbEntity
  8
0
100
AcDbCircle
 62
7
  6
BYLAYER
 10
18.7772224658
 20
26.0974310928
 40
13.9230568562
100
AcDbArc
 50
159.9015996634
 51
200.0984004941
  0
ARC
  5
2B2
100
AcDbEntity
  8
0
100
AcDbCircle
 62
7
  6
BYLAYER
 10
18.7772224658
 20
26.0974310928
 40
13.9230568562
100
AcDbArc
 50
279.9015995059
 51
320.0983994738
  0
ARC
  5
2B3
100
AcDbEntity
  8
0
100
AcDbCircle
 62
7
  6
BYLAYER
 10
18.7772224658
 20
26.0974310928
 40
13.9230568562
100
AcDbArc
 50
99.9015995059
 51
140.0984004941
  0
ARC
  5
2B4
100
AcDbEntity
  8
0
100
AcDbCircle
 62
7
  6
BYLAYER
 10
18.7772224658
 20
26.0974310928
 40
12.269939757
100
AcDbArc
 50
101.7563339443
 51
138.2436660558
  0
ARC
  5
2B5
100
AcDbEntity
  8
0
100
AcDbCircle
 62
7
  6
BYLAYER
 10
18.7772224658
 20
26.0974310928
 40
12.269939757
100
AcDbArc
 50
41.7563339443
 51
78.2436663205
  0
ARC
  5
2B6
100
AcDbEntity
  8
0
100
AcDbCircle
 62
7
  6
BYLAYER
 10
18.7772224658
 20
26.0974310928
 40
12.269939757
100
AcDbArc
 50
341.7563331578
 51
18.243666449
  0
ARC
  5
2B7
100
AcDbEntity
  8
0
100
AcDbCircle
 62
7
  6
BYLAYER
 10
18.7772224658
 20
26.0974310928
 40
12.269939757
100
AcDbArc
 50
281.7563334151
 51
318.2436686032
  0
ARC
  5
2B8
100
AcDbEntity
  8
0
100
AcDbCircle
 62
7
  6
BYLAYER
 10
18.7772224658
 20
26.0974310928
 40
12.269939757
100
AcDbArc
 50
221.7563339443
 51
258.2436660557
  0
ARC
  5
2B9
100
AcDbEntity
  8
0
100
AcDbCircle
 62
7
  6
BYLAYER
 10
18.7772224658
 20
26.0974310928
 40
12.269939757
100
AcDbArc
 50
161.7563331578
 51
198.243666449
  0
ARC
  5
2BA
100
AcDbEntity
  8
0
100
AcDbCircle
 62
7
  6
BYLAYER
 10
18.7772224658
 20
26.0974310928
 40
12.0629759991
100
AcDbArc
 50
318.0390112182
 51
341.9609913107
  0
ARC
  5
2BB
100
AcDbEntity
  8
0
100
AcDbCircle
 62
7
  6
BYLAYER
 10
18.7772224658
 20
26.0974310928
 40
12.0629759991
100
AcDbArc
 50
198.0390081412
 51
221.9609923328
  0
ARC
  5
2BC
100
AcDbEntity
  8
0
100
AcDbCircle
 62
7
  6
BYLAYER
 10
18.7772224658
 20
26.0974310928
 40
12.0629759991
100
AcDbArc
 50
78.0390079365
 51
101.9609923328
  0
ARC
  5
2BD
100
AcDbEntity
  8
0
100
AcDbCircle
 62
7
  6
BYLAYER
 10
18.7772224658
 20
26.0974310928
 40
12.0629759991
100
AcDbArc
 50
138.0390076673
 51
161.9609913107
  0
ARC
  5
2BE
100
AcDbEntity
  8
0
100
AcDbCircle
 62
7
  6
BYLAYER
 10
18.7772224658
 20
26.0974310928
 40
12.0629759991
100
AcDbArc
 50
18.0390081412
 51
41.9609923328
  0
ARC
  5
2BF
100
AcDbEntity
  8
0
100
AcDbCircle
 62
7
  6
BYLAYER
 10
18.7772224658
 20
26.0974310928
 40
12.0629759991
100
AcDbArc
 50
258.0390076672
 51
281.960991695
  0
CIRCLE
  5
2C0
100
AcDbEntity
  8
0
100
AcDbCircle
 62
7
  6
BYLAYER
 10
18.7772224658
 20
26.0974310928
 40
11.9948014617
  0
CIRCLE
  5
2C1
100
AcDbEntity
  8
0
100
AcDbCircle
 62
7
  6
BYLAYER
 10
18.7772224658
 20
26.0974310928
 40
11.1
  0
ARC
  5
2C2
100
AcDbEntity
  8
0
100
AcDbCircle
 62
7
  6
BYLAYER
 10
18.7772224658
 20
26.0974310928
 40
10.875
100
AcDbArc
 50
69.1713794262
 51
110.8286205738
  0
ARC
  5
2C3
100
AcDbEntity
  8
0
100
AcDbCircle
 62
7
  6
BYLAYER
 10
18.7772224658
 20
26.0974310928
 40
10.875
100
AcDbArc
 50
170.6265617203
 51
189.3734382797
  0
ARC
  5
2C4
100
AcDbEntity
  8
0
100
AcDbCircle
 62
7
  6
BYLAYER
 10
18.7772224658
 20
26.0974310928
 40
10.875
100
AcDbArc
 50
249.1713794262
 51
290.8286205738
  0
ARC
  5
2C5
100
AcDbEntity
  8
0
100
AcDbCircle
 62
7
  6
BYLAYER
 10
18.7772224658
 20
26.0974310928
 40
10.875
100
AcDbArc
 50
350.6265617203
 51
9.3734382797
  0
ARC
  5
2C6
100
AcDbEntity
  8
0
100
AcDbCircle
 62
7
  6
BYLAYER
 10
18.7772224658
 20
26.0974310928
 40
10.625
100
AcDbArc
 50
251.9785774623
 51
288.0839954348
  0
ARC
  5
2C7
100
AcDbEntity
  8
0
100
AcDbCircle
 62
7
  6
BYLAYER
 10
18.7772224658
 20
26.0974310928
 40
10.625
100
AcDbArc
 50
350.3992029124
 51
9.6015527576
  0
ARC
  5
2C8
100
AcDbEntity
  8
0
100
AcDbCircle
 62
7
  6
BYLAYER
 10
18.7772224658
 20
26.0974310928
 40
10.625
100
AcDbArc
 50
71.9295435861
 51
108.0704564139
  0
ARC
  5
2C9
100
AcDbEntity
  8
0
100
AcDbCircle
 62
7
  6
BYLAYER
 10
18.7772224658
 20
26.0974310928
 40
10.625
100
AcDbArc
 50
170.3984472424
 51
189.5820806966
  0
ARC
  5
2CA
100
AcDbEntity
  8
0
100
AcDbCircle
 62
7
  6
BYLAYER
 10
18.7772224658
 20
26.0974310928
 40
10.5
100
AcDbArc
 50
254.1342202715
 51
285.8657797285
  0
ARC
  5
2CB
100
AcDbEntity
  8
0
100
AcDbCircle
 62
7
  6
BYLAYER
 10
18.7772224658
 20
26.0974310928
 40
10.5
100
AcDbArc
 50
74.1342202715
 51
99.910323032
  0
ARC
  5
2CC
100
AcDbEntity
  8
0
100
AcDbCircle
 62
7
  6
BYLAYER
 10
18.7772224658
 20
26.0974310928
 40
10.5
100
AcDbArc
 50
101.0243344521
 51
105.8657797285
  0
ARC
  5
2CD
100
AcDbEntity
  8
0
100
AcDbCircle
 62
7
  6
BYLAYER
 10
18.7772224658
 20
26.0974310928
 40
10.0
100
AcDbArc
 50
285.0700584521
 51
254.9299415479
  0
ARC
  5
2CE
100
AcDbEntity
  8
0
100
AcDbCircle
 62
7
  6
BYLAYER
 10
18.7772224657
 20
26.0974310934
 40
8.1937512207
100
AcDbArc
 50
260.6964130493
 51
279.3035900878
  0
ARC
  5
2CF
100
AcDbEntity
  8
0
100
AcDbCircle
 62
7
  6
BYLAYER
 10
18.9220305945
 20
26.0110245647
 40
7.6342270415
100
AcDbArc
 50
317.7925008326
 51
340.6812146827
  0
ARC
  5
2D0
100
AcDbEntity
  8
0
100
AcDbCircle
 62
7
  6
BYLAYER
 10
18.7772224658
 20
26.0974310928
 40
7.1443681646
100
AcDbArc
 50
64.7881421028
 51
115.2118578972
  0
ARC
  5
2D1
100
AcDbEntity
  8
0
100
AcDbCircle
 62
7
  6
BYLAYER
 10
18.7772224658
 20
26.0974310928
 40
6.65
100
AcDbArc
 50
55.9857900488
 51
124.0142099512
  0
ARC
  5
2D2
100
AcDbEntity
  8
0
100
AcDbCircle
 62
7
  6
BYLAYER
 10
18.7772224658
 20
26.0974310929
 40
6.6000000001
100
AcDbArc
 50
228.1896851042
 51
235.6923485442
  0
ARC
  5
2D3
100
AcDbEntity
  8
0
100
AcDbCircle
 62
7
  6
BYLAYER
 10
18.7772224657
 20
26.0974310929
 40
6.6
100
AcDbArc
 50
124.3076514558
 51
131.8103148958
  0
ARC
  5
2D4
100
AcDbEntity
  8
0
100
AcDbCircle
 62
7
  6
BYLAYER
 10
18.7772224658
 20
26.0974310929
 40
6.6
100
AcDbArc
 50
48.1896851042
 51
55.6923485442
  0
ARC
  5
2D5
100
AcDbEntity
  8
0
100
AcDbCircle
 62
7
  6
BYLAYER
 10
18.7772224658
 20
26.0974310928
 40
6.5999999999
100
AcDbArc
 50
304.3076514557
 51
311.8103148958
  0
ARC
  5
2D6
100
AcDbEntity
  8
0
100
AcDbCircle
 62
7
  6
BYLAYER
 10
18.7772224658
 20
26.0974310928
 40
6.4
100
AcDbArc
 50
313.4325365578
 51
339.8944902121
  0
ARC
  5
2D7
100
AcDbEntity
  8
0
100
AcDbCircle
 62
7
  6
BYLAYER
 10
18.7772224658
 20
26.0974310928
 40
6.4
100
AcDbArc
 50
200.1055097879
 51
226.5674634422
  0
ARC
  5
2D8
100
AcDbEntity
  8
0
100
AcDbCircle
 62
7
  6
BYLAYER
 10
18.7772224658
 20
26.0974310928
 40
6.4
100
AcDbArc
 50
133.4325365578
 51
159.8944902121
  0
ARC
  5
2D9
100
AcDbEntity
  8
0
100
AcDbCircle
 62
7
  6
BYLAYER
 10
18.7772224658
 20
26.0974310928
 40
6.4
100
AcDbArc
 50
20.1055097879
 51
46.5674634422
  0
CIRCLE
  5
2DA
100
AcDbEntity
  8
0
100
AcDbCircle
 62
7
  6
BYLAYER
 10
18.7772224658
 20
26.0974310928
 40
5.0
  0
CIRCLE
  5
2DB
100
AcDbEntity
  8
0
100
AcDbCircle
 62
7
  6
BYLAYER
 10
18.7772224658
 20
26.0974310928
 40
4.0
  0
ARC
  5
2DC
100
AcDbEntity
  8
0
100
AcDbCircle
 62
7
  6
BYLAYER
 10
18.7772224658
 20
26.0974310928
 40
3.5
100
AcDbArc
 50
237.3736251162
 51
15.0
  0
ARC
  5
2DD
100
AcDbEntity
  8
0
100
AcDbCircle
 62
7
  6
BYLAYER
 10
18.7772224658
 20
26.0974310928
 40
3.5
100
AcDbArc
 50
75.0
 51
212.6263748838
  0
ARC
  5
2DE
100
AcDbEntity
  8
0
100
AcDbCircle
 62
7
  6
BYLAYER
 10
19.3007193176
 20
25.482708764
 40
7.5048215024
100
AcDbArc
 50
294.0030917905
 51
312.2487795593
  0
ARC
  5
2DF
100
AcDbEntity
  8
0
100
AcDbCircle
 62
7
  6
BYLAYER
 10
24.0481177856
 20
20.3638473427
 40
0.5287508161
100
AcDbArc
 50
304.3670839302
 51
359.3062252506
  0
ARC
  5
2E0
100
AcDbEntity
  8
0
100
AcDbCircle
 62
7
  6
BYLAYER
 10
21.8788786719
 20
19.6068295881
 40
0.0999291838
100
AcDbArc
 50
1.1031260247
 51
117.5478536887
  0
ARC
  5
2E1
100
AcDbEntity
  8
0
100
AcDbCircle
 62
7
  6
BYLAYER
 10
29.6760303121
 20
18.6503014544
 40
1.5000010094
100
AcDbArc
 50
240.0000291138
 51
325.6716594434
  0
ARC
  5
2E2
100
AcDbEntity
  8
0
100
AcDbCircle
 62
7
  6
BYLAYER
 10
30.6760307554
 20
20.3823513782
 40
1.5000001558
100
AcDbArc
 50
334.3283277676
 51
59.9999980644
  0
ARC
  5
2E3
100
AcDbEntity
  8
0
100
AcDbCircle
 62
7
  6
BYLAYER
 10
18.8205237359
 20
26.1224310928
 40
14.75
100
AcDbArc
 50
205.6716745674
 51
214.3283254326
  0
ARC
  5
2E4
100
AcDbEntity
  8
0
100
AcDbCircle
 62
7
  6
BYLAYER
 10
18.7772224658
 20
26.1474310928
 40
14.75
100
AcDbArc
 50
265.6716745674
 51
274.3283254325
  0
ARC
  5
2E5
100
AcDbEntity
  8
0
100
AcDbCircle
 62
7
  6
BYLAYER
 10
18.8096469936
 20
26.1363127408
 40
8.2618312993
100
AcDbArc
 50
47.2671759583
 51
63.5920179286
  0
ARC
  5
2E6
100
AcDbEntity
  8
0
100
AcDbCircle
 62
7
  6
BYLAYER
 10
18.9360925031
 20
26.2040275444
 40
7.2386657478
100
AcDbArc
 50
237.5981356926
 51
254.1334186145
  0
ARC
  5
2E7
100
AcDbEntity
  8
0
100
AcDbCircle
 62
7
  6
BYLAYER
 10
19.2598257588
 20
26.4426281374
 40
7.231110887
100
AcDbArc
 50
18.2719284087
 51
42.4223504009
  0
ARC
  5
2E8
100
AcDbEntity
  8
0
100
AcDbCircle
 62
7
  6
BYLAYER
 10
30.6760309224
 20
31.8125108199
 40
1.5
100
AcDbArc
 50
300.0
 51
25.671674569
  0
ARC
  5
2E9
100
AcDbEntity
  8
0
100
AcDbCircle
 62
7
  6
BYLAYER
 10
29.6760309224
 20
33.5445616275
 40
1.5
100
AcDbArc
 50
34.328325433
 51
119.9999999999
  0
ARC
  5
2EA
100
AcDbEntity
  8
0
100
AcDbCircle
 62
7
  6
BYLAYER
 10
19.7772225146
 20
39.2596414559
 40
1.4999998952
100
AcDbArc
 50
0.0
 51
85.6716761371
  0
ARC
  5
2EB
100
AcDbEntity
  8
0
100
AcDbCircle
 62
7
  6
BYLAYER
 10
24.0750930067
 20
31.8366759767
 40
0.5017373711
100
AcDbArc
 50
0.0004448186
 51
47.2044845397
  0
ARC
  5
2EC
100
AcDbEntity
  8
0
100
AcDbCircle
 62
7
  6
BYLAYER
 10
22.3168657681
 20
33.2276821583
 40
0.3508077508
100
AcDbArc
 50
61.5144971903
 51
178.796106245
  0
ARC
  5
2ED
100
AcDbEntity
  8
0
100
AcDbCircle
 62
7
  6
BYLAYER
 10
21.8663532504
 20
32.6498495177
 40
0.0997964554
100
AcDbArc
 50
242.6370772232
 51
359.0317212383
  0
SPLINE
  5
2EE
100
AcDbEntity
  8
0
100
AcDbSpline
 62
7
  6
BYLAYER
 70
0
 71
3
 72
9
 73
5
 74
0
 42
0.0000001
 43
0.0000001
 44
0.0000000001
 40
0.0
 40
0.0
 40
0.0
 40
0.0
 40
0.2558599837
 40
1.0
 40
1.0
 40
1.0
 40
1.0
 10
26.9772219843
 20
29.0831448881
 30
0.0
 10
26.9772219843
 20
29.0510683107
 30
0.0
 10
26.9807097124
 20
28.9257372907
 30
0.0
 10
26.9978503545
 20
28.8006891088
 30
0.0
 10
27.0189643235
 20
28.7098186866
 30
0.0
  0
SPLINE
  5
2EF
100
AcDbEntity
  8
0
100
AcDbSpline
 62
7
  6
BYLAYER
 70
0
 71
3
 72
9
 73
5
 74
0
 42
0.0000001
 43
0.0000001
 44
0.0000000001
 40
0.0
 40
0.0
 40
0.0
 40
0.0
 40
0.2424094621
 40
1.0
 40
1.0
 40
1.0
 40
1.0
 10
10.5354799981
 20
28.7098186866
 30
0.0
 10
10.5423581492
 20
28.7394209075
 30
0.0
 10
10.5670011019
 20
28.8623828705
 30
0.0
 10
10.5772223454
 20
28.9881660086
 30
0.0
 10
10.5772223454
 20
29.0831448881
 30
0.0
  0
ELLIPSE
  5
2F0
100
AcDbEntity
  8
0
100
AcDbEllipse
 62
7
  6
BYLAYER
 10
9.9998719268
 20
29.0831448881
 30
0.0
 11
-0.0
 21
1.0000000906
 31
0.0
 40
0.5773503664
 41
-2.9321528851
 42
-2.3396291445
  0
ELLIPSE
  5
2F1
100
AcDbEntity
  8
0
100
AcDbEllipse
 62
7
  6
BYLAYER
 10
9.9998721718
 20
23.1117171756
 30
0.0
 11
0.0
 21
0.9999996662
 31
0.0
 40
0.5773503664
 41
-0.8019633374
 42
-0.2094394248
  0
ELLIPSE
  5
2F2
100
AcDbEntity
  8
0
100
AcDbEllipse
 62
7
  6
BYLAYER
 10
9.9998721718
 20
23.1117171756
 30
0.0
 11
0.0
 21
0.9999996662
 31
0.0
 40
0.5773503664
 41
-1.5707963268
 42
-1.1881638709
  0
ELLIPSE
  5
2F3
100
AcDbEntity
  8
0
100
AcDbEllipse
 62
7
  6
BYLAYER
 10
27.5545720446
 20
23.1117171756
 30
0.0
 11
0.0
 21
0.9999996662
 31
0.0
 40
0.577350253
 41
0.2094394248
 42
0.801961759
  0
ELLIPSE
  5
2F4
100
AcDbEntity
  8
0
100
AcDbEllipse
 62
7
  6
BYLAYER
 10
27.5545722896
 20
29.0831448881
 30
0.0
 11
-0.0
 21
1.0000000906
 31
0.0
 40
0.577350253
 41
-3.9435545842
 42
-3.3510324221
  0
ELLIPSE
  5
2F5
100
AcDbEntity
  8
0
100
AcDbEllipse
 62
7
  6
BYLAYER
 10
27.5545720446
 20
23.1117171756
 30
0.0
 11
0.0
 21
0.9999996662
 31
0.0
 40
0.577350253
 41
1.188163874
 42
1.5707963268
  0
ENDSEC
  0
SECTION
  2
OBJECTS
  0
DICTIONARY
  5
C
100
AcDbDictionary
280
0
281
1
  3
ACAD_GROUP
350
D
  3
ACAD_MLINESTYLE
350
17
  3
ACAD_LAYOUT
350
1A
  3
ACAD_PLOTSETTINGS
350
19
  3
ACAD_PLOTSTYLENAME
350
E
  0
DICTIONARY
  5
D
102
{ACAD_REACTORS
330
C
102
}
100
AcDbDictionary
280
0
281
1
  0
ACDBDICTIONARYWDFLT
  5
E
102
{ACAD_REACTORS
330
C
102
}
100
AcDbDictionary
281
1
  3
Normal
350
F
100
AcDbDictionaryWithDefault
340
F
  0
DICTIONARY
  5
17
102
{ACAD_REACTORS
330
C
102
}
100
AcDbDictionary
280
0
281
1
  3
Standard
350
18
  0
DICTIONARY
  5
19
102
{ACAD_REACTORS
330
C
102
}
100
AcDbDictionary
281
1
  0
DICTIONARY
  5
1A
102
{ACAD_REACTORS
330
C
102
}
100
AcDbDictionary
281
1
  3
Model
350
2F6
  3
Layout1
350
2F7
  0
ACDBPLACEHOLDER
  5
F
102
{ACAD_REACTORS
330
E
102
}
  0
MLINESTYLE
  5
18
102
{ACAD_REACTORS
330
17
102
}
100
AcDbMlineStyle
  2
STANDARD
 70
0
  3

 62
256
 51
90.0
 52
90.0
 71
2
 49
0.5
 62
256
  6
BYLAYER
 49
-0.5
 62
256
  6
BYLAYER
  0
LAYOUT
  5
2F6
102
{ACAD_REACTORS
330
1A
102
}
100
AcDbPlotSettings
  1

  2
none_device
  4

  6

 40
0.0
 41
0.0
 42
0.0
 43
0.0
 44
210.0
 45
297.0
 46
0.0
 47
0.0
 48
0.0
 49
0.0
140
0.0
141
0.0
142
1.0
143
1.0
 70
1024
 72
1
 73
0
 74
0
  7

 75
0
147
1.0
148
0.0
149
0.0
100
AcDbLayout
  1
Model
 70
0
 71
0
 10
0.0
 20
0.0
 11
210.0
 21
297.0
 12
0.0
 22
0.0
 32
0.0
 14
0.0
 24
0.0
 34
0.0
 15
0.0
 25
0.0
 35
0.0
146
0.0
 13
0.0
 23
0.0
 33
0.0
 16
1.0
 26
0.0
 36
0.0
 17
0.0
 27
1.0
 37
0.0
 76
0
330
210
345
0
346
0
  0
LAYOUT
  5
2F7
102
{ACAD_REACTORS
330
1A
102
}
100
AcDbPlotSettings
  1

  2
none_device
  4

  6

 40
0.0
 41
0.0
 42
0.0
 43
0.0
 44
210.0
 45
297.0
 46
0.0
 47
0.0
 48
0.0
 49
0.0
140
0.0
141
0.0
142
1.0
143
1.0
 70
0
 72
1
 73
0
 74
0
  7

 75
0
147
1.0
148
0.0
149
0.0
100
AcDbLayout
  1
Layout1
 70
0
 71
1
 10
0.0
 20
0.0
 11
210.0
 21
297.0
 12
0.0
 22
0.0
 32
0.0
 14
0.0
 24
0.0
 34
0.0
 15
0.0
 25
0.0
 35
0.0
146
0.0
 13
0.0
 23
0.0
 33
0.0
 16
1.0
 26
0.0
 36
0.0
 17
0.0
 27
1.0
 37
0.0
 76
0
330
211
345
0
346
0
  0
ENDSEC
  0
EOF
