999
DXF file: C:\Users\sesa63760\Dev\_Creo\CAD\MCADID0004006_3D-CAD\drw0001_3.dxf
999
Pro/ENGINEER 2019471 by Parametric Technology Corporation
  0
SECTION
  2
HEADER
  9
$ACADVER
  1
AC1024
  9
$DWGCODEPAGE
  3
ANSI_1252
  9
$EXTMAX
 10
42.2792416923
 20
59.7949275362
 30
0.0
  9
$EXTMIN
 10
0.0
 20
0.0
 30
0.0
  9
$LIMMIN
 10
0.0
 20
0.0
  9
$LIMMAX
 10
42.2792416923
 20
59.7949275362
  9
$VIEWCTR
 10
21.1396208461
 20
29.8974637681
  9
$VIEWSIZE
 40
59.7949275362
  9
$CLAYER
  8
0
  9
$LTSCALE
 40
3.8977434246
  9
$CELTYPE
  6
BYLAYER
  9
$DIMSCALE
 40
1.0
  9
$DIMASZ
 40
0.5033243059
  9
$DIMEXO
 40
1.0
  9
$DIMDLI
 40
2.6929863661
  9
$DIMEXE
 40
1.0
  9
$DIMCEN
 40
0.6378125604
  9
$DIMLFAC
 40
1.0
  9
$DIMBLK
  1
_FILLED
  9
$DIMALT
 70
0
  9
$DIMALTF
 40
0.0393700787
  9
$DIMTXT
 40
0.7046540282
  9
$DIMTOL
 70
1
  9
$DIMLIM
 70
0
  9
$DIMTFAC
 40
1.0
  9
$DIMTP
 40
0.01
  9
$DIMTM
 40
0.01
  9
$DIMGAP
 40
0.625
  9
$DIMDSEP
 70
46
  9
$AUNITS
 70
0
  9
$PDMODE
 70
3
  9
$PDSIZE
 40
0.3125
  9
$HANDSEED
  5
336
  9
$TILEMODE
 70
1
  9
$MEASUREMENT
 70
1
  9
$INSUNITS
 70
4
  0
ENDSEC
  0
SECTION
  2
CLASSES
  0
CLASS
  1
ACDBDICTIONARYWDFLT
  2
AcDbDictionaryWithDefault
  3
AutoCAD 2000
 90
0
 91
1
280
0
281
0
  0
CLASS
  1
ACDBPLACEHOLDER
  2
AcDbPlaceHolder
  3
AutoCAD 2000
 90
0
 91
1
280
0
281
0
  0
CLASS
  1
LAYOUT
  2
AcDbLayout
  3
AutoCAD 2000
 90
0
 91
0
280
0
281
0
  0
ENDSEC
  0
SECTION
  2
TABLES
  0
TABLE
  2
VPORT
  5
8
100
AcDbSymbolTable
 70
2
  0
VPORT
  5
1F4
100
AcDbSymbolTableRecord
100
AcDbViewportTableRecord
  2
*ACTIVE
 70
0
 10
0.0
 20
0.0
 11
1.0
 21
1.0
 12
21.1396208461
 22
29.8974637681
 13
0.0
 23
0.0
 14
1.0
 24
1.0
 15
0.0
 25
0.0
 16
0.0
 26
0.0
 36
1.0
 17
0.0
 27
0.0
 37
0.0
 40
59.7949275362
 41
0.7070707071
 42
50.0
 43
0.0
 44
0.0
 50
0.0
 51
0.0
 71
0
 72
100
 73
1
 74
1
 75
0
 76
0
 77
0
 78
0
  0
ENDTAB
  0
TABLE
  2
LTYPE
  5
5
100
AcDbSymbolTable
 70
6
  0
LTYPE
  5
14
100
AcDbSymbolTableRecord
100
AcDbLinetypeTableRecord
  2
BYBLOCK
 70
0
  3

 72
65
 73
0
 40
0.0
  0
LTYPE
  5
15
100
AcDbSymbolTableRecord
100
AcDbLinetypeTableRecord
  2
BYLAYER
 70
0
  3

 72
65
 73
0
 40
0.0
  0
LTYPE
  5
16
100
AcDbSymbolTableRecord
100
AcDbLinetypeTableRecord
  2
CONTINUOUS
 70
64
  3
Solid line
 72
65
 73
0
 40
0.0
  0
LTYPE
  5
1F5
100
AcDbSymbolTableRecord
100
AcDbLinetypeTableRecord
  2
CENTER
 70
64
  3
____ _ ____ _ ____ _ ____ _ ____ _ ____ _ ____
 72
65
 73
4
 40
0.6
 49
0.375
 74
0
 49
-0.075
 74
0
 49
0.075
 74
0
 49
-0.075
 74
0
  0
LTYPE
  5
1F6
100
AcDbSymbolTableRecord
100
AcDbLinetypeTableRecord
  2
HIDDEN
 70
64
  3
- - - - - - - - - - - - - - - - - - - -
 72
65
 73
2
 40
0.2
 49
0.1
 74
0
 49
-0.1
 74
0
  0
LTYPE
  5
1F7
100
AcDbSymbolTableRecord
100
AcDbLinetypeTableRecord
  2
PHANTOM
 70
64
  3
_____ _ _ _____ _ _ _____ _ _ _____
 72
65
 73
6
 40
0.8
 49
0.45
 74
0
 49
-0.05
 74
0
 49
0.1
 74
0
 49
-0.05
 74
0
 49
0.1
 74
0
 49
-0.05
 74
0
  0
LTYPE
  5
1F8
100
AcDbSymbolTableRecord
100
AcDbLinetypeTableRecord
  2
DOT
 70
64
  3
. . . . . . . . . . . . . . . . . . . .
 72
65
 73
2
 40
0.2
 49
0.1
 74
0
 49
-0.1
 74
0
  0
LTYPE
  5
1F9
100
AcDbSymbolTableRecord
100
AcDbLinetypeTableRecord
  2
DASHED
 70
64
  3
- - - - - - - - - - - - - - - - - - - -
 72
65
 73
2
 40
0.2
 49
0.1
 74
0
 49
-0.1
 74
0
  0
ENDTAB
  0
TABLE
  2
LAYER
  5
2
100
AcDbSymbolTable
 70
36
  0
LAYER
  5
10
100
AcDbSymbolTableRecord
100
AcDbLayerTableRecord
  2
0
 70
0
 62
7
  6
CONTINUOUS
370
-3
390
F
  0
LAYER
  5
1FA
100
AcDbSymbolTableRecord
100
AcDbLayerTableRecord
  2
DEFAULT_1
 70
0
 62
7
  6
CENTER
370
-3
390
F
  0
LAYER
  5
1FB
100
AcDbSymbolTableRecord
100
AcDbLayerTableRecord
  2
DEFAULT_2
 70
0
 62
7
  6
HIDDEN
370
-3
390
F
  0
LAYER
  5
1FC
100
AcDbSymbolTableRecord
100
AcDbLayerTableRecord
  2
DEFAULT_3
 70
0
 62
7
  6
PHANTOM
370
-3
390
F
  0
LAYER
  5
1FD
100
AcDbSymbolTableRecord
100
AcDbLayerTableRecord
  2
00_COMPONENTS
 70
0
 62
7
  6
CONTINUOUS
370
-3
390
F
  0
LAYER
  5
1FE
100
AcDbSymbolTableRecord
100
AcDbLayerTableRecord
  2
01_1_DEFAULT_DATUMS
 70
0
 62
7
  6
CONTINUOUS
370
-3
390
F
  0
LAYER
  5
1FF
100
AcDbSymbolTableRecord
100
AcDbLayerTableRecord
  2
01_PLANES
 70
0
 62
7
  6
CONTINUOUS
370
-3
390
F
  0
LAYER
  5
200
100
AcDbSymbolTableRecord
100
AcDbLayerTableRecord
  2
02_COORD_SYS
 70
0
 62
7
  6
CONTINUOUS
370
-3
390
F
  0
LAYER
  5
201
100
AcDbSymbolTableRecord
100
AcDbLayerTableRecord
  2
03_AXES
 70
0
 62
7
  6
CONTINUOUS
370
-3
390
F
  0
LAYER
  5
202
100
AcDbSymbolTableRecord
100
AcDbLayerTableRecord
  2
04_POINTS
 70
0
 62
7
  6
CONTINUOUS
370
-3
390
F
  0
LAYER
  5
203
100
AcDbSymbolTableRecord
100
AcDbLayerTableRecord
  2
05_CURVES
 70
0
 62
7
  6
CONTINUOUS
370
-3
390
F
  0
LAYER
  5
204
100
AcDbSymbolTableRecord
100
AcDbLayerTableRecord
  2
06_SURFS
 70
0
 62
7
  6
CONTINUOUS
370
-3
390
F
  0
LAYER
  5
205
100
AcDbSymbolTableRecord
100
AcDbLayerTableRecord
  2
07_COSMETICS
 70
0
 62
7
  6
CONTINUOUS
370
-3
390
F
  0
LAYER
  5
206
100
AcDbSymbolTableRecord
100
AcDbLayerTableRecord
  2
10_NOTES
 70
0
 62
7
  6
CONTINUOUS
370
-3
390
F
  0
LAYER
  5
207
100
AcDbSymbolTableRecord
100
AcDbLayerTableRecord
  2
11_NOTES_PUB
 70
0
 62
7
  6
CONTINUOUS
370
-3
390
F
  0
LAYER
  5
208
100
AcDbSymbolTableRecord
100
AcDbLayerTableRecord
  2
13_REF_GTOL
 70
0
 62
7
  6
CONTINUOUS
370
-3
390
F
  0
LAYER
  5
209
100
AcDbSymbolTableRecord
100
AcDbLayerTableRecord
  2
16_MISC
 70
0
 62
7
  6
CONTINUOUS
370
-3
390
F
  0
LAYER
  5
20A
100
AcDbSymbolTableRecord
100
AcDbLayerTableRecord
  2
17_NO_PRINT
 70
0
 62
7
  6
CONTINUOUS
370
-3
390
F
  0
LAYER
  5
20B
100
AcDbSymbolTableRecord
100
AcDbLayerTableRecord
  2
18_DATUM_CAMS_JOINTS
 70
0
 62
7
  6
CONTINUOUS
370
-3
390
F
  0
LAYER
  5
20C
100
AcDbSymbolTableRecord
100
AcDbLayerTableRecord
  2
19_DATUM_FUNCTIONAL
 70
0
 62
7
  6
CONTINUOUS
370
-3
390
F
  0
LAYER
  5
20D
100
AcDbSymbolTableRecord
100
AcDbLayerTableRecord
  2
20_DATUM_KINEMATIC_SCHEME
 70
0
 62
7
  6
CONTINUOUS
370
-3
390
F
  0
ENDTAB
  0
TABLE
  2
STYLE
  5
3
100
AcDbSymbolTable
 70
1
  0
STYLE
  5
11
100
AcDbSymbolTableRecord
100
AcDbTextStyleTableRecord
  2
STANDARD
 70
0
 40
0.0
 41
1.0
 50
0.0
 71
0
 42
0.2
  3
ARIAL.TTF
  4

  0
STYLE
  5
20E
100
AcDbSymbolTableRecord
100
AcDbTextStyleTableRecord
  2
TEXTSTYLE_1
 70
0
 40
0.0
 41
0.8
 50
0.0
 71
0
 42
0.2
  3
gdt
  4

  0
ENDTAB
  0
TABLE
  2
VIEW
  5
6
100
AcDbSymbolTable
 70
0
  0
ENDTAB
  0
TABLE
  2
UCS
  5
7
100
AcDbSymbolTable
 70
0
  0
ENDTAB
  0
TABLE
  2
APPID
  5
9
100
AcDbSymbolTable
 70
1
  0
APPID
  5
20F
100
AcDbSymbolTableRecord
100
AcDbRegAppTableRecord
  2
ACAD
 70
0
  0
ENDTAB
  0
TABLE
  2
BLOCK_RECORD
  5
1
100
AcDbSymbolTable
 70
0
  0
BLOCK_RECORD
  5
210
100
AcDbSymbolTableRecord
100
AcDbBlockTableRecord
  2
*Model_Space
  0
BLOCK_RECORD
  5
211
100
AcDbSymbolTableRecord
100
AcDbBlockTableRecord
  2
*Paper_Space
  0
BLOCK_RECORD
  5
212
100
AcDbSymbolTableRecord
100
AcDbBlockTableRecord
  2
_FILLED
  0
ENDTAB
  0
TABLE
  2
DIMSTYLE
  5
A
100
AcDbSymbolTable
 70
1
100
AcDbDimStyleTable
 71
0
  0
DIMSTYLE
105
213
100
AcDbSymbolTableRecord
100
AcDbDimStyleTableRecord
  2
STANDARD
 70
0
  3

  4

 40
1.0
 41
0.5033243059
 42
1.0
 43
0.38
 44
1.0
 45
0.0
 46
0.0
 47
0.01
 48
0.01
140
0.7046540282
141
0.09
142
0.0
143
25.4
144
1.0
145
0.0
146
1.0
147
0.625
 71
1
 72
0
 73
0
 74
0
 75
0
 76
0
 77
1
 78
8
 79
2
170
0
171
1
172
0
173
0
174
0
175
0
176
0
177
0
178
0
270
2
179
2
271
2
272
2
273
2
274
2
275
0
280
0
281
0
282
0
283
1
284
8
285
0
286
0
287
3
288
0
340
11
278
46
341
212
342
212
343
212
344
212
  0
ENDTAB
  0
ENDSEC
  0
SECTION
  2
BLOCKS
  0
BLOCK
  5
20
100
AcDbEntity
  8
0
100
AcDbBlockBegin
  2
*Model_Space
 70
0
 10
0.0
 20
0.0
 30
0.0
  3
*Model_Space
  1

  0
ENDBLK
  5
21
100
AcDbEntity
  8
0
100
AcDbBlockEnd
  0
BLOCK
  5
1C
100
AcDbEntity
  8
0
100
AcDbBlockBegin
  2
*Paper_Space
 70
0
 10
0.0
 20
0.0
 30
0.0
  3
*Paper_Space
  1

  0
ENDBLK
  5
1D
100
AcDbEntity
  8
0
100
AcDbBlockEnd
  0
BLOCK
  5
214
100
AcDbEntity
  8
0
100
AcDbBlockBegin
  2
_FILLED
 70
64
 10
0.0
 20
0.0
  3
_FILLED
  1

  0
SOLID
  5
215
100
AcDbEntity
  8
0
  6
BYBLOCK
 62
0
100
AcDbTrace
 10
0.0
 20
0.0
 11
-1.0
 21
0.25
 12
-1.0
 22
-0.25
 13
-1.0
 23
-0.25
  0
ENDBLK
  5
216
100
AcDbEntity
  8
0
  6
BYBLOCK
 62
0
100
AcDbBlockEnd
  0
ENDSEC
  0
SECTION
  2
ENTITIES
  0
LINE
  5
217
100
AcDbEntity
  8
0
100
AcDbLine
 62
7
  6
BYLAYER
 10
29.7751311436
 20
4.7938405797
 11
13.6751396872
 21
4.7938405797
  0
LINE
  5
218
100
AcDbEntity
  8
0
100
AcDbLine
 62
7
  6
BYLAYER
 10
29.9751396872
 20
4.9938405797
 11
22.6320575445
 21
4.9938405797
  0
LINE
  5
219
100
AcDbEntity
  8
0
100
AcDbLine
 62
7
  6
BYLAYER
 10
20.8182218298
 20
4.9938405797
 11
13.4751396872
 21
4.9938405797
  0
LINE
  5
21A
100
AcDbEntity
  8
0
100
AcDbLine
 62
7
  6
BYLAYER
 10
30.5249763011
 20
5.1938405797
 11
12.9251396872
 21
5.1938405797
  0
LINE
  5
21B
100
AcDbEntity
  8
0
100
AcDbLine
 62
7
  6
BYLAYER
 10
30.7251396872
 20
5.3938405797
 11
12.7251396872
 21
5.3938405797
  0
LINE
  5
21C
100
AcDbEntity
  8
0
100
AcDbLine
 62
7
  6
BYLAYER
 10
33.7251396872
 20
7.7938405797
 11
9.7251396847
 21
7.7938405797
  0
LINE
  5
21D
100
AcDbEntity
  8
0
100
AcDbLine
 62
7
  6
BYLAYER
 10
12.9251396872
 20
5.1938405797
 11
12.7251396872
 21
5.3938405797
  0
LINE
  5
21E
100
AcDbEntity
  8
0
100
AcDbLine
 62
7
  6
BYLAYER
 10
9.7251396872
 20
10.7938405797
 11
33.7251396872
 21
10.7938405797
  0
LINE
  5
21F
100
AcDbEntity
  8
0
100
AcDbLine
 62
7
  6
BYLAYER
 10
11.1194837441
 20
11.4938405797
 11
11.5135795927
 21
11.4938405797
  0
LINE
  5
220
100
AcDbEntity
  8
0
100
AcDbLine
 62
7
  6
BYLAYER
 10
11.6102722295
 20
11.4938405797
 11
11.8905186388
 21
11.4938405797
  0
LINE
  5
221
100
AcDbEntity
  8
0
100
AcDbLine
 62
7
  6
BYLAYER
 10
12.1181329487
 20
11.4938405797
 11
12.4357307777
 21
11.4938405797
  0
LINE
  5
222
100
AcDbEntity
  8
0
100
AcDbLine
 62
7
  6
BYLAYER
 10
12.7903722166
 20
11.4938405797
 11
13.1398872785
 21
11.4938405797
  0
LINE
  5
223
100
AcDbEntity
  8
0
100
AcDbLine
 62
7
  6
BYLAYER
 10
13.6154878332
 20
11.4938405797
 11
13.9909398284
 21
11.4938405797
  0
LINE
  5
224
100
AcDbEntity
  8
0
100
AcDbLine
 62
7
  6
BYLAYER
 10
14.5793618415
 20
11.4938405797
 11
14.9743266821
 21
11.4938405797
  0
LINE
  5
225
100
AcDbEntity
  8
0
100
AcDbLine
 62
7
  6
BYLAYER
 10
15.6655020898
 20
11.4938405797
 11
16.0732218181
 21
11.4938405797
  0
LINE
  5
226
100
AcDbEntity
  8
0
100
AcDbLine
 62
7
  6
BYLAYER
 10
16.8553244175
 20
11.4938405797
 11
17.2688228358
 21
11.4938405797
  0
LINE
  5
227
100
AcDbEntity
  8
0
100
AcDbLine
 62
7
  6
BYLAYER
 10
18.1284706346
 20
11.4938405797
 11
18.5406726703
 21
11.4938405797
  0
LINE
  5
228
100
AcDbEntity
  8
0
100
AcDbLine
 62
7
  6
BYLAYER
 10
19.4631568564
 20
11.4938405797
 11
19.8670096184
 21
11.4938405797
  0
LINE
  5
229
100
AcDbEntity
  8
0
100
AcDbLine
 62
7
  6
BYLAYER
 10
20.8365462316
 20
11.4938405797
 11
21.2251396872
 21
11.4938405797
  0
LINE
  5
22A
100
AcDbEntity
  8
0
100
AcDbLine
 62
7
  6
BYLAYER
 10
22.2251396872
 20
11.4938405797
 11
22.6137331427
 21
11.4938405797
  0
LINE
  5
22B
100
AcDbEntity
  8
0
100
AcDbLine
 62
7
  6
BYLAYER
 10
23.5832697559
 20
11.4938405797
 11
23.9871225179
 21
11.4938405797
  0
LINE
  5
22C
100
AcDbEntity
  8
0
100
AcDbLine
 62
7
  6
BYLAYER
 10
24.909606704
 20
11.4938405797
 11
25.3218087397
 21
11.4938405797
  0
LINE
  5
22D
100
AcDbEntity
  8
0
100
AcDbLine
 62
7
  6
BYLAYER
 10
26.1814565385
 20
11.4938405797
 11
26.5949549568
 21
11.4938405797
  0
LINE
  5
22E
100
AcDbEntity
  8
0
100
AcDbLine
 62
7
  6
BYLAYER
 10
27.3770575562
 20
11.4938405797
 11
27.7847772845
 21
11.4938405797
  0
LINE
  5
22F
100
AcDbEntity
  8
0
100
AcDbLine
 62
7
  6
BYLAYER
 10
28.4759526922
 20
11.4938405797
 11
28.8709175329
 21
11.4938405797
  0
LINE
  5
230
100
AcDbEntity
  8
0
100
AcDbLine
 62
7
  6
BYLAYER
 10
29.4593395459
 20
11.4938405797
 11
29.8347915411
 21
11.4938405797
  0
LINE
  5
231
100
AcDbEntity
  8
0
100
AcDbLine
 62
7
  6
BYLAYER
 10
30.3103920958
 20
11.4938405797
 11
30.6599071577
 21
11.4938405797
  0
LINE
  5
232
100
AcDbEntity
  8
0
100
AcDbLine
 62
7
  6
BYLAYER
 10
31.0145485966
 20
11.4938405797
 11
31.3321464257
 21
11.4938405797
  0
LINE
  5
233
100
AcDbEntity
  8
0
100
AcDbLine
 62
7
  6
BYLAYER
 10
31.5597607355
 20
11.4938405797
 11
31.8400071448
 21
11.4938405797
  0
LINE
  5
234
100
AcDbEntity
  8
0
100
AcDbLine
 62
7
  6
BYLAYER
 10
31.9366997816
 20
11.4938405797
 11
32.3307956303
 21
11.4938405797
  0
LINE
  5
235
100
AcDbEntity
  8
0
100
AcDbLine
 62
7
  6
BYLAYER
 10
32.3307956303
 20
14.0938405797
 11
31.9366997816
 21
14.0938405797
  0
LINE
  5
236
100
AcDbEntity
  8
0
100
AcDbLine
 62
7
  6
BYLAYER
 10
31.8400071448
 20
14.0938405797
 11
31.5597607355
 21
14.0938405797
  0
LINE
  5
237
100
AcDbEntity
  8
0
100
AcDbLine
 62
7
  6
BYLAYER
 10
31.3321464257
 20
14.0938405797
 11
31.0145485966
 21
14.0938405797
  0
LINE
  5
238
100
AcDbEntity
  8
0
100
AcDbLine
 62
7
  6
BYLAYER
 10
30.6599071577
 20
14.0938405797
 11
30.3103920958
 21
14.0938405797
  0
LINE
  5
239
100
AcDbEntity
  8
0
100
AcDbLine
 62
7
  6
BYLAYER
 10
29.8347915411
 20
14.0938405797
 11
29.4593395459
 21
14.0938405797
  0
LINE
  5
23A
100
AcDbEntity
  8
0
100
AcDbLine
 62
7
  6
BYLAYER
 10
28.8709175329
 20
14.0938405797
 11
28.4759526922
 21
14.0938405797
  0
LINE
  5
23B
100
AcDbEntity
  8
0
100
AcDbLine
 62
7
  6
BYLAYER
 10
27.7847772845
 20
14.0938405797
 11
27.3770575562
 21
14.0938405797
  0
LINE
  5
23C
100
AcDbEntity
  8
0
100
AcDbLine
 62
7
  6
BYLAYER
 10
26.5949549568
 20
14.0938405797
 11
26.1814565385
 21
14.0938405797
  0
LINE
  5
23D
100
AcDbEntity
  8
0
100
AcDbLine
 62
7
  6
BYLAYER
 10
25.3218087397
 20
14.0938405797
 11
24.909606704
 21
14.0938405797
  0
LINE
  5
23E
100
AcDbEntity
  8
0
100
AcDbLine
 62
7
  6
BYLAYER
 10
23.9871225179
 20
14.0938405797
 11
23.5832697559
 21
14.0938405797
  0
LINE
  5
23F
100
AcDbEntity
  8
0
100
AcDbLine
 62
7
  6
BYLAYER
 10
22.6137331427
 20
14.0938405797
 11
22.2251396872
 21
14.0938405797
  0
LINE
  5
240
100
AcDbEntity
  8
0
100
AcDbLine
 62
7
  6
BYLAYER
 10
21.2251396872
 20
14.0938405797
 11
20.8365462316
 21
14.0938405797
  0
LINE
  5
241
100
AcDbEntity
  8
0
100
AcDbLine
 62
7
  6
BYLAYER
 10
19.8670096184
 20
14.0938405797
 11
19.4631568564
 21
14.0938405797
  0
LINE
  5
242
100
AcDbEntity
  8
0
100
AcDbLine
 62
7
  6
BYLAYER
 10
18.5406726703
 20
14.0938405797
 11
18.1284706346
 21
14.0938405797
  0
LINE
  5
243
100
AcDbEntity
  8
0
100
AcDbLine
 62
7
  6
BYLAYER
 10
17.2688228358
 20
14.0938405797
 11
16.8553244175
 21
14.0938405797
  0
LINE
  5
244
100
AcDbEntity
  8
0
100
AcDbLine
 62
7
  6
BYLAYER
 10
16.0732218181
 20
14.0938405797
 11
15.6655020898
 21
14.0938405797
  0
LINE
  5
245
100
AcDbEntity
  8
0
100
AcDbLine
 62
7
  6
BYLAYER
 10
14.9743266821
 20
14.0938405797
 11
14.5793618415
 21
14.0938405797
  0
LINE
  5
246
100
AcDbEntity
  8
0
100
AcDbLine
 62
7
  6
BYLAYER
 10
13.9909398284
 20
14.0938405797
 11
13.6154878332
 21
14.0938405797
  0
LINE
  5
247
100
AcDbEntity
  8
0
100
AcDbLine
 62
7
  6
BYLAYER
 10
13.1398872785
 20
14.0938405797
 11
12.7903722166
 21
14.0938405797
  0
LINE
  5
248
100
AcDbEntity
  8
0
100
AcDbLine
 62
7
  6
BYLAYER
 10
12.4357307777
 20
14.0938405797
 11
12.1181329487
 21
14.0938405797
  0
LINE
  5
249
100
AcDbEntity
  8
0
100
AcDbLine
 62
7
  6
BYLAYER
 10
11.8905186388
 20
14.0938405797
 11
11.6102722295
 21
14.0938405797
  0
LINE
  5
24A
100
AcDbEntity
  8
0
100
AcDbLine
 62
7
  6
BYLAYER
 10
11.5135795927
 20
14.0938405797
 11
11.1194837441
 21
14.0938405797
  0
LINE
  5
24B
100
AcDbEntity
  8
0
100
AcDbLine
 62
7
  6
BYLAYER
 10
33.7251396872
 20
14.7938405797
 11
9.7251396872
 21
14.7938405797
  0
LINE
  5
24C
100
AcDbEntity
  8
0
100
AcDbLine
 62
7
  6
BYLAYER
 10
21.2251396872
 20
11.4938405797
 11
21.7251396872
 21
10.9938405797
  0
LINE
  5
24D
100
AcDbEntity
  8
0
100
AcDbLine
 62
7
  6
BYLAYER
 10
10.9201396872
 20
14.7938405797
 11
10.9737295256
 21
14.5938405797
  0
LINE
  5
24E
100
AcDbEntity
  8
0
100
AcDbLine
 62
7
  6
BYLAYER
 10
9.7251396872
 20
10.7938405805
 11
9.7251396872
 21
7.7938405793
  0
LINE
  5
24F
100
AcDbEntity
  8
0
100
AcDbLine
 62
7
  6
BYLAYER
 10
9.7251396872
 20
14.7938405789
 11
9.7251396872
 21
17.7938405801
  0
LINE
  5
250
100
AcDbEntity
  8
0
100
AcDbLine
 62
7
  6
BYLAYER
 10
10.1581523891
 20
10.3615596242
 11
10.1581523891
 21
8.2261216154
  0
LINE
  5
251
100
AcDbEntity
  8
0
100
AcDbLine
 62
7
  6
BYLAYER
 10
10.1581523891
 20
15.2261215352
 11
10.1581523891
 21
17.361559605
  0
LINE
  5
252
100
AcDbEntity
  8
0
100
AcDbLine
 62
7
  6
BYLAYER
 10
9.7251396847
 20
17.7938405797
 11
33.7251396872
 21
17.7938405797
  0
LINE
  5
253
100
AcDbEntity
  8
0
100
AcDbLine
 62
7
  6
BYLAYER
 10
22.2251396872
 20
14.0938405797
 11
21.7251396872
 21
14.5938405797
  0
LINE
  5
254
100
AcDbEntity
  8
0
100
AcDbLine
 62
7
  6
BYLAYER
 10
12.7251396872
 20
5.3938405797
 11
12.7251396872
 21
7.7938405797
  0
LINE
  5
255
100
AcDbEntity
  8
0
100
AcDbLine
 62
7
  6
BYLAYER
 10
12.7251396872
 20
11.4087049725
 11
12.7251396872
 21
14.178980817
  0
LINE
  5
256
100
AcDbEntity
  8
0
100
AcDbLine
 62
7
  6
BYLAYER
 10
12.7251396872
 20
17.7938405797
 11
12.7251396872
 21
32.2938405797
  0
LINE
  5
257
100
AcDbEntity
  8
0
100
AcDbLine
 62
7
  6
BYLAYER
 10
13.4751396872
 20
4.9938405797
 11
13.4751396872
 21
5.1938405797
  0
LINE
  5
258
100
AcDbEntity
  8
0
100
AcDbLine
 62
7
  6
BYLAYER
 10
13.7251396872
 20
33.2938405797
 11
13.7251396872
 21
36.1938405797
  0
LINE
  5
259
100
AcDbEntity
  8
0
100
AcDbLine
 62
7
  6
BYLAYER
 10
13.7251396872
 20
36.2938405797
 11
13.7251396872
 21
39.8938405797
  0
LINE
  5
25A
100
AcDbEntity
  8
0
100
AcDbLine
 62
7
  6
BYLAYER
 10
13.7751396872
 20
36.1938405797
 11
13.7751396872
 21
36.2938405797
  0
LINE
  5
25B
100
AcDbEntity
  8
0
100
AcDbLine
 62
7
  6
BYLAYER
 10
15.4220809107
 20
43.1285702152
 11
14.9751396872
 21
40.5938405797
  0
LINE
  5
25C
100
AcDbEntity
  8
0
100
AcDbLine
 62
7
  6
BYLAYER
 10
13.7251396872
 20
33.2938405797
 11
12.7251396872
 21
32.2938405797
  0
LINE
  5
25D
100
AcDbEntity
  8
0
100
AcDbLine
 62
7
  6
BYLAYER
 10
14.9751396872
 20
40.0938405797
 11
14.9751396872
 21
40.5938405797
  0
LINE
  5
25E
100
AcDbEntity
  8
0
100
AcDbLine
 62
7
  6
BYLAYER
 10
10.9201396872
 20
10.7938405797
 11
10.9737295256
 21
10.9938405797
  0
LINE
  5
25F
100
AcDbEntity
  8
0
100
AcDbLine
 62
7
  6
BYLAYER
 10
20.8182218298
 20
4.9938405797
 11
20.8182218298
 21
5.1938405797
  0
LINE
  5
260
100
AcDbEntity
  8
0
100
AcDbLine
 62
7
  6
BYLAYER
 10
21.2921269853
 20
10.3615596251
 11
21.2921269853
 21
8.2261215536
  0
LINE
  5
261
100
AcDbEntity
  8
0
100
AcDbLine
 62
7
  6
BYLAYER
 10
21.2921269853
 20
15.2261215343
 11
21.2921269853
 21
17.3615595446
  0
LINE
  5
262
100
AcDbEntity
  8
0
100
AcDbLine
 62
7
  6
BYLAYER
 10
21.9849473083
 20
10.3359506449
 11
21.9849473083
 21
8.2517305145
  0
LINE
  5
263
100
AcDbEntity
  8
0
100
AcDbLine
 62
7
  6
BYLAYER
 10
21.9849473083
 20
15.2517305145
 11
21.9849473083
 21
17.3359506508
  0
LINE
  5
264
100
AcDbEntity
  8
0
100
AcDbLine
 62
7
  6
BYLAYER
 10
22.6320575445
 20
5.1938405797
 11
22.6320575445
 21
4.9938405797
  0
LINE
  5
265
100
AcDbEntity
  8
0
100
AcDbLine
 62
7
  6
BYLAYER
 10
23.6949881681
 20
45.2938405797
 11
23.6949881681
 21
55.2938405797
  0
LINE
  5
266
100
AcDbEntity
  8
0
100
AcDbLine
 62
7
  6
BYLAYER
 10
23.2898707331
 20
45.1043077709
 11
23.2049211617
 21
43.4833733885
  0
LINE
  5
267
100
AcDbEntity
  8
0
100
AcDbLine
 62
7
  6
BYLAYER
 10
25.6949881681
 20
55.2938405797
 11
25.6949881681
 21
45.2938405797
  0
LINE
  5
268
100
AcDbEntity
  8
0
100
AcDbLine
 62
7
  6
BYLAYER
 10
12.7251396872
 20
32.2938405797
 11
30.7251396872
 21
32.2938405797
  0
LINE
  5
269
100
AcDbEntity
  8
0
100
AcDbLine
 62
7
  6
BYLAYER
 10
29.7251396872
 20
33.2938405797
 11
13.7251396872
 21
33.2938405797
  0
LINE
  5
26A
100
AcDbEntity
  8
0
100
AcDbLine
 62
7
  6
BYLAYER
 10
26.1850551745
 20
43.4833733885
 11
26.1001056032
 21
45.1043077709
  0
LINE
  5
26B
100
AcDbEntity
  8
0
100
AcDbLine
 62
7
  6
BYLAYER
 10
32.4765498487
 20
10.9938405797
 11
32.5301396872
 21
10.7938405797
  0
LINE
  5
26C
100
AcDbEntity
  8
0
100
AcDbLine
 62
7
  6
BYLAYER
 10
28.4751396872
 20
40.0938405797
 11
28.4751396872
 21
40.5938405797
  0
LINE
  5
26D
100
AcDbEntity
  8
0
100
AcDbLine
 62
7
  6
BYLAYER
 10
13.7252618675
 20
36.1938405797
 11
29.7250175068
 21
36.1938405797
  0
LINE
  5
26E
100
AcDbEntity
  8
0
100
AcDbLine
 62
7
  6
BYLAYER
 10
29.7249876622
 20
36.2938405797
 11
13.7251396872
 21
36.2938405797
  0
LINE
  5
26F
100
AcDbEntity
  8
0
100
AcDbLine
 62
7
  6
BYLAYER
 10
29.6751396872
 20
36.1938405797
 11
29.6751396872
 21
36.2938405797
  0
LINE
  5
270
100
AcDbEntity
  8
0
100
AcDbLine
 62
7
  6
BYLAYER
 10
29.7251396872
 20
33.2938405797
 11
29.7251396872
 21
36.1938405797
  0
LINE
  5
271
100
AcDbEntity
  8
0
100
AcDbLine
 62
7
  6
BYLAYER
 10
29.7251396872
 20
36.2938405797
 11
29.7251396872
 21
39.8938405797
  0
LINE
  5
272
100
AcDbEntity
  8
0
100
AcDbLine
 62
7
  6
BYLAYER
 10
29.9751396872
 20
4.9938405797
 11
29.9751396872
 21
5.1938405797
  0
LINE
  5
273
100
AcDbEntity
  8
0
100
AcDbLine
 62
7
  6
BYLAYER
 10
30.7251396872
 20
5.3938405797
 11
30.7251396872
 21
7.7938405797
  0
LINE
  5
274
100
AcDbEntity
  8
0
100
AcDbLine
 62
7
  6
BYLAYER
 10
30.7251396872
 20
11.4087003424
 11
30.7251396872
 21
14.1789761869
  0
LINE
  5
275
100
AcDbEntity
  8
0
100
AcDbLine
 62
7
  6
BYLAYER
 10
30.7251396872
 20
17.7938405797
 11
30.7251396872
 21
32.2938405797
  0
LINE
  5
276
100
AcDbEntity
  8
0
100
AcDbLine
 62
7
  6
BYLAYER
 10
29.7251396872
 20
33.2938405797
 11
30.7251396872
 21
32.2938405797
  0
LINE
  5
277
100
AcDbEntity
  8
0
100
AcDbLine
 62
7
  6
BYLAYER
 10
28.0281984636
 20
43.1285702152
 11
28.4751396872
 21
40.5938405797
  0
LINE
  5
278
100
AcDbEntity
  8
0
100
AcDbLine
 62
7
  6
BYLAYER
 10
21.2251396872
 20
14.0938405797
 11
21.7251396872
 21
14.5938405797
  0
LINE
  5
279
100
AcDbEntity
  8
0
100
AcDbLine
 62
7
  6
BYLAYER
 10
13.7251396872
 20
39.8938405797
 11
29.7251396872
 21
39.8938405797
  0
LINE
  5
27A
100
AcDbEntity
  8
0
100
AcDbLine
 62
7
  6
BYLAYER
 10
13.9252592673
 20
40.0938405797
 11
29.525020107
 21
40.0938405797
  0
LINE
  5
27B
100
AcDbEntity
  8
0
100
AcDbLine
 62
7
  6
BYLAYER
 10
14.9751396872
 20
40.5938405797
 11
28.4751396872
 21
40.5938405797
  0
LINE
  5
27C
100
AcDbEntity
  8
0
100
AcDbLine
 62
7
  6
BYLAYER
 10
33.4653320661
 20
10.3359506451
 11
33.4653320661
 21
8.2517305084
  0
LINE
  5
27D
100
AcDbEntity
  8
0
100
AcDbLine
 62
7
  6
BYLAYER
 10
33.4653320661
 20
15.2517305143
 11
33.4653320661
 21
17.3359506451
  0
LINE
  5
27E
100
AcDbEntity
  8
0
100
AcDbLine
 62
7
  6
BYLAYER
 10
33.7251396872
 20
7.7938405777
 11
33.7251396872
 21
10.793840581
  0
LINE
  5
27F
100
AcDbEntity
  8
0
100
AcDbLine
 62
7
  6
BYLAYER
 10
33.7251396872
 20
14.7938405784
 11
33.7251396872
 21
17.7938405818
  0
LINE
  5
280
100
AcDbEntity
  8
0
100
AcDbLine
 62
7
  6
BYLAYER
 10
15.4220809107
 20
43.1285702152
 11
28.0281984636
 21
43.1285702152
  0
LINE
  5
281
100
AcDbEntity
  8
0
100
AcDbLine
 62
7
  6
BYLAYER
 10
15.6190424613
 20
43.2938405797
 11
27.8302473
 21
43.2938405797
  0
LINE
  5
282
100
AcDbEntity
  8
0
100
AcDbLine
 62
7
  6
BYLAYER
 10
32.4765498487
 20
14.5938405797
 11
32.5301396872
 21
14.7938405797
  0
LINE
  5
283
100
AcDbEntity
  8
0
100
AcDbLine
 62
7
  6
BYLAYER
 10
22.2251396872
 20
11.4938405797
 11
21.7251396872
 21
10.9938405797
  0
LINE
  5
284
100
AcDbEntity
  8
0
100
AcDbLine
 62
7
  6
BYLAYER
 10
26.1850551745
 20
43.4833733885
 11
23.2049211617
 21
43.4833733885
  0
LINE
  5
285
100
AcDbEntity
  8
0
100
AcDbLine
 62
7
  6
BYLAYER
 10
23.2898707331
 20
45.1043077709
 11
26.1001056032
 21
45.1043077709
  0
LINE
  5
286
100
AcDbEntity
  8
0
100
AcDbLine
 62
7
  6
BYLAYER
 10
23.48959664
 20
45.2938405797
 11
25.9003796796
 21
45.2938405797
  0
LINE
  5
287
100
AcDbEntity
  8
0
100
AcDbLine
 62
7
  6
BYLAYER
 10
30.5251396872
 20
5.1938405797
 11
30.7251396872
 21
5.3938405797
  0
LINE
  5
288
100
AcDbEntity
  8
0
100
AcDbLine
 62
7
  6
BYLAYER
 10
23.6949881681
 20
55.2938405797
 11
25.6949881681
 21
55.2938405797
  0
ARC
  5
289
100
AcDbEntity
  8
0
100
AcDbCircle
 62
7
  6
BYLAYER
 10
19.7548288437
 20
66.2004006653
 40
50.9974550198
100
AcDbArc
 50
271.7274203305
 51
272.5063434165
  0
ARC
  5
28A
100
AcDbEntity
  8
0
100
AcDbCircle
 62
7
  6
BYLAYER
 10
19.7548288437
 20
-40.6127195059
 40
50.9974550198
100
AcDbArc
 50
87.4936565835
 51
88.2725796695
  0
ARC
  5
28B
100
AcDbEntity
  8
0
100
AcDbCircle
 62
7
  6
BYLAYER
 10
19.7548328489
 20
-33.6126612306
 40
50.9973966311
100
AcDbArc
 50
87.4936582162
 51
88.272582193
  0
ARC
  5
28C
100
AcDbEntity
  8
0
100
AcDbCircle
 62
7
  6
BYLAYER
 10
19.7548328664
 20
59.2003419166
 40
50.9973961573
100
AcDbArc
 50
271.7274178033
 51
272.5063417874
  0
ARC
  5
28D
100
AcDbEntity
  8
0
100
AcDbCircle
 62
7
  6
BYLAYER
 10
11.123687048
 20
-9.6379243835
 40
20.0227774735
100
AcDbArc
 50
92.7639783516
 51
94.0052465635
  0
ARC
  5
28E
100
AcDbEntity
  8
0
100
AcDbCircle
 62
7
  6
BYLAYER
 10
11.122248471
 20
35.2012811861
 40
19.9984120453
100
AcDbArc
 50
265.9939972448
 51
267.2367778376
  0
ARC
  5
28F
100
AcDbEntity
  8
0
100
AcDbCircle
 62
7
  6
BYLAYER
 10
11.1205985469
 20
-2.5857182962
 40
19.9704831758
100
AcDbArc
 50
92.7623503676
 51
94.0068690631
  0
ARC
  5
290
100
AcDbEntity
  8
0
100
AcDbCircle
 62
7
  6
BYLAYER
 10
11.1189728204
 20
28.145910653
 40
19.9429479674
100
AcDbArc
 50
265.9922717515
 51
267.2385088204
  0
ARC
  5
291
100
AcDbEntity
  8
0
100
AcDbCircle
 62
7
  6
BYLAYER
 10
34.3092353841
 20
3.1051041319
 40
7.2799254191
100
AcDbArc
 50
94.6020016633
 51
96.6568058863
  0
ARC
  5
292
100
AcDbEntity
  8
0
100
AcDbCircle
 62
7
  6
BYLAYER
 10
34.3083605958
 20
22.4737021401
 40
7.2710089579
100
AcDbArc
 50
263.3419340676
 51
265.3992583741
  0
ARC
  5
293
100
AcDbEntity
  8
0
100
AcDbCircle
 62
7
  6
BYLAYER
 10
34.3065569747
 20
10.1321562452
 40
7.2527452174
100
AcDbArc
 50
94.5980576656
 51
96.6605629185
  0
ARC
  5
294
100
AcDbEntity
  8
0
100
AcDbCircle
 62
7
  6
BYLAYER
 10
34.3055748828
 20
15.4455612554
 40
7.2427348984
100
AcDbArc
 50
263.338011616
 51
265.4033678043
  0
ARC
  5
295
100
AcDbEntity
  8
0
100
AcDbCircle
 62
7
  6
BYLAYER
 10
13.6751396872
 20
4.9938405797
 40
0.2
100
AcDbArc
 50
180.0
 51
270.0
  0
ARC
  5
296
100
AcDbEntity
  8
0
100
AcDbCircle
 62
7
  6
BYLAYER
 10
29.7751396872
 20
4.9938405797
 40
0.2
100
AcDbArc
 50
270.0
 51
360.0
  0
ARC
  5
297
100
AcDbEntity
  8
0
100
AcDbCircle
 62
7
  6
BYLAYER
 10
23.48959664
 20
45.0938405797
 40
0.2
100
AcDbArc
 50
90.0
 51
177.0
  0
ARC
  5
298
100
AcDbEntity
  8
0
100
AcDbCircle
 62
7
  6
BYLAYER
 10
25.9003796962
 20
45.0938405797
 40
0.2
100
AcDbArc
 50
3.0
 51
90.0
  0
ARC
  5
299
100
AcDbEntity
  8
0
100
AcDbCircle
 62
7
  6
BYLAYER
 10
26.3847810815
 20
43.4938405797
 40
0.2
100
AcDbArc
 50
183.0
 51
270.0
  0
ARC
  5
29A
100
AcDbEntity
  8
0
100
AcDbCircle
 62
7
  6
BYLAYER
 10
23.0051952548
 20
43.4938405797
 40
0.2
100
AcDbArc
 50
270.0
 51
357.0
  0
ARC
  5
29B
100
AcDbEntity
  8
0
100
AcDbCircle
 62
7
  6
BYLAYER
 10
15.6190424613
 20
43.0938405797
 40
0.2
100
AcDbArc
 50
90.0
 51
170.0
  0
ARC
  5
29C
100
AcDbEntity
  8
0
100
AcDbCircle
 62
7
  6
BYLAYER
 10
27.831236913
 20
43.0938405797
 40
0.2
100
AcDbArc
 50
10.0
 51
90.0
  0
ARC
  5
29D
100
AcDbEntity
  8
0
100
AcDbCircle
 62
7
  6
BYLAYER
 10
29.5251396872
 20
39.8938405797
 40
0.2
100
AcDbArc
 50
0.0
 51
90.0
  0
ARC
  5
29E
100
AcDbEntity
  8
0
100
AcDbCircle
 62
7
  6
BYLAYER
 10
13.9251396872
 20
39.8938405797
 40
0.2
100
AcDbArc
 50
90.0
 51
180.0
  0
SPLINE
  5
29F
100
AcDbEntity
  8
0
100
AcDbSpline
 62
7
  6
BYLAYER
 70
0
 71
3
 72
11
 73
7
 74
0
 42
0.0000001
 43
0.0000001
 44
0.0000000001
 40
0.0
 40
0.0
 40
0.0
 40
0.0
 40
0.2497738006
 40
0.4996501564
 40
0.7497093704
 40
1.0
 40
1.0
 40
1.0
 40
1.0
 10
15.7251396712
 20
14.7938416357
 30
0.0
 10
15.2598577317
 20
14.7938415883
 30
0.0
 10
14.3289908644
 20
14.8132764763
 30
0.0
 10
12.9347178707
 20
14.8990488798
 30
0.0
 10
11.5437007121
 20
15.0367131379
 30
0.0
 10
10.6194993547
 20
15.1587190613
 30
0.0
 10
10.1581523891
 20
15.2261215352
 30
0.0
  0
SPLINE
  5
2A0
100
AcDbEntity
  8
0
100
AcDbSpline
 62
7
  6
BYLAYER
 70
0
 71
3
 72
11
 73
7
 74
0
 42
0.0000001
 43
0.0000001
 44
0.0000000001
 40
0.0
 40
0.0
 40
0.0
 40
0.0
 40
0.2502906423
 40
0.5003498602
 40
0.7502261965
 40
1.0
 40
1.0
 40
1.0
 40
1.0
 10
10.1581523891
 20
17.361559544
 30
0.0
 10
10.6194993786
 20
17.4289620156
 30
0.0
 10
11.5437004869
 20
17.5509695596
 30
0.0
 10
12.9347174328
 20
17.6886376928
 30
0.0
 10
14.3289910202
 20
17.7743985587
 30
0.0
 10
15.2598576497
 20
17.7938402333
 30
0.0
 10
15.7251395946
 20
17.7938395253
 30
0.0
  0
SPLINE
  5
2A1
100
AcDbEntity
  8
0
100
AcDbSpline
 62
7
  6
BYLAYER
 70
0
 71
3
 72
11
 73
7
 74
0
 42
0.0000001
 43
0.0000001
 44
0.0000000001
 40
0.0
 40
0.0
 40
0.0
 40
0.0
 40
0.2497738053
 40
0.4996501424
 40
0.7497093592
 40
1.0
 40
1.0
 40
1.0
 40
1.0
 10
15.7251395946
 20
17.7938395253
 30
0.0
 10
16.1904215582
 20
17.7938402358
 30
0.0
 10
17.1212882232
 20
17.774398556
 30
0.0
 10
18.5155618605
 20
17.6886377047
 30
0.0
 10
19.9065788488
 20
17.5509695629
 30
0.0
 10
20.8307799831
 20
17.4289620181
 30
0.0
 10
21.2921269853
 20
17.3615595446
 30
0.0
  0
SPLINE
  5
2A2
100
AcDbEntity
  8
0
100
AcDbSpline
 62
7
  6
BYLAYER
 70
0
 71
3
 72
11
 73
7
 74
0
 42
0.0000001
 43
0.0000001
 44
0.0000000001
 40
0.0
 40
0.0
 40
0.0
 40
0.0
 40
0.2503070893
 40
0.500371016
 40
0.7502402896
 40
1.0
 40
1.0
 40
1.0
 40
1.0
 10
21.9849473083
 20
17.3359506449
 30
0.0
 10
22.4605371059
 20
17.4070963263
 30
0.0
 10
23.4133114029
 20
17.5360912673
 30
0.0
 10
24.8475449433
 20
17.6820377559
 30
0.0
 10
26.2853161582
 20
17.7731570074
 30
0.0
 10
27.2453094176
 20
17.7938396178
 30
0.0
 10
27.7251396713
 20
17.7938395237
 30
0.0
  0
SPLINE
  5
2A3
100
AcDbEntity
  8
0
100
AcDbSpline
 62
7
  6
BYLAYER
 70
0
 71
3
 72
11
 73
7
 74
0
 42
0.0000001
 43
0.0000001
 44
0.0000000001
 40
0.0
 40
0.0
 40
0.0
 40
0.0
 40
0.2502906311
 40
0.5003498463
 40
0.7502262012
 40
1.0
 40
1.0
 40
1.0
 40
1.0
 10
21.2921269853
 20
15.2261215343
 30
0.0
 10
20.8307800143
 20
15.1587190596
 30
0.0
 10
19.9065786477
 20
15.0367131275
 30
0.0
 10
18.5155614766
 20
14.8990488797
 30
0.0
 10
17.1212884777
 20
14.8132764785
 30
0.0
 10
16.1904216101
 20
14.7938415879
 30
0.0
 10
15.7251396712
 20
14.7938416357
 30
0.0
  0
SPLINE
  5
2A4
100
AcDbEntity
  8
0
100
AcDbSpline
 62
7
  6
BYLAYER
 70
0
 71
3
 72
11
 73
7
 74
0
 42
0.0000001
 43
0.0000001
 44
0.0000000001
 40
0.0
 40
0.0
 40
0.0
 40
0.0
 40
0.249761011
 40
0.4996305185
 40
0.7496940601
 40
1.0
 40
1.0
 40
1.0
 40
1.0
 10
27.7251396713
 20
14.7938416357
 30
0.0
 10
27.2453069705
 20
14.7938415763
 30
0.0
 10
26.2853112272
 20
14.8145340876
 30
0.0
 10
24.8475370001
 20
14.9056402553
 30
0.0
 10
23.4133084052
 20
15.0516085518
 30
0.0
 10
22.4605348708
 20
15.1805851659
 30
0.0
 10
21.9849473083
 20
15.2517305145
 30
0.0
  0
SPLINE
  5
2A5
100
AcDbEntity
  8
0
100
AcDbSpline
 62
7
  6
BYLAYER
 70
0
 71
3
 72
11
 73
7
 74
0
 42
0.0000001
 43
0.0000001
 44
0.0000000001
 40
0.0
 40
0.0
 40
0.0
 40
0.0
 40
0.2503070893
 40
0.500371016
 40
0.7502402896
 40
1.0
 40
1.0
 40
1.0
 40
1.0
 10
33.4653320661
 20
15.2517305143
 30
0.0
 10
32.9897422661
 20
15.180584831
 30
0.0
 10
32.0369679634
 20
15.0515898919
 30
0.0
 10
30.6027344152
 20
14.9056434019
 30
0.0
 10
29.1649631923
 20
14.814524151
 30
0.0
 10
28.2049699276
 20
14.7938415412
 30
0.0
 10
27.7251396713
 20
14.7938416357
 30
0.0
  0
SPLINE
  5
2A6
100
AcDbEntity
  8
0
100
AcDbSpline
 62
7
  6
BYLAYER
 70
0
 71
3
 72
11
 73
7
 74
0
 42
0.0000001
 43
0.0000001
 44
0.0000000001
 40
0.0
 40
0.0
 40
0.0
 40
0.0
 40
0.249761011
 40
0.4996305185
 40
0.74969406
 40
1.0
 40
1.0
 40
1.0
 40
1.0
 10
27.7251396713
 20
17.7938395237
 30
0.0
 10
28.2049723747
 20
17.7938395835
 30
0.0
 10
29.1649681233
 20
17.7731470719
 30
0.0
 10
30.6027423583
 20
17.6820409053
 30
0.0
 10
32.0369709617
 20
17.5360726122
 30
0.0
 10
32.9897445007
 20
17.4070959925
 30
0.0
 10
33.4653320661
 20
17.3359506451
 30
0.0
  0
SPLINE
  5
2A7
100
AcDbEntity
  8
0
100
AcDbSpline
 62
7
  6
BYLAYER
 70
0
 71
3
 72
11
 73
7
 74
0
 42
0.0000001
 43
0.0000001
 44
0.0000000001
 40
0.0
 40
0.0
 40
0.0
 40
0.0
 40
0.2503070893
 40
0.500371016
 40
0.7502402896
 40
1.0
 40
1.0
 40
1.0
 40
1.0
 10
21.9849473083
 20
10.3359506449
 30
0.0
 10
22.4605371057
 20
10.4070963278
 30
0.0
 10
23.413311403
 20
10.5360912666
 30
0.0
 10
24.8475449433
 20
10.6820377561
 30
0.0
 10
26.2853161582
 20
10.7731570073
 30
0.0
 10
27.2453094176
 20
10.7938396178
 30
0.0
 10
27.7251396713
 20
10.7938395237
 30
0.0
  0
SPLINE
  5
2A8
100
AcDbEntity
  8
0
100
AcDbSpline
 62
7
  6
BYLAYER
 70
0
 71
3
 72
11
 73
7
 74
0
 42
0.0000001
 43
0.0000001
 44
0.0000000001
 40
0.0
 40
0.0
 40
0.0
 40
0.0
 40
0.2502906311
 40
0.5003498462
 40
0.7502262012
 40
1.0
 40
1.0
 40
1.0
 40
1.0
 10
10.1581523891
 20
10.3615596242
 30
0.0
 10
10.6194993574
 20
10.4289620985
 30
0.0
 10
11.5437007188
 20
10.5509680295
 30
0.0
 10
12.9347178819
 20
10.6886322772
 30
0.0
 10
14.3289908726
 20
10.7744046819
 30
0.0
 10
15.259857735
 20
10.7938395711
 30
0.0
 10
15.7251396712
 20
10.7938395237
 30
0.0
  0
SPLINE
  5
2A9
100
AcDbEntity
  8
0
100
AcDbSpline
 62
7
  6
BYLAYER
 70
0
 71
3
 72
11
 73
7
 74
0
 42
0.0000001
 43
0.0000001
 44
0.0000000001
 40
0.0
 40
0.0
 40
0.0
 40
0.0
 40
0.2497738006
 40
0.4996501564
 40
0.7497093704
 40
1.0
 40
1.0
 40
1.0
 40
1.0
 10
15.7251396712
 20
10.7938395237
 30
0.0
 10
16.1904216135
 20
10.7938395715
 30
0.0
 10
17.1212884859
 20
10.7744046822
 30
0.0
 10
18.5155614877
 20
10.6886322821
 30
0.0
 10
19.9065786544
 20
10.5509680239
 30
0.0
 10
20.830780017
 20
10.4289620994
 30
0.0
 10
21.2921269853
 20
10.3615596251
 30
0.0
  0
SPLINE
  5
2AA
100
AcDbEntity
  8
0
100
AcDbSpline
 62
7
  6
BYLAYER
 70
0
 71
3
 72
11
 73
7
 74
0
 42
0.0000001
 43
0.0000001
 44
0.0000000001
 40
0.0
 40
0.0
 40
0.0
 40
0.0
 40
0.249761011
 40
0.4996305185
 40
0.7496940601
 40
1.0
 40
1.0
 40
1.0
 40
1.0
 10
27.7251396713
 20
7.7938416357
 30
0.0
 10
27.2453069705
 20
7.7938415763
 30
0.0
 10
26.2853112271
 20
7.8145340875
 30
0.0
 10
24.8475370001
 20
7.9056402556
 30
0.0
 10
23.413308405
 20
8.0516085507
 30
0.0
 10
22.460534871
 20
8.1805851675
 30
0.0
 10
21.9849473083
 20
8.2517305145
 30
0.0
  0
SPLINE
  5
2AB
100
AcDbEntity
  8
0
100
AcDbSpline
 62
7
  6
BYLAYER
 70
0
 71
3
 72
11
 73
7
 74
0
 42
0.0000001
 43
0.0000001
 44
0.0000000001
 40
0.0
 40
0.0
 40
0.0
 40
0.0
 40
0.2502906423
 40
0.5003498602
 40
0.7502261965
 40
1.0
 40
1.0
 40
1.0
 40
1.0
 10
21.2921269853
 20
8.2261216148
 30
0.0
 10
20.8307799804
 20
8.158719141
 30
0.0
 10
19.9065788422
 20
8.0367115882
 30
0.0
 10
18.5155618493
 20
7.8990434575
 30
0.0
 10
17.121288215
 20
7.8132826048
 30
0.0
 10
16.1904215549
 20
7.7938409235
 30
0.0
 10
15.7251395946
 20
7.7938416341
 30
0.0
  0
SPLINE
  5
2AC
100
AcDbEntity
  8
0
100
AcDbSpline
 62
7
  6
BYLAYER
 70
0
 71
3
 72
11
 73
7
 74
0
 42
0.0000001
 43
0.0000001
 44
0.0000000001
 40
0.0
 40
0.0
 40
0.0
 40
0.0
 40
0.249761011
 40
0.4996305185
 40
0.74969406
 40
1.0
 40
1.0
 40
1.0
 40
1.0
 10
27.7251396713
 20
10.7938395237
 30
0.0
 10
28.2049723747
 20
10.7938395836
 30
0.0
 10
29.1649681233
 20
10.7731470718
 30
0.0
 10
30.6027423584
 20
10.6820409056
 30
0.0
 10
32.0369709616
 20
10.5360726111
 30
0.0
 10
32.9897445009
 20
10.4070959941
 30
0.0
 10
33.4653320661
 20
10.3359506451
 30
0.0
  0
SPLINE
  5
2AD
100
AcDbEntity
  8
0
100
AcDbSpline
 62
7
  6
BYLAYER
 70
0
 71
3
 72
11
 73
7
 74
0
 42
0.0000001
 43
0.0000001
 44
0.0000000001
 40
0.0
 40
0.0
 40
0.0
 40
0.0
 40
0.2503070893
 40
0.500371016
 40
0.7502402896
 40
1.0
 40
1.0
 40
1.0
 40
1.0
 10
33.4653320661
 20
8.2517305143
 30
0.0
 10
32.9897422659
 20
8.1805848325
 30
0.0
 10
32.0369679635
 20
8.0515898912
 30
0.0
 10
30.6027344151
 20
7.9056434021
 30
0.0
 10
29.1649631923
 20
7.8145241509
 30
0.0
 10
28.2049699276
 20
7.7938415412
 30
0.0
 10
27.7251396713
 20
7.7938416357
 30
0.0
  0
SPLINE
  5
2AE
100
AcDbEntity
  8
0
100
AcDbSpline
 62
7
  6
BYLAYER
 70
0
 71
3
 72
11
 73
7
 74
0
 42
0.0000001
 43
0.0000001
 44
0.0000000001
 40
0.0
 40
0.0
 40
0.0
 40
0.0
 40
0.2497738053
 40
0.4996501424
 40
0.7497093592
 40
1.0
 40
1.0
 40
1.0
 40
1.0
 10
15.7251395946
 20
7.7938416341
 30
0.0
 10
15.2598576464
 20
7.7938409262
 30
0.0
 10
14.328991012
 20
7.8132825994
 30
0.0
 10
12.9347174216
 20
7.8990434638
 30
0.0
 10
11.5437004802
 20
8.0367116081
 30
0.0
 10
10.6194993759
 20
8.1587191442
 30
0.0
 10
10.1581523891
 20
8.2261216154
 30
0.0
  0
SPLINE
  5
2AF
100
AcDbEntity
  8
0
100
AcDbSpline
 62
7
  6
BYLAYER
 70
0
 71
3
 72
45
 73
41
 74
0
 42
0.0000001
 43
0.0000001
 44
0.0000000001
 40
0.0
 40
0.0
 40
0.0
 40
0.0
 40
0.0078203778
 40
0.0156510645
 40
0.0234682528
 40
0.0312835034
 40
0.0390967836
 40
0.046909626
 40
0.0547228749
 40
0.0625352919
 40
0.0937788046
 40
0.1250248258
 40
0.1562718187
 40
0.1875194719
 40
0.2187673276
 40
0.2500152641
 40
0.312509981
 40
0.3750052191
 40
0.4375008119
 40
0.499996469
 40
0.5624921235
 40
0.6249876715
 40
0.6874829815
 40
0.749977728
 40
0.8124710813
 40
0.8437187014
 40
0.8749659298
 40
0.8905900104
 40
0.9062140463
 40
0.921838007
 40
0.9374616981
 40
0.945274178
 40
0.9530863577
 40
0.9608999312
 40
0.9687153215
 40
0.9765265511
 40
0.9804364343
 40
0.9843518203
 40
0.9921794233
 40
1.0
 40
1.0
 40
1.0
 40
1.0
 10
20.8182218298
 20
4.9938405797
 30
0.0
 10
20.8182218298
 20
4.9889616586
 30
0.0
 10
20.8218911254
 20
4.9792357657
 30
0.0
 10
20.8321131828
 20
4.9685883097
 30
0.0
 10
20.8441452962
 20
4.9601606472
 30
0.0
 10
20.8568973625
 20
4.9529743411
 30
0.0
 10
20.8701198366
 20
4.9466992067
 30
0.0
 10
20.8836977598
 20
4.9412510094
 30
0.0
 10
20.8975141298
 20
4.9364499867
 30
0.0
 10
20.9254556286
 20
4.9278212147
 30
0.0
 10
20.9680140851
 20
4.9170559087
 30
0.0
 10
21.0254106615
 20
4.9057677756
 30
0.0
 10
21.0832155669
 20
4.8968088847
 30
0.0
 10
21.1412515817
 20
4.8895496853
 30
0.0
 10
21.1994141856
 20
4.8833975493
 30
0.0
 10
21.2770937748
 20
4.8765454065
 30
0.0
 10
21.3743634098
 20
4.8700720454
 30
0.0
 10
21.4912301375
 20
4.8650369679
 30
0.0
 10
21.6081691117
 20
4.862197139
 30
0.0
 10
21.7251380207
 20
4.8612422444
 30
0.0
 10
21.8421076163
 20
4.8621703149
 30
0.0
 10
21.9590450312
 20
4.8650741959
 30
0.0
 10
22.0759109771
 20
4.8701368381
 30
0.0
 10
22.1926335541
 20
4.877833961
 30
0.0
 10
22.289692063
 20
4.887047527
 30
0.0
 10
22.3670498754
 20
4.8969024731
 30
0.0
 10
22.4152194036
 20
4.9043773921
 30
0.0
 10
22.4535630944
 20
4.9114571735
 30
0.0
 10
22.4821965369
 20
4.9174057774
 30
0.0
 10
22.510667812
 20
4.9240951388
 30
0.0
 10
22.5341518312
 20
4.9306415964
 30
0.0
 10
22.5527056718
 20
4.9366320094
 30
0.0
 10
22.5665040497
 20
4.9414779295
 30
0.0
 10
22.5801243415
 20
4.9468142845
 30
0.0
 10
22.5934551768
 20
4.952850891
 30
0.0
 10
22.6040923112
 20
4.9588528335
 30
0.0
 10
22.6121368592
 20
4.9643803089
 30
0.0
 10
22.6198551041
 20
4.9703714708
 30
0.0
 10
22.628397462
 20
4.9792323926
 30
0.0
 10
22.6320575445
 20
4.9889615345
 30
0.0
 10
22.6320575445
 20
4.9938405797
 30
0.0
  0
ELLIPSE
  5
2B0
100
AcDbEntity
  8
0
100
AcDbEllipse
 62
7
  6
BYLAYER
 10
20.6101857793
 20
10.2859894809
 30
0.0
 11
8.0474192635
 21
10.195190748
 31
0.0
 40
0.7470541823
 41
1.7683736368
 42
1.7760389382
  0
ELLIPSE
  5
2B1
100
AcDbEntity
  8
0
100
AcDbEllipse
 62
7
  6
BYLAYER
 10
20.0765964425
 20
10.2859894809
 30
0.0
 11
8.919591999
 21
10.3341729894
 31
0.0
 40
0.6468548444
 41
-4.5458363816
 42
-4.5307384971
  0
ELLIPSE
  5
2B2
100
AcDbEntity
  8
0
100
AcDbEllipse
 62
7
  6
BYLAYER
 10
19.5712141377
 20
10.2859894809
 30
0.0
 11
9.5757833526
 21
10.5743403885
 31
0.0
 40
0.5552272381
 41
-4.5945931523
 42
-4.5740581448
  0
ELLIPSE
  5
2B3
100
AcDbEntity
  8
0
100
AcDbEllipse
 62
7
  6
BYLAYER
 10
19.1026860963
 20
10.2859894809
 30
0.0
 11
10.1170563979
 21
10.8336078883
 31
0.0
 40
0.4711119558
 41
-4.6502799792
 42
-4.6254734639
  0
ELLIPSE
  5
2B4
100
AcDbEntity
  8
0
100
AcDbEllipse
 62
7
  6
BYLAYER
 10
18.6790289628
 20
10.2859894809
 30
0.0
 11
10.57430594
 21
11.0811640271
 31
0.0
 40
0.3932536107
 41
-4.7092964719
 42
-4.6809361813
  0
ELLIPSE
  5
2B5
100
AcDbEntity
  8
0
100
AcDbEllipse
 62
7
  6
BYLAYER
 10
18.3074916284
 20
10.2859894809
 30
0.0
 11
10.9583479679
 21
11.3026503924
 31
0.0
 40
0.32049021
 41
1.5130493452
 42
1.5445144439
  0
ELLIPSE
  5
2B6
100
AcDbEntity
  8
0
100
AcDbEllipse
 62
7
  6
BYLAYER
 10
17.9944311998
 20
10.2859894809
 30
0.0
 11
11.272755276
 21
11.4903624333
 31
0.0
 40
0.2517837063
 41
1.4511217496
 42
1.48541291
  0
ELLIPSE
  5
2B7
100
AcDbEntity
  8
0
100
AcDbEllipse
 62
7
  6
BYLAYER
 10
17.7452042278
 20
10.2859894809
 30
0.0
 11
11.5182116851
 21
11.6397811956
 31
0.0
 40
0.1862029912
 41
1.3888451401
 42
1.4254597263
  0
ELLIPSE
  5
2B8
100
AcDbEntity
  8
0
100
AcDbEllipse
 62
7
  6
BYLAYER
 10
17.564075055
 20
10.2859894809
 30
0.0
 11
11.6942962282
 21
11.7481381864
 31
0.0
 40
0.1228992729
 41
1.3256576735
 42
1.3649764266
  0
ELLIPSE
  5
2B9
100
AcDbEntity
  8
0
100
AcDbEllipse
 62
7
  6
BYLAYER
 10
17.4541428516
 20
10.2859894809
 30
0.0
 11
11.8003161272
 21
11.8137551981
 31
0.0
 40
0.0610824685
 41
1.2620631662
 42
1.3041827215
  0
ELLIPSE
  5
2BA
100
AcDbEntity
  8
0
100
AcDbEllipse
 62
7
  6
BYLAYER
 10
21.7251396872
 20
17.6975053552
 30
0.0
 11
0.0
 21
11.5830346317
 31
0.0
 40
0.963433044
 41
-1.8871631723
 42
-1.8420600805
  0
ELLIPSE
  5
2BB
100
AcDbEntity
  8
0
100
AcDbEllipse
 62
7
  6
BYLAYER
 10
22.1302492322
 20
17.6975053552
 30
0.0
 11
7.3844602403
 21
9.6458827394
 31
0.0
 40
0.8684143762
 41
-1.3004404315
 42
-1.2553373397
  0
ELLIPSE
  5
2BC
100
AcDbEntity
  8
0
100
AcDbEllipse
 62
7
  6
BYLAYER
 10
22.5284272407
 20
17.6975053552
 30
0.0
 11
8.472058128
 21
9.6390686169
 31
0.0
 40
0.7581403628
 41
-1.2993786929
 42
-1.2542756011
  0
ELLIPSE
  5
2BD
100
AcDbEntity
  8
0
100
AcDbEllipse
 62
7
  6
BYLAYER
 10
22.9128607763
 20
17.6975053552
 30
0.0
 11
9.1398053983
 21
9.9008743148
 31
0.0
 40
0.657738698
 41
-1.3414816556
 42
-1.2963785638
  0
ELLIPSE
  5
2BE
100
AcDbEntity
  8
0
100
AcDbEllipse
 62
7
  6
BYLAYER
 10
23.2769720749
 20
17.6975053552
 30
0.0
 11
9.672197328
 21
10.207034137
 31
0.0
 40
0.5661264515
 41
-1.3947731368
 42
-1.349670045
  0
ELLIPSE
  5
2BF
100
AcDbEntity
  8
0
100
AcDbEllipse
 62
7
  6
BYLAYER
 10
23.614531091
 20
17.6975053552
 30
0.0
 11
10.1235279518
 21
10.5062434209
 31
0.0
 40
0.4817532195
 41
-1.4525600291
 42
-1.4074569373
  0
ELLIPSE
  5
2C0
100
AcDbEntity
  8
0
100
AcDbEllipse
 62
7
  6
BYLAYER
 10
23.9197620964
 20
17.6975053552
 30
0.0
 11
10.5096998268
 21
10.7798633581
 31
0.0
 40
0.4032531911
 41
-1.5125785545
 42
-1.4674754626
  0
ELLIPSE
  5
2C1
100
AcDbEntity
  8
0
100
AcDbEllipse
 62
7
  6
BYLAYER
 10
24.1874425039
 20
17.6975053552
 30
0.0
 11
10.8359096051
 21
11.0191384116
 31
0.0
 40
0.3294650235
 41
-1.5738481298
 42
-1.5287450379
  0
ELLIPSE
  5
2C2
100
AcDbEntity
  8
0
100
AcDbEllipse
 62
7
  6
BYLAYER
 10
24.4129922275
 20
17.6975053552
 30
0.0
 11
11.103573653
 21
11.2192358625
 31
0.0
 40
0.2593921815
 41
-1.6358717148
 42
-1.590768623
  0
ELLIPSE
  5
2C3
100
AcDbEntity
  8
0
100
AcDbEllipse
 62
7
  6
BYLAYER
 10
24.592552049
 20
17.6975053552
 30
0.0
 11
11.3126576757
 21
11.377213794
 31
0.0
 40
0.1921623568
 41
-1.6983667832
 42
-1.6532636914
  0
ELLIPSE
  5
2C4
100
AcDbEntity
  8
0
100
AcDbEllipse
 62
7
  6
BYLAYER
 10
24.7230496499
 20
17.6975053552
 30
0.0
 11
11.4626280056
 21
11.4912004934
 31
0.0
 40
0.1269935126
 41
-1.7611565844
 42
-1.7160534926
  0
ELLIPSE
  5
2C5
100
AcDbEntity
  8
0
100
AcDbEllipse
 62
7
  6
BYLAYER
 10
24.8022521802
 20
17.6975053552
 30
0.0
 11
11.5528949874
 21
11.5600239517
 31
0.0
 40
0.0631661312
 41
-1.82411965
 42
-1.7790165582
  0
ELLIPSE
  5
2C6
100
AcDbEntity
  8
0
100
AcDbEllipse
 62
7
  6
BYLAYER
 10
22.840093595
 20
10.2859894809
 30
0.0
 11
-8.0474192635
 21
10.195190748
 31
0.0
 40
0.7470541823
 41
-1.7760389382
 42
-1.7683736348
  0
ELLIPSE
  5
2C7
100
AcDbEntity
  8
0
100
AcDbEllipse
 62
7
  6
BYLAYER
 10
23.3736829318
 20
10.2859894809
 30
0.0
 11
-8.919591999
 21
10.3341729894
 31
0.0
 40
0.6468548444
 41
-1.75244681
 42
-1.7373489368
  0
ELLIPSE
  5
2C8
100
AcDbEntity
  8
0
100
AcDbEllipse
 62
7
  6
BYLAYER
 10
23.8790652366
 20
10.2859894809
 30
0.0
 11
-9.5757833526
 21
10.5743403885
 31
0.0
 40
0.5552272381
 41
-1.7091271624
 42
-1.688592157
  0
ELLIPSE
  5
2C9
100
AcDbEntity
  8
0
100
AcDbEllipse
 62
7
  6
BYLAYER
 10
21.7251396872
 20
17.6975053552
 30
0.0
 11
0.0
 21
11.5830346317
 31
0.0
 40
0.963433044
 41
-4.4411252267
 42
-4.3960221348
  0
ELLIPSE
  5
2CA
100
AcDbEntity
  8
0
100
AcDbEllipse
 62
7
  6
BYLAYER
 10
24.3475932781
 20
10.2859894809
 30
0.0
 11
-10.1170563979
 21
10.8336078883
 31
0.0
 40
0.4711119558
 41
-1.6577118433
 42
-1.6329053324
  0
ELLIPSE
  5
2CB
100
AcDbEntity
  8
0
100
AcDbEllipse
 62
7
  6
BYLAYER
 10
21.3200301421
 20
17.6975053552
 30
0.0
 11
-7.3844602403
 21
9.6458827394
 31
0.0
 40
0.8684143762
 41
1.2553373397
 42
1.3004404315
  0
ELLIPSE
  5
2CC
100
AcDbEntity
  8
0
100
AcDbEllipse
 62
7
  6
BYLAYER
 10
24.7712504115
 20
10.2859894809
 30
0.0
 11
-10.57430594
 21
11.0811640271
 31
0.0
 40
0.3932536107
 41
-1.6022491259
 42
-1.573888848
  0
ELLIPSE
  5
2CD
100
AcDbEntity
  8
0
100
AcDbEllipse
 62
7
  6
BYLAYER
 10
20.9218521337
 20
17.6975053552
 30
0.0
 11
-8.472058128
 21
9.6390686169
 31
0.0
 40
0.7581403628
 41
1.2542756011
 42
1.2993786929
  0
ELLIPSE
  5
2CE
100
AcDbEntity
  8
0
100
AcDbEllipse
 62
7
  6
BYLAYER
 10
25.1427877459
 20
10.2859894809
 30
0.0
 11
-10.9583479679
 21
11.3026503924
 31
0.0
 40
0.32049021
 41
-1.5445144439
 42
-1.5130492648
  0
ELLIPSE
  5
2CF
100
AcDbEntity
  8
0
100
AcDbEllipse
 62
7
  6
BYLAYER
 10
20.537418598
 20
17.6975053552
 30
0.0
 11
-9.1398053983
 21
9.9008743148
 31
0.0
 40
0.657738698
 41
1.2963785638
 42
1.3414816556
  0
ELLIPSE
  5
2D0
100
AcDbEntity
  8
0
100
AcDbEllipse
 62
7
  6
BYLAYER
 10
25.4558481745
 20
10.2859894809
 30
0.0
 11
-11.272755276
 21
11.4903624333
 31
0.0
 40
0.2517837063
 41
-1.48541291
 42
-1.4511216763
  0
ELLIPSE
  5
2D1
100
AcDbEntity
  8
0
100
AcDbEllipse
 62
7
  6
BYLAYER
 10
20.1733072994
 20
17.6975053552
 30
0.0
 11
-9.672197328
 21
10.207034137
 31
0.0
 40
0.5661264515
 41
1.349670045
 42
1.3947731368
  0
ELLIPSE
  5
2D2
100
AcDbEntity
  8
0
100
AcDbEllipse
 62
7
  6
BYLAYER
 10
25.7050751465
 20
10.2859894809
 30
0.0
 11
-11.5182116851
 21
11.6397811956
 31
0.0
 40
0.1862029912
 41
-1.4254597263
 42
-1.3888450666
  0
ELLIPSE
  5
2D3
100
AcDbEntity
  8
0
100
AcDbEllipse
 62
7
  6
BYLAYER
 10
19.8357482833
 20
17.6975053552
 30
0.0
 11
-10.1235279518
 21
10.5062434209
 31
0.0
 40
0.4817532195
 41
1.4074569373
 42
1.4525600291
  0
ELLIPSE
  5
2D4
100
AcDbEntity
  8
0
100
AcDbEllipse
 62
7
  6
BYLAYER
 10
25.8862043194
 20
10.2859894809
 30
0.0
 11
-11.6942962282
 21
11.7481381864
 31
0.0
 40
0.1228992729
 41
-1.3649764266
 42
-1.3256576209
  0
ELLIPSE
  5
2D5
100
AcDbEntity
  8
0
100
AcDbEllipse
 62
7
  6
BYLAYER
 10
19.5305172779
 20
17.6975053552
 30
0.0
 11
-10.5096998268
 21
10.7798633581
 31
0.0
 40
0.4032531911
 41
1.4674754626
 42
1.5125785545
  0
ELLIPSE
  5
2D6
100
AcDbEntity
  8
0
100
AcDbEllipse
 62
7
  6
BYLAYER
 10
25.9961365227
 20
10.2859894809
 30
0.0
 11
-11.8003161272
 21
11.8137551981
 31
0.0
 40
0.0610824685
 41
-1.3041827215
 42
-1.2620631378
  0
ELLIPSE
  5
2D7
100
AcDbEntity
  8
0
100
AcDbEllipse
 62
7
  6
BYLAYER
 10
19.2628368704
 20
17.6975053552
 30
0.0
 11
-10.8359096051
 21
11.0191384116
 31
0.0
 40
0.3294650235
 41
1.5287450379
 42
1.5738481298
  0
ELLIPSE
  5
2D8
100
AcDbEntity
  8
0
100
AcDbEllipse
 62
7
  6
BYLAYER
 10
19.0372871468
 20
17.6975053552
 30
0.0
 11
-11.103573653
 21
11.2192358625
 31
0.0
 40
0.2593921815
 41
-4.6924166842
 42
-4.6473135924
  0
ELLIPSE
  5
2D9
100
AcDbEntity
  8
0
100
AcDbEllipse
 62
7
  6
BYLAYER
 10
18.8577273253
 20
17.6975053552
 30
0.0
 11
-11.3126576757
 21
11.377213794
 31
0.0
 40
0.1921623568
 41
-4.6299216158
 42
-4.584818524
  0
ELLIPSE
  5
2DA
100
AcDbEntity
  8
0
100
AcDbEllipse
 62
7
  6
BYLAYER
 10
18.7272297244
 20
17.6975053552
 30
0.0
 11
-11.4626280056
 21
11.4912004934
 31
0.0
 40
0.1269935126
 41
-4.5671318146
 42
-4.5220287228
  0
ELLIPSE
  5
2DB
100
AcDbEntity
  8
0
100
AcDbEllipse
 62
7
  6
BYLAYER
 10
18.6480271941
 20
17.6975053552
 30
0.0
 11
-11.5528949874
 21
11.5600239517
 31
0.0
 40
0.0631661312
 41
-4.504168749
 42
-4.4590656572
  0
ELLIPSE
  5
2DC
100
AcDbEntity
  8
0
100
AcDbEllipse
 62
7
  6
BYLAYER
 10
20.537418598
 20
17.6975053552
 30
0.0
 11
-9.1398053983
 21
9.9008743148
 31
0.0
 40
0.657738698
 41
-2.432844689
 42
-2.3877415972
  0
ELLIPSE
  5
2DD
100
AcDbEntity
  8
0
100
AcDbEllipse
 62
7
  6
BYLAYER
 10
20.1733072994
 20
17.6975053552
 30
0.0
 11
-9.672197328
 21
10.207034137
 31
0.0
 40
0.5661264515
 41
-2.3795532079
 42
-2.3344501161
  0
ELLIPSE
  5
2DE
100
AcDbEntity
  8
0
100
AcDbEllipse
 62
7
  6
BYLAYER
 10
24.8022521802
 20
17.6975053552
 30
0.0
 11
11.5528949874
 21
11.5600239517
 31
0.0
 40
0.0631661312
 41
-4.3780817043
 42
-4.3329786125
  0
ELLIPSE
  5
2DF
100
AcDbEntity
  8
0
100
AcDbEllipse
 62
7
  6
BYLAYER
 10
24.7230496499
 20
17.6975053552
 30
0.0
 11
11.4626280056
 21
11.4912004934
 31
0.0
 40
0.1269935126
 41
-4.3151186387
 42
-4.2700155469
  0
ELLIPSE
  5
2E0
100
AcDbEntity
  8
0
100
AcDbEllipse
 62
7
  6
BYLAYER
 10
24.592552049
 20
17.6975053552
 30
0.0
 11
11.3126576757
 21
11.377213794
 31
0.0
 40
0.1921623568
 41
-4.2523288375
 42
-4.2072257457
  0
ELLIPSE
  5
2E1
100
AcDbEntity
  8
0
100
AcDbEllipse
 62
7
  6
BYLAYER
 10
19.8357482833
 20
17.6975053552
 30
0.0
 11
-10.1235279518
 21
10.5062434209
 31
0.0
 40
0.4817532195
 41
-2.3217663156
 42
-2.2766632237
  0
ELLIPSE
  5
2E2
100
AcDbEntity
  8
0
100
AcDbEllipse
 62
7
  6
BYLAYER
 10
24.4129922275
 20
17.6975053552
 30
0.0
 11
11.103573653
 21
11.2192358625
 31
0.0
 40
0.2593921815
 41
-4.1898337691
 42
-4.1447306773
  0
ELLIPSE
  5
2E3
100
AcDbEntity
  8
0
100
AcDbEllipse
 62
7
  6
BYLAYER
 10
24.1874425039
 20
17.6975053552
 30
0.0
 11
10.8359096051
 21
11.0191384116
 31
0.0
 40
0.3294650235
 41
-4.1278101841
 42
-4.0827070923
  0
ELLIPSE
  5
2E4
100
AcDbEntity
  8
0
100
AcDbEllipse
 62
7
  6
BYLAYER
 10
23.9197620964
 20
17.6975053552
 30
0.0
 11
10.5096998268
 21
10.7798633581
 31
0.0
 40
0.4032531911
 41
-4.0665406088
 42
-4.021437517
  0
ELLIPSE
  5
2E5
100
AcDbEntity
  8
0
100
AcDbEllipse
 62
7
  6
BYLAYER
 10
23.614531091
 20
17.6975053552
 30
0.0
 11
10.1235279518
 21
10.5062434209
 31
0.0
 40
0.4817532195
 41
-4.0065220834
 42
-3.9614189916
  0
ELLIPSE
  5
2E6
100
AcDbEntity
  8
0
100
AcDbEllipse
 62
7
  6
BYLAYER
 10
23.2769720749
 20
17.6975053552
 30
0.0
 11
9.672197328
 21
10.207034137
 31
0.0
 40
0.5661264515
 41
-3.9487351911
 42
-3.9036320993
  0
ELLIPSE
  5
2E7
100
AcDbEntity
  8
0
100
AcDbEllipse
 62
7
  6
BYLAYER
 10
22.9128607763
 20
17.6975053552
 30
0.0
 11
9.1398053983
 21
9.9008743148
 31
0.0
 40
0.657738698
 41
-3.8954437099
 42
-3.8503406181
  0
ELLIPSE
  5
2E8
100
AcDbEntity
  8
0
100
AcDbEllipse
 62
7
  6
BYLAYER
 10
19.5305172779
 20
17.6975053552
 30
0.0
 11
-10.5096998268
 21
10.7798633581
 31
0.0
 40
0.4032531911
 41
-2.2617477902
 42
-2.2166446984
  0
ELLIPSE
  5
2E9
100
AcDbEntity
  8
0
100
AcDbEllipse
 62
7
  6
BYLAYER
 10
22.5284272407
 20
17.6975053552
 30
0.0
 11
8.472058128
 21
9.6390686169
 31
0.0
 40
0.7581403628
 41
-3.8533407472
 42
-3.8082376554
  0
ELLIPSE
  5
2EA
100
AcDbEntity
  8
0
100
AcDbEllipse
 62
7
  6
BYLAYER
 10
22.1302492322
 20
17.6975053552
 30
0.0
 11
7.3844602403
 21
9.6458827394
 31
0.0
 40
0.8684143762
 41
-3.8544024858
 42
-3.809299394
  0
ELLIPSE
  5
2EB
100
AcDbEntity
  8
0
100
AcDbEllipse
 62
7
  6
BYLAYER
 10
19.2628368704
 20
17.6975053552
 30
0.0
 11
-10.8359096051
 21
11.0191384116
 31
0.0
 40
0.3294650235
 41
-2.2004782149
 42
-2.1553751231
  0
ELLIPSE
  5
2EC
100
AcDbEntity
  8
0
100
AcDbEllipse
 62
7
  6
BYLAYER
 10
19.0372871468
 20
17.6975053552
 30
0.0
 11
-11.103573653
 21
11.2192358625
 31
0.0
 40
0.2593921815
 41
-2.1384546298
 42
-2.093351538
  0
ELLIPSE
  5
2ED
100
AcDbEntity
  8
0
100
AcDbEllipse
 62
7
  6
BYLAYER
 10
18.8577273253
 20
17.6975053552
 30
0.0
 11
-11.3126576757
 21
11.377213794
 31
0.0
 40
0.1921623568
 41
-2.0759595615
 42
-2.0308564696
  0
ELLIPSE
  5
2EE
100
AcDbEntity
  8
0
100
AcDbEllipse
 62
7
  6
BYLAYER
 10
18.7272297244
 20
17.6975053552
 30
0.0
 11
-11.4626280056
 21
11.4912004934
 31
0.0
 40
0.1269935126
 41
-2.0131697603
 42
-1.9680666685
  0
ELLIPSE
  5
2EF
100
AcDbEntity
  8
0
100
AcDbEllipse
 62
7
  6
BYLAYER
 10
18.6480271941
 20
17.6975053552
 30
0.0
 11
-11.5528949874
 21
11.5600239517
 31
0.0
 40
0.0631661312
 41
-1.9502066947
 42
-1.9051036029
  0
ELLIPSE
  5
2F0
100
AcDbEntity
  8
0
100
AcDbEllipse
 62
7
  6
BYLAYER
 10
21.3200301421
 20
17.6975053552
 30
0.0
 11
-7.3844602403
 21
9.6458827394
 31
0.0
 40
0.8684143762
 41
-2.4738859132
 42
-2.4287828214
  0
ELLIPSE
  5
2F1
100
AcDbEntity
  8
0
100
AcDbEllipse
 62
7
  6
BYLAYER
 10
20.9218521337
 20
17.6975053552
 30
0.0
 11
-8.472058128
 21
9.6390686169
 31
0.0
 40
0.7581403628
 41
-2.4749476518
 42
-2.42984456
  0
ELLIPSE
  5
2F2
100
AcDbEntity
  8
0
100
AcDbEllipse
 62
7
  6
BYLAYER
 10
22.1302492322
 20
7.8901758043
 30
0.0
 11
-7.3844602403
 21
9.6458827394
 31
0.0
 40
0.8684143762
 41
-1.8862553139
 42
-1.8411522221
  0
ELLIPSE
  5
2F3
100
AcDbEntity
  8
0
100
AcDbEllipse
 62
7
  6
BYLAYER
 10
22.840093595
 20
15.3016916786
 30
0.0
 11
8.0474192635
 21
10.195190748
 31
0.0
 40
0.7470541823
 41
4.9099662904
 42
4.9176315918
  0
ELLIPSE
  5
2F4
100
AcDbEntity
  8
0
100
AcDbEllipse
 62
7
  6
BYLAYER
 10
23.3736829318
 20
15.3016916786
 30
0.0
 11
8.919591999
 21
10.3341729894
 31
0.0
 40
0.6468548444
 41
-1.404243728
 42
-1.3891458436
  0
ELLIPSE
  5
2F5
100
AcDbEntity
  8
0
100
AcDbEllipse
 62
7
  6
BYLAYER
 10
23.8790652366
 20
15.3016916786
 30
0.0
 11
9.5757833526
 21
10.5743403885
 31
0.0
 40
0.5552272381
 41
-1.4530004987
 42
-1.4324654912
  0
ELLIPSE
  5
2F6
100
AcDbEntity
  8
0
100
AcDbEllipse
 62
7
  6
BYLAYER
 10
24.3475932781
 20
15.3016916786
 30
0.0
 11
10.1170563979
 21
10.8336078883
 31
0.0
 40
0.4711119558
 41
-1.5086873256
 42
-1.4838808103
  0
ELLIPSE
  5
2F7
100
AcDbEntity
  8
0
100
AcDbEllipse
 62
7
  6
BYLAYER
 10
24.7712504115
 20
15.3016916786
 30
0.0
 11
10.57430594
 21
11.0811640271
 31
0.0
 40
0.3932536107
 41
-1.5677038183
 42
-1.5393435277
  0
ELLIPSE
  5
2F8
100
AcDbEntity
  8
0
100
AcDbEllipse
 62
7
  6
BYLAYER
 10
25.1427877459
 20
15.3016916786
 30
0.0
 11
10.9583479679
 21
11.3026503924
 31
0.0
 40
0.32049021
 41
-1.6285433084
 42
-1.5970782097
  0
ELLIPSE
  5
2F9
100
AcDbEntity
  8
0
100
AcDbEllipse
 62
7
  6
BYLAYER
 10
25.4558481745
 20
15.3016916786
 30
0.0
 11
11.272755276
 21
11.4903624333
 31
0.0
 40
0.2517837063
 41
-1.690470904
 42
-1.6561797436
  0
ELLIPSE
  5
2FA
100
AcDbEntity
  8
0
100
AcDbEllipse
 62
7
  6
BYLAYER
 10
25.7050751465
 20
15.3016916786
 30
0.0
 11
11.5182116851
 21
11.6397811956
 31
0.0
 40
0.1862029912
 41
-1.7527475135
 42
-1.7161329273
  0
ELLIPSE
  5
2FB
100
AcDbEntity
  8
0
100
AcDbEllipse
 62
7
  6
BYLAYER
 10
25.8862043194
 20
15.3016916786
 30
0.0
 11
11.6942962282
 21
11.7481381864
 31
0.0
 40
0.1228992729
 41
-1.8159349801
 42
-1.776616227
  0
ELLIPSE
  5
2FC
100
AcDbEntity
  8
0
100
AcDbEllipse
 62
7
  6
BYLAYER
 10
25.9961365227
 20
15.3016916786
 30
0.0
 11
11.8003161272
 21
11.8137551981
 31
0.0
 40
0.0610824685
 41
-1.8795294874
 42
-1.8374099321
  0
ELLIPSE
  5
2FD
100
AcDbEntity
  8
0
100
AcDbEllipse
 62
7
  6
BYLAYER
 10
22.5284272407
 20
7.8901758043
 30
0.0
 11
-8.472058128
 21
9.6390686169
 31
0.0
 40
0.7581403628
 41
-1.8873170525
 42
-1.8422139607
  0
ELLIPSE
  5
2FE
100
AcDbEntity
  8
0
100
AcDbEllipse
 62
7
  6
BYLAYER
 10
22.9128607763
 20
7.8901758043
 30
0.0
 11
-9.1398053983
 21
9.9008743148
 31
0.0
 40
0.657738698
 41
-1.8452140898
 42
-1.800110998
  0
ELLIPSE
  5
2FF
100
AcDbEntity
  8
0
100
AcDbEllipse
 62
7
  6
BYLAYER
 10
23.2769720749
 20
7.8901758043
 30
0.0
 11
-9.672197328
 21
10.207034137
 31
0.0
 40
0.5661264515
 41
-1.7919226086
 42
-1.7468195168
  0
ELLIPSE
  5
300
100
AcDbEntity
  8
0
100
AcDbEllipse
 62
7
  6
BYLAYER
 10
23.614531091
 20
7.8901758043
 30
0.0
 11
-10.1235279518
 21
10.5062434209
 31
0.0
 40
0.4817532195
 41
-1.7341357163
 42
-1.6890326245
  0
ELLIPSE
  5
301
100
AcDbEntity
  8
0
100
AcDbEllipse
 62
7
  6
BYLAYER
 10
23.9197620964
 20
7.8901758043
 30
0.0
 11
-10.5096998268
 21
10.7798633581
 31
0.0
 40
0.4032531911
 41
-1.674117191
 42
-1.6290140991
  0
ELLIPSE
  5
302
100
AcDbEntity
  8
0
100
AcDbEllipse
 62
7
  6
BYLAYER
 10
21.7251396872
 20
7.8901758043
 30
0.0
 11
-0.0
 21
11.5830346317
 31
0.0
 40
0.963433044
 41
-1.2995325731
 42
-1.2544294813
  0
ELLIPSE
  5
303
100
AcDbEntity
  8
0
100
AcDbEllipse
 62
7
  6
BYLAYER
 10
24.1874425039
 20
7.8901758043
 30
0.0
 11
-10.8359096051
 21
11.0191384116
 31
0.0
 40
0.3294650235
 41
-1.6128476156
 42
-1.5677445238
  0
ELLIPSE
  5
304
100
AcDbEntity
  8
0
100
AcDbEllipse
 62
7
  6
BYLAYER
 10
24.4129922275
 20
7.8901758043
 30
0.0
 11
-11.103573653
 21
11.2192358625
 31
0.0
 40
0.2593921815
 41
-1.5508240306
 42
-1.5057209388
  0
ELLIPSE
  5
305
100
AcDbEntity
  8
0
100
AcDbEllipse
 62
7
  6
BYLAYER
 10
24.592552049
 20
7.8901758043
 30
0.0
 11
-11.3126576757
 21
11.377213794
 31
0.0
 40
0.1921623568
 41
-1.4883289622
 42
-1.4432258704
  0
ELLIPSE
  5
306
100
AcDbEntity
  8
0
100
AcDbEllipse
 62
7
  6
BYLAYER
 10
24.7230496499
 20
7.8901758043
 30
0.0
 11
-11.4626280056
 21
11.4912004934
 31
0.0
 40
0.1269935126
 41
-1.425539161
 42
-1.3804360692
  0
ELLIPSE
  5
307
100
AcDbEntity
  8
0
100
AcDbEllipse
 62
7
  6
BYLAYER
 10
24.8022521802
 20
7.8901758043
 30
0.0
 11
-11.5528949874
 21
11.5600239517
 31
0.0
 40
0.0631661312
 41
-1.3625760954
 42
-1.3174730036
  0
ELLIPSE
  5
308
100
AcDbEntity
  8
0
100
AcDbEllipse
 62
7
  6
BYLAYER
 10
17.4541428516
 20
15.3016916786
 30
0.0
 11
-11.8003161272
 21
11.8137551981
 31
0.0
 40
0.0610824685
 41
-4.4457753751
 42
-4.4036557914
  0
ELLIPSE
  5
309
100
AcDbEntity
  8
0
100
AcDbEllipse
 62
7
  6
BYLAYER
 10
17.564075055
 20
15.3016916786
 30
0.0
 11
-11.6942962282
 21
11.7481381864
 31
0.0
 40
0.1228992729
 41
-4.5065690802
 42
-4.4672502745
  0
ELLIPSE
  5
30A
100
AcDbEntity
  8
0
100
AcDbEllipse
 62
7
  6
BYLAYER
 10
17.7452042278
 20
15.3016916786
 30
0.0
 11
-11.5182116851
 21
11.6397811956
 31
0.0
 40
0.1862029912
 41
-4.5670523798
 42
-4.5304377202
  0
ELLIPSE
  5
30B
100
AcDbEntity
  8
0
100
AcDbEllipse
 62
7
  6
BYLAYER
 10
17.9944311998
 20
15.3016916786
 30
0.0
 11
-11.272755276
 21
11.4903624333
 31
0.0
 40
0.2517837063
 41
-4.6270055636
 42
-4.5927143299
  0
ELLIPSE
  5
30C
100
AcDbEntity
  8
0
100
AcDbEllipse
 62
7
  6
BYLAYER
 10
18.3074916284
 20
15.3016916786
 30
0.0
 11
-10.9583479679
 21
11.3026503924
 31
0.0
 40
0.32049021
 41
-4.6861070975
 42
-4.6546419184
  0
ELLIPSE
  5
30D
100
AcDbEntity
  8
0
100
AcDbEllipse
 62
7
  6
BYLAYER
 10
18.6790289628
 20
15.3016916786
 30
0.0
 11
-10.57430594
 21
11.0811640271
 31
0.0
 40
0.3932536107
 41
1.5393435277
 42
1.5677038056
  0
ELLIPSE
  5
30E
100
AcDbEntity
  8
0
100
AcDbEllipse
 62
7
  6
BYLAYER
 10
19.1026860963
 20
15.3016916786
 30
0.0
 11
-10.1170563979
 21
10.8336078883
 31
0.0
 40
0.4711119558
 41
1.4838808103
 42
1.5086873211
  0
ELLIPSE
  5
30F
100
AcDbEntity
  8
0
100
AcDbEllipse
 62
7
  6
BYLAYER
 10
19.5712141377
 20
15.3016916786
 30
0.0
 11
-9.5757833526
 21
10.5743403885
 31
0.0
 40
0.5552272381
 41
1.4324654912
 42
1.4530004966
  0
ELLIPSE
  5
310
100
AcDbEntity
  8
0
100
AcDbEllipse
 62
7
  6
BYLAYER
 10
20.6101857793
 20
15.3016916786
 30
0.0
 11
-8.0474192635
 21
10.195190748
 31
0.0
 40
0.7470541823
 41
1.3655537154
 42
1.3732190188
  0
ELLIPSE
  5
311
100
AcDbEntity
  8
0
100
AcDbEllipse
 62
7
  6
BYLAYER
 10
20.0765964425
 20
15.3016916786
 30
0.0
 11
-8.919591999
 21
10.3341729894
 31
0.0
 40
0.6468548444
 41
1.3891458436
 42
1.4042437168
  0
ELLIPSE
  5
312
100
AcDbEntity
  8
0
100
AcDbEllipse
 62
7
  6
BYLAYER
 10
21.7251396872
 20
7.8901758043
 30
0.0
 11
-0.0
 21
11.5830346317
 31
0.0
 40
0.963433044
 41
1.2544294813
 42
1.2995325731
  0
ELLIPSE
  5
313
100
AcDbEntity
  8
0
100
AcDbEllipse
 62
7
  6
BYLAYER
 10
21.3200301421
 20
7.8901758043
 30
0.0
 11
7.3844602403
 21
9.6458827394
 31
0.0
 40
0.8684143762
 41
-4.4420330851
 42
-4.3969299932
  0
ELLIPSE
  5
314
100
AcDbEntity
  8
0
100
AcDbEllipse
 62
7
  6
BYLAYER
 10
20.9218521337
 20
7.8901758043
 30
0.0
 11
8.472058128
 21
9.6390686169
 31
0.0
 40
0.7581403628
 41
-4.4409713465
 42
-4.3958682546
  0
ELLIPSE
  5
315
100
AcDbEntity
  8
0
100
AcDbEllipse
 62
7
  6
BYLAYER
 10
20.537418598
 20
7.8901758043
 30
0.0
 11
9.1398053983
 21
9.9008743148
 31
0.0
 40
0.657738698
 41
-4.4830743092
 42
-4.4379712174
  0
ELLIPSE
  5
316
100
AcDbEntity
  8
0
100
AcDbEllipse
 62
7
  6
BYLAYER
 10
20.1733072994
 20
7.8901758043
 30
0.0
 11
9.672197328
 21
10.207034137
 31
0.0
 40
0.5661264515
 41
-4.5363657904
 42
-4.4912626986
  0
ELLIPSE
  5
317
100
AcDbEntity
  8
0
100
AcDbEllipse
 62
7
  6
BYLAYER
 10
19.8357482833
 20
7.8901758043
 30
0.0
 11
10.1235279518
 21
10.5062434209
 31
0.0
 40
0.4817532195
 41
-4.5941526827
 42
-4.5490495909
  0
ELLIPSE
  5
318
100
AcDbEntity
  8
0
100
AcDbEllipse
 62
7
  6
BYLAYER
 10
19.5305172779
 20
7.8901758043
 30
0.0
 11
10.5096998268
 21
10.7798633581
 31
0.0
 40
0.4032531911
 41
-4.654171208
 42
-4.6090681162
  0
ELLIPSE
  5
319
100
AcDbEntity
  8
0
100
AcDbEllipse
 62
7
  6
BYLAYER
 10
19.2628368704
 20
7.8901758043
 30
0.0
 11
10.8359096051
 21
11.0191384116
 31
0.0
 40
0.3294650235
 41
1.5677445238
 42
1.6128476156
  0
ELLIPSE
  5
31A
100
AcDbEntity
  8
0
100
AcDbEllipse
 62
7
  6
BYLAYER
 10
19.0372871468
 20
7.8901758043
 30
0.0
 11
11.103573653
 21
11.2192358625
 31
0.0
 40
0.2593921815
 41
1.5057209388
 42
1.5508240306
  0
ELLIPSE
  5
31B
100
AcDbEntity
  8
0
100
AcDbEllipse
 62
7
  6
BYLAYER
 10
18.8577273253
 20
7.8901758043
 30
0.0
 11
11.3126576757
 21
11.377213794
 31
0.0
 40
0.1921623568
 41
1.4432258704
 42
1.4883289622
  0
ELLIPSE
  5
31C
100
AcDbEntity
  8
0
100
AcDbEllipse
 62
7
  6
BYLAYER
 10
18.7272297244
 20
7.8901758043
 30
0.0
 11
11.4626280056
 21
11.4912004934
 31
0.0
 40
0.1269935126
 41
1.3804360692
 42
1.425539161
  0
ELLIPSE
  5
31D
100
AcDbEntity
  8
0
100
AcDbEllipse
 62
7
  6
BYLAYER
 10
18.6480271941
 20
7.8901758043
 30
0.0
 11
11.5528949874
 21
11.5600239517
 31
0.0
 40
0.0631661312
 41
1.3174730036
 42
1.3625760954
  0
ELLIPSE
  5
31E
100
AcDbEntity
  8
0
100
AcDbEllipse
 62
7
  6
BYLAYER
 10
24.7230496499
 20
7.8901758043
 30
0.0
 11
-11.4626280056
 21
11.4912004934
 31
0.0
 40
0.1269935126
 41
1.1284228933
 42
1.1735259851
  0
ELLIPSE
  5
31F
100
AcDbEntity
  8
0
100
AcDbEllipse
 62
7
  6
BYLAYER
 10
23.9197620964
 20
7.8901758043
 30
0.0
 11
-10.5096998268
 21
10.7798633581
 31
0.0
 40
0.4032531911
 41
0.8798448634
 42
0.9249479552
  0
ELLIPSE
  5
320
100
AcDbEntity
  8
0
100
AcDbEllipse
 62
7
  6
BYLAYER
 10
24.592552049
 20
7.8901758043
 30
0.0
 11
-11.3126576757
 21
11.377213794
 31
0.0
 40
0.1921623568
 41
1.0656330921
 42
1.1107361839
  0
ELLIPSE
  5
321
100
AcDbEntity
  8
0
100
AcDbEllipse
 62
7
  6
BYLAYER
 10
22.1302492322
 20
7.8901758043
 30
0.0
 11
-7.3844602403
 21
9.6458827394
 31
0.0
 40
0.8684143762
 41
0.6677067404
 42
0.7128098322
  0
ELLIPSE
  5
322
100
AcDbEntity
  8
0
100
AcDbEllipse
 62
7
  6
BYLAYER
 10
23.614531091
 20
7.8901758043
 30
0.0
 11
-10.1235279518
 21
10.5062434209
 31
0.0
 40
0.4817532195
 41
0.819826338
 42
0.8649294298
  0
ELLIPSE
  5
323
100
AcDbEntity
  8
0
100
AcDbEllipse
 62
7
  6
BYLAYER
 10
22.5284272407
 20
7.8901758043
 30
0.0
 11
-8.472058128
 21
9.6390686169
 31
0.0
 40
0.7581403628
 41
0.6666450018
 42
0.7117480936
  0
ELLIPSE
  5
324
100
AcDbEntity
  8
0
100
AcDbEllipse
 62
7
  6
BYLAYER
 10
22.9128607763
 20
7.8901758043
 30
0.0
 11
-9.1398053983
 21
9.9008743148
 31
0.0
 40
0.657738698
 41
0.7087479645
 42
0.7538510564
  0
ELLIPSE
  5
325
100
AcDbEntity
  8
0
100
AcDbEllipse
 62
7
  6
BYLAYER
 10
24.4129922275
 20
7.8901758043
 30
0.0
 11
-11.103573653
 21
11.2192358625
 31
0.0
 40
0.2593921815
 41
1.0031380237
 42
1.0482411156
  0
ELLIPSE
  5
326
100
AcDbEntity
  8
0
100
AcDbEllipse
 62
7
  6
BYLAYER
 10
24.8022521802
 20
7.8901758043
 30
0.0
 11
-11.5528949874
 21
11.5600239517
 31
0.0
 40
0.0631661312
 41
1.1913859589
 42
1.2364890507
  0
ELLIPSE
  5
327
100
AcDbEntity
  8
0
100
AcDbEllipse
 62
7
  6
BYLAYER
 10
23.2769720749
 20
7.8901758043
 30
0.0
 11
-9.672197328
 21
10.207034137
 31
0.0
 40
0.5661264515
 41
0.7620394457
 42
0.8071425375
  0
ELLIPSE
  5
328
100
AcDbEntity
  8
0
100
AcDbEllipse
 62
7
  6
BYLAYER
 10
24.1874425039
 20
7.8901758043
 30
0.0
 11
-10.8359096051
 21
11.0191384116
 31
0.0
 40
0.3294650235
 41
0.9411144387
 42
0.9862175305
  0
ELLIPSE
  5
329
100
AcDbEntity
  8
0
100
AcDbEllipse
 62
7
  6
BYLAYER
 10
18.6480271941
 20
7.8901758043
 30
0.0
 11
11.5528949874
 21
11.5600239517
 31
0.0
 40
0.0631661312
 41
-1.2364890507
 42
-1.1913859589
  0
ELLIPSE
  5
32A
100
AcDbEntity
  8
0
100
AcDbEllipse
 62
7
  6
BYLAYER
 10
18.7272297244
 20
7.8901758043
 30
0.0
 11
11.4626280056
 21
11.4912004934
 31
0.0
 40
0.1269935126
 41
-1.1735259851
 42
-1.1284228933
  0
ELLIPSE
  5
32B
100
AcDbEntity
  8
0
100
AcDbEllipse
 62
7
  6
BYLAYER
 10
18.8577273253
 20
7.8901758043
 30
0.0
 11
11.3126576757
 21
11.377213794
 31
0.0
 40
0.1921623568
 41
-1.1107361839
 42
-1.0656330921
  0
ELLIPSE
  5
32C
100
AcDbEntity
  8
0
100
AcDbEllipse
 62
7
  6
BYLAYER
 10
19.0372871468
 20
7.8901758043
 30
0.0
 11
11.103573653
 21
11.2192358625
 31
0.0
 40
0.2593921815
 41
-1.0482411156
 42
-1.0031380237
  0
ELLIPSE
  5
32D
100
AcDbEntity
  8
0
100
AcDbEllipse
 62
7
  6
BYLAYER
 10
19.2628368704
 20
7.8901758043
 30
0.0
 11
10.8359096051
 21
11.0191384116
 31
0.0
 40
0.3294650235
 41
-0.9862175305
 42
-0.9411144387
  0
ELLIPSE
  5
32E
100
AcDbEntity
  8
0
100
AcDbEllipse
 62
7
  6
BYLAYER
 10
19.5305172779
 20
7.8901758043
 30
0.0
 11
10.5096998268
 21
10.7798633581
 31
0.0
 40
0.4032531911
 41
-0.9249479552
 42
-0.8798448634
  0
ELLIPSE
  5
32F
100
AcDbEntity
  8
0
100
AcDbEllipse
 62
7
  6
BYLAYER
 10
19.8357482833
 20
7.8901758043
 30
0.0
 11
10.1235279518
 21
10.5062434209
 31
0.0
 40
0.4817532195
 41
-0.8649294298
 42
-0.819826338
  0
ELLIPSE
  5
330
100
AcDbEntity
  8
0
100
AcDbEllipse
 62
7
  6
BYLAYER
 10
20.1733072994
 20
7.8901758043
 30
0.0
 11
9.672197328
 21
10.207034137
 31
0.0
 40
0.5661264515
 41
-0.8071425375
 42
-0.7620394457
  0
ELLIPSE
  5
331
100
AcDbEntity
  8
0
100
AcDbEllipse
 62
7
  6
BYLAYER
 10
20.537418598
 20
7.8901758043
 30
0.0
 11
9.1398053983
 21
9.9008743148
 31
0.0
 40
0.657738698
 41
-0.7538510564
 42
-0.7087479645
  0
ELLIPSE
  5
332
100
AcDbEntity
  8
0
100
AcDbEllipse
 62
7
  6
BYLAYER
 10
20.9218521337
 20
7.8901758043
 30
0.0
 11
8.472058128
 21
9.6390686169
 31
0.0
 40
0.7581403628
 41
-0.7117480936
 42
-0.6666450018
  0
ELLIPSE
  5
333
100
AcDbEntity
  8
0
100
AcDbEllipse
 62
7
  6
BYLAYER
 10
21.3200301421
 20
7.8901758043
 30
0.0
 11
7.3844602403
 21
9.6458827394
 31
0.0
 40
0.8684143762
 41
-0.7128098322
 42
-0.6677067404
  0
ENDSEC
  0
SECTION
  2
OBJECTS
  0
DICTIONARY
  5
C
100
AcDbDictionary
280
0
281
1
  3
ACAD_GROUP
350
D
  3
ACAD_MLINESTYLE
350
17
  3
ACAD_LAYOUT
350
1A
  3
ACAD_PLOTSETTINGS
350
19
  3
ACAD_PLOTSTYLENAME
350
E
  0
DICTIONARY
  5
D
102
{ACAD_REACTORS
330
C
102
}
100
AcDbDictionary
280
0
281
1
  0
ACDBDICTIONARYWDFLT
  5
E
102
{ACAD_REACTORS
330
C
102
}
100
AcDbDictionary
281
1
  3
Normal
350
F
100
AcDbDictionaryWithDefault
340
F
  0
DICTIONARY
  5
17
102
{ACAD_REACTORS
330
C
102
}
100
AcDbDictionary
280
0
281
1
  3
Standard
350
18
  0
DICTIONARY
  5
19
102
{ACAD_REACTORS
330
C
102
}
100
AcDbDictionary
281
1
  0
DICTIONARY
  5
1A
102
{ACAD_REACTORS
330
C
102
}
100
AcDbDictionary
281
1
  3
Model
350
334
  3
Layout1
350
335
  0
ACDBPLACEHOLDER
  5
F
102
{ACAD_REACTORS
330
E
102
}
  0
MLINESTYLE
  5
18
102
{ACAD_REACTORS
330
17
102
}
100
AcDbMlineStyle
  2
STANDARD
 70
0
  3

 62
256
 51
90.0
 52
90.0
 71
2
 49
0.5
 62
256
  6
BYLAYER
 49
-0.5
 62
256
  6
BYLAYER
  0
LAYOUT
  5
334
102
{ACAD_REACTORS
330
1A
102
}
100
AcDbPlotSettings
  1

  2
none_device
  4

  6

 40
0.0
 41
0.0
 42
0.0
 43
0.0
 44
210.0
 45
297.0
 46
0.0
 47
0.0
 48
0.0
 49
0.0
140
0.0
141
0.0
142
1.0
143
1.0
 70
1024
 72
1
 73
0
 74
0
  7

 75
0
147
1.0
148
0.0
149
0.0
100
AcDbLayout
  1
Model
 70
0
 71
0
 10
0.0
 20
0.0
 11
210.0
 21
297.0
 12
0.0
 22
0.0
 32
0.0
 14
0.0
 24
0.0
 34
0.0
 15
0.0
 25
0.0
 35
0.0
146
0.0
 13
0.0
 23
0.0
 33
0.0
 16
1.0
 26
0.0
 36
0.0
 17
0.0
 27
1.0
 37
0.0
 76
0
330
210
345
0
346
0
  0
LAYOUT
  5
335
102
{ACAD_REACTORS
330
1A
102
}
100
AcDbPlotSettings
  1

  2
none_device
  4

  6

 40
0.0
 41
0.0
 42
0.0
 43
0.0
 44
210.0
 45
297.0
 46
0.0
 47
0.0
 48
0.0
 49
0.0
140
0.0
141
0.0
142
1.0
143
1.0
 70
0
 72
1
 73
0
 74
0
  7

 75
0
147
1.0
148
0.0
149
0.0
100
AcDbLayout
  1
Layout1
 70
0
 71
1
 10
0.0
 20
0.0
 11
210.0
 21
297.0
 12
0.0
 22
0.0
 32
0.0
 14
0.0
 24
0.0
 34
0.0
 15
0.0
 25
0.0
 35
0.0
146
0.0
 13
0.0
 23
0.0
 33
0.0
 16
1.0
 26
0.0
 36
0.0
 17
0.0
 27
1.0
 37
0.0
 76
0
330
211
345
0
346
0
  0
ENDSEC
  0
EOF
