999
DXF file: C:\Users\sesa63760\Dev\_Creo\CAD\MCADID0004349_3D-CAD\drw0001_7.dxf
999
Pro/ENGINEER 2019471 by Parametric Technology Corporation
  0
SECTION
  2
HEADER
  9
$ACADVER
  1
AC1024
  9
$DWGCODEPAGE
  3
ANSI_1252
  9
$EXTMAX
 10
51.8265809075
 20
73.2975929978
 30
0.0
  9
$EXTMIN
 10
0.0
 20
0.0
 30
0.0
  9
$LIMMIN
 10
0.0
 20
0.0
  9
$LIMMAX
 10
51.8265809075
 20
73.2975929978
  9
$VIEWCTR
 10
25.9132904538
 20
36.6487964989
  9
$VIEWSIZE
 40
73.2975929978
  9
$CLAYER
  8
0
  9
$LTSCALE
 40
4.7779171732
  9
$CELTYPE
  6
BYLAYER
  9
$DIMSCALE
 40
1.0
  9
$DIMASZ
 40
0.616983106
  9
$DIMEXO
 40
1.0
  9
$DIMDLI
 40
3.3011064106
  9
$DIMEXE
 40
1.0
  9
$DIMCEN
 40
0.781840992
  9
$DIMLFAC
 40
1.0
  9
$DIMBLK
  1
_FILLED
  9
$DIMALT
 70
0
  9
$DIMALTF
 40
0.0393700787
  9
$DIMTXT
 40
0.8637763485
  9
$DIMTOL
 70
1
  9
$DIMLIM
 70
0
  9
$DIMTFAC
 40
1.0
  9
$DIMTP
 40
0.01
  9
$DIMTM
 40
0.01
  9
$DIMGAP
 40
0.625
  9
$DIMDSEP
 70
46
  9
$AUNITS
 70
0
  9
$PDMODE
 70
3
  9
$PDSIZE
 40
0.3125
  9
$HANDSEED
  5
252
  9
$TILEMODE
 70
1
  9
$MEASUREMENT
 70
1
  9
$INSUNITS
 70
4
  0
ENDSEC
  0
SECTION
  2
CLASSES
  0
CLASS
  1
ACDBDICTIONARYWDFLT
  2
AcDbDictionaryWithDefault
  3
AutoCAD 2000
 90
0
 91
1
280
0
281
0
  0
CLASS
  1
ACDBPLACEHOLDER
  2
AcDbPlaceHolder
  3
AutoCAD 2000
 90
0
 91
1
280
0
281
0
  0
CLASS
  1
LAYOUT
  2
AcDbLayout
  3
AutoCAD 2000
 90
0
 91
0
280
0
281
0
  0
ENDSEC
  0
SECTION
  2
TABLES
  0
TABLE
  2
VPORT
  5
8
100
AcDbSymbolTable
 70
2
  0
VPORT
  5
1F4
100
AcDbSymbolTableRecord
100
AcDbViewportTableRecord
  2
*ACTIVE
 70
0
 10
0.0
 20
0.0
 11
1.0
 21
1.0
 12
25.9132904538
 22
36.6487964989
 13
0.0
 23
0.0
 14
1.0
 24
1.0
 15
0.0
 25
0.0
 16
0.0
 26
0.0
 36
1.0
 17
0.0
 27
0.0
 37
0.0
 40
73.2975929978
 41
0.7070707071
 42
50.0
 43
0.0
 44
0.0
 50
0.0
 51
0.0
 71
0
 72
100
 73
1
 74
1
 75
0
 76
0
 77
0
 78
0
  0
ENDTAB
  0
TABLE
  2
LTYPE
  5
5
100
AcDbSymbolTable
 70
6
  0
LTYPE
  5
14
100
AcDbSymbolTableRecord
100
AcDbLinetypeTableRecord
  2
BYBLOCK
 70
0
  3

 72
65
 73
0
 40
0.0
  0
LTYPE
  5
15
100
AcDbSymbolTableRecord
100
AcDbLinetypeTableRecord
  2
BYLAYER
 70
0
  3

 72
65
 73
0
 40
0.0
  0
LTYPE
  5
16
100
AcDbSymbolTableRecord
100
AcDbLinetypeTableRecord
  2
CONTINUOUS
 70
64
  3
Solid line
 72
65
 73
0
 40
0.0
  0
LTYPE
  5
1F5
100
AcDbSymbolTableRecord
100
AcDbLinetypeTableRecord
  2
CENTER
 70
64
  3
____ _ ____ _ ____ _ ____ _ ____ _ ____ _ ____
 72
65
 73
4
 40
0.6
 49
0.375
 74
0
 49
-0.075
 74
0
 49
0.075
 74
0
 49
-0.075
 74
0
  0
LTYPE
  5
1F6
100
AcDbSymbolTableRecord
100
AcDbLinetypeTableRecord
  2
HIDDEN
 70
64
  3
- - - - - - - - - - - - - - - - - - - -
 72
65
 73
2
 40
0.2
 49
0.1
 74
0
 49
-0.1
 74
0
  0
LTYPE
  5
1F7
100
AcDbSymbolTableRecord
100
AcDbLinetypeTableRecord
  2
PHANTOM
 70
64
  3
_____ _ _ _____ _ _ _____ _ _ _____
 72
65
 73
6
 40
0.8
 49
0.45
 74
0
 49
-0.05
 74
0
 49
0.1
 74
0
 49
-0.05
 74
0
 49
0.1
 74
0
 49
-0.05
 74
0
  0
LTYPE
  5
1F8
100
AcDbSymbolTableRecord
100
AcDbLinetypeTableRecord
  2
DOT
 70
64
  3
. . . . . . . . . . . . . . . . . . . .
 72
65
 73
2
 40
0.2
 49
0.1
 74
0
 49
-0.1
 74
0
  0
LTYPE
  5
1F9
100
AcDbSymbolTableRecord
100
AcDbLinetypeTableRecord
  2
DASHED
 70
64
  3
- - - - - - - - - - - - - - - - - - - -
 72
65
 73
2
 40
0.2
 49
0.1
 74
0
 49
-0.1
 74
0
  0
ENDTAB
  0
TABLE
  2
LAYER
  5
2
100
AcDbSymbolTable
 70
36
  0
LAYER
  5
10
100
AcDbSymbolTableRecord
100
AcDbLayerTableRecord
  2
0
 70
0
 62
7
  6
CONTINUOUS
370
-3
390
F
  0
LAYER
  5
1FA
100
AcDbSymbolTableRecord
100
AcDbLayerTableRecord
  2
DEFAULT_1
 70
0
 62
7
  6
CENTER
370
-3
390
F
  0
LAYER
  5
1FB
100
AcDbSymbolTableRecord
100
AcDbLayerTableRecord
  2
DEFAULT_2
 70
0
 62
7
  6
HIDDEN
370
-3
390
F
  0
LAYER
  5
1FC
100
AcDbSymbolTableRecord
100
AcDbLayerTableRecord
  2
DEFAULT_3
 70
0
 62
7
  6
PHANTOM
370
-3
390
F
  0
LAYER
  5
1FD
100
AcDbSymbolTableRecord
100
AcDbLayerTableRecord
  2
00_COMPONENTS
 70
0
 62
7
  6
CONTINUOUS
370
-3
390
F
  0
LAYER
  5
1FE
100
AcDbSymbolTableRecord
100
AcDbLayerTableRecord
  2
01_1_DEFAULT_DATUMS
 70
0
 62
7
  6
CONTINUOUS
370
-3
390
F
  0
LAYER
  5
1FF
100
AcDbSymbolTableRecord
100
AcDbLayerTableRecord
  2
01_PLANES
 70
0
 62
7
  6
CONTINUOUS
370
-3
390
F
  0
LAYER
  5
200
100
AcDbSymbolTableRecord
100
AcDbLayerTableRecord
  2
02_COORD_SYS
 70
0
 62
7
  6
CONTINUOUS
370
-3
390
F
  0
LAYER
  5
201
100
AcDbSymbolTableRecord
100
AcDbLayerTableRecord
  2
03_AXES
 70
0
 62
7
  6
CONTINUOUS
370
-3
390
F
  0
LAYER
  5
202
100
AcDbSymbolTableRecord
100
AcDbLayerTableRecord
  2
04_POINTS
 70
0
 62
7
  6
CONTINUOUS
370
-3
390
F
  0
LAYER
  5
203
100
AcDbSymbolTableRecord
100
AcDbLayerTableRecord
  2
05_CURVES
 70
0
 62
7
  6
CONTINUOUS
370
-3
390
F
  0
LAYER
  5
204
100
AcDbSymbolTableRecord
100
AcDbLayerTableRecord
  2
06_SURFS
 70
0
 62
7
  6
CONTINUOUS
370
-3
390
F
  0
LAYER
  5
205
100
AcDbSymbolTableRecord
100
AcDbLayerTableRecord
  2
07_COSMETICS
 70
0
 62
7
  6
CONTINUOUS
370
-3
390
F
  0
LAYER
  5
206
100
AcDbSymbolTableRecord
100
AcDbLayerTableRecord
  2
10_NOTES
 70
0
 62
7
  6
CONTINUOUS
370
-3
390
F
  0
LAYER
  5
207
100
AcDbSymbolTableRecord
100
AcDbLayerTableRecord
  2
11_NOTES_PUB
 70
0
 62
7
  6
CONTINUOUS
370
-3
390
F
  0
LAYER
  5
208
100
AcDbSymbolTableRecord
100
AcDbLayerTableRecord
  2
13_REF_GTOL
 70
0
 62
7
  6
CONTINUOUS
370
-3
390
F
  0
LAYER
  5
209
100
AcDbSymbolTableRecord
100
AcDbLayerTableRecord
  2
16_MISC
 70
0
 62
7
  6
CONTINUOUS
370
-3
390
F
  0
LAYER
  5
20A
100
AcDbSymbolTableRecord
100
AcDbLayerTableRecord
  2
17_NO_PRINT
 70
0
 62
7
  6
CONTINUOUS
370
-3
390
F
  0
LAYER
  5
20B
100
AcDbSymbolTableRecord
100
AcDbLayerTableRecord
  2
18_DATUM_CAMS_JOINTS
 70
0
 62
7
  6
CONTINUOUS
370
-3
390
F
  0
LAYER
  5
20C
100
AcDbSymbolTableRecord
100
AcDbLayerTableRecord
  2
19_DATUM_FUNCTIONAL
 70
0
 62
7
  6
CONTINUOUS
370
-3
390
F
  0
LAYER
  5
20D
100
AcDbSymbolTableRecord
100
AcDbLayerTableRecord
  2
20_DATUM_KINEMATIC_SCHEME
 70
0
 62
7
  6
CONTINUOUS
370
-3
390
F
  0
ENDTAB
  0
TABLE
  2
STYLE
  5
3
100
AcDbSymbolTable
 70
1
  0
STYLE
  5
11
100
AcDbSymbolTableRecord
100
AcDbTextStyleTableRecord
  2
STANDARD
 70
0
 40
0.0
 41
1.0
 50
0.0
 71
0
 42
0.2
  3
ARIAL.TTF
  4

  0
STYLE
  5
20E
100
AcDbSymbolTableRecord
100
AcDbTextStyleTableRecord
  2
TEXTSTYLE_1
 70
0
 40
0.0
 41
0.8
 50
0.0
 71
0
 42
0.2
  3
gdt
  4

  0
ENDTAB
  0
TABLE
  2
VIEW
  5
6
100
AcDbSymbolTable
 70
0
  0
ENDTAB
  0
TABLE
  2
UCS
  5
7
100
AcDbSymbolTable
 70
0
  0
ENDTAB
  0
TABLE
  2
APPID
  5
9
100
AcDbSymbolTable
 70
1
  0
APPID
  5
20F
100
AcDbSymbolTableRecord
100
AcDbRegAppTableRecord
  2
ACAD
 70
0
  0
ENDTAB
  0
TABLE
  2
BLOCK_RECORD
  5
1
100
AcDbSymbolTable
 70
0
  0
BLOCK_RECORD
  5
210
100
AcDbSymbolTableRecord
100
AcDbBlockTableRecord
  2
*Model_Space
  0
BLOCK_RECORD
  5
211
100
AcDbSymbolTableRecord
100
AcDbBlockTableRecord
  2
*Paper_Space
  0
BLOCK_RECORD
  5
212
100
AcDbSymbolTableRecord
100
AcDbBlockTableRecord
  2
_FILLED
  0
ENDTAB
  0
TABLE
  2
DIMSTYLE
  5
A
100
AcDbSymbolTable
 70
1
100
AcDbDimStyleTable
 71
0
  0
DIMSTYLE
105
213
100
AcDbSymbolTableRecord
100
AcDbDimStyleTableRecord
  2
STANDARD
 70
0
  3

  4

 40
1.0
 41
0.616983106
 42
1.0
 43
0.38
 44
1.0
 45
0.0
 46
0.0
 47
0.01
 48
0.01
140
0.8637763485
141
0.09
142
0.0
143
25.4
144
1.0
145
0.0
146
1.0
147
0.625
 71
1
 72
0
 73
0
 74
0
 75
0
 76
0
 77
1
 78
8
 79
2
170
0
171
1
172
0
173
0
174
0
175
0
176
0
177
0
178
0
270
2
179
2
271
2
272
2
273
2
274
2
275
0
280
0
281
0
282
0
283
1
284
8
285
0
286
0
287
3
288
0
340
11
278
46
341
212
342
212
343
212
344
212
  0
ENDTAB
  0
ENDSEC
  0
SECTION
  2
BLOCKS
  0
BLOCK
  5
20
100
AcDbEntity
  8
0
100
AcDbBlockBegin
  2
*Model_Space
 70
0
 10
0.0
 20
0.0
 30
0.0
  3
*Model_Space
  1

  0
ENDBLK
  5
21
100
AcDbEntity
  8
0
100
AcDbBlockEnd
  0
BLOCK
  5
1C
100
AcDbEntity
  8
0
100
AcDbBlockBegin
  2
*Paper_Space
 70
0
 10
0.0
 20
0.0
 30
0.0
  3
*Paper_Space
  1

  0
ENDBLK
  5
1D
100
AcDbEntity
  8
0
100
AcDbBlockEnd
  0
BLOCK
  5
214
100
AcDbEntity
  8
0
100
AcDbBlockBegin
  2
_FILLED
 70
64
 10
0.0
 20
0.0
  3
_FILLED
  1

  0
SOLID
  5
215
100
AcDbEntity
  8
0
  6
BYBLOCK
 62
0
100
AcDbTrace
 10
0.0
 20
0.0
 11
-1.0
 21
0.25
 12
-1.0
 22
-0.25
 13
-1.0
 23
-0.25
  0
ENDBLK
  5
216
100
AcDbEntity
  8
0
  6
BYBLOCK
 62
0
100
AcDbBlockEnd
  0
ENDSEC
  0
SECTION
  2
ENTITIES
  0
LINE
  5
217
100
AcDbEntity
  8
0
100
AcDbLine
 62
7
  6
BYLAYER
 10
5.5030059899
 20
37.5832110146
 11
5.5030059899
 21
36.0732441276
  0
LINE
  5
218
100
AcDbEntity
  8
0
100
AcDbLine
 62
7
  6
BYLAYER
 10
18.5030059899
 20
33.5782337476
 11
18.5030059899
 21
40.0782213947
  0
LINE
  5
219
100
AcDbEntity
  8
0
100
AcDbLine
 62
7
  6
BYLAYER
 10
18.5030059899
 20
40.0782275711
 11
19.2530059899
 21
40.8282275711
  0
LINE
  5
21A
100
AcDbEntity
  8
0
100
AcDbLine
 62
7
  6
BYLAYER
 10
18.5030059899
 20
33.5782275711
 11
19.2530059899
 21
32.8282275711
  0
LINE
  5
21B
100
AcDbEntity
  8
0
100
AcDbLine
 62
7
  6
BYLAYER
 10
19.2530059899
 20
32.8282275711
 11
19.2530059899
 21
40.8282275711
  0
LINE
  5
21C
100
AcDbEntity
  8
0
100
AcDbLine
 62
7
  6
BYLAYER
 10
36.5030059899
 20
31.8282275711
 11
39.5030059899
 21
31.8282275711
  0
LINE
  5
21D
100
AcDbEntity
  8
0
100
AcDbLine
 62
7
  6
BYLAYER
 10
22.7530060182
 20
40.8282275711
 11
22.7530060182
 21
32.8282275711
  0
LINE
  5
21E
100
AcDbEntity
  8
0
100
AcDbLine
 62
7
  6
BYLAYER
 10
25.2530059697
 20
40.0782275711
 11
26.0030059697
 21
40.8282275711
  0
LINE
  5
21F
100
AcDbEntity
  8
0
100
AcDbLine
 62
7
  6
BYLAYER
 10
19.2530059899
 20
32.8282275711
 11
22.7530060182
 21
32.8282275711
  0
LINE
  5
220
100
AcDbEntity
  8
0
100
AcDbLine
 62
7
  6
BYLAYER
 10
26.0030059786
 20
32.8282275623
 11
32.5030059899
 21
32.8282275623
  0
LINE
  5
221
100
AcDbEntity
  8
0
100
AcDbLine
 62
7
  6
BYLAYER
 10
33.0442559899
 20
32.8282275534
 11
36.5030059899
 21
32.8282275534
  0
LINE
  5
222
100
AcDbEntity
  8
0
100
AcDbLine
 62
7
  6
BYLAYER
 10
39.5030059899
 20
32.8282275534
 11
41.9617559899
 21
32.8282275534
  0
LINE
  5
223
100
AcDbEntity
  8
0
100
AcDbLine
 62
7
  6
BYLAYER
 10
23.5030060182
 20
33.5782275711
 11
25.2530059697
 21
33.5782275711
  0
LINE
  5
224
100
AcDbEntity
  8
0
100
AcDbLine
 62
7
  6
BYLAYER
 10
42.5030059899
 20
34.0782275711
 11
45.4077434995
 21
34.0782275711
  0
LINE
  5
225
100
AcDbEntity
  8
0
100
AcDbLine
 62
7
  6
BYLAYER
 10
25.2530059697
 20
33.5782275711
 11
26.0030059697
 21
32.8282275711
  0
LINE
  5
226
100
AcDbEntity
  8
0
100
AcDbLine
 62
7
  6
BYLAYER
 10
23.5030060182
 20
33.5782275711
 11
23.5030060182
 21
40.0782275711
  0
LINE
  5
227
100
AcDbEntity
  8
0
100
AcDbLine
 62
7
  6
BYLAYER
 10
25.2530059697
 20
40.0782275711
 11
25.2530059697
 21
33.5782275711
  0
LINE
  5
228
100
AcDbEntity
  8
0
100
AcDbLine
 62
7
  6
BYLAYER
 10
26.0030059697
 20
32.8282275623
 11
26.0030059697
 21
40.82822758
  0
LINE
  5
229
100
AcDbEntity
  8
0
100
AcDbLine
 62
7
  6
BYLAYER
 10
6.5611056695
 20
35.7282275711
 11
18.5030059899
 21
35.7282275711
  0
LINE
  5
22A
100
AcDbEntity
  8
0
100
AcDbLine
 62
7
  6
BYLAYER
 10
39.0564240025
 20
36.8282275711
 11
36.9495879773
 21
36.8282275711
  0
LINE
  5
22B
100
AcDbEntity
  8
0
100
AcDbLine
 62
7
  6
BYLAYER
 10
23.5030060182
 20
33.5782275711
 11
22.7530060182
 21
32.8282275711
  0
LINE
  5
22C
100
AcDbEntity
  8
0
100
AcDbLine
 62
7
  6
BYLAYER
 10
18.5030059899
 20
37.9282275711
 11
6.5611056695
 21
37.9282275711
  0
LINE
  5
22D
100
AcDbEntity
  8
0
100
AcDbLine
 62
7
  6
BYLAYER
 10
23.5030060182
 20
40.0782275711
 11
22.7530060182
 21
40.8282275711
  0
LINE
  5
22E
100
AcDbEntity
  8
0
100
AcDbLine
 62
7
  6
BYLAYER
 10
42.5030059899
 20
39.5782275711
 11
45.4077434995
 21
39.5782275711
  0
LINE
  5
22F
100
AcDbEntity
  8
0
100
AcDbLine
 62
7
  6
BYLAYER
 10
23.5030060182
 20
40.0782275711
 11
25.2530059697
 21
40.0782275711
  0
LINE
  5
230
100
AcDbEntity
  8
0
100
AcDbLine
 62
7
  6
BYLAYER
 10
19.2530059899
 20
40.8282275711
 11
22.7530060182
 21
40.8282275711
  0
LINE
  5
231
100
AcDbEntity
  8
0
100
AcDbLine
 62
7
  6
BYLAYER
 10
26.0030059786
 20
40.82822758
 11
32.5030059899
 21
40.82822758
  0
LINE
  5
232
100
AcDbEntity
  8
0
100
AcDbLine
 62
7
  6
BYLAYER
 10
33.0442559899
 20
40.8282275888
 11
36.5030059899
 21
40.8282275888
  0
LINE
  5
233
100
AcDbEntity
  8
0
100
AcDbLine
 62
7
  6
BYLAYER
 10
39.5030059899
 20
40.8282275888
 11
41.9617559899
 21
40.8282275888
  0
LINE
  5
234
100
AcDbEntity
  8
0
100
AcDbLine
 62
7
  6
BYLAYER
 10
39.5030059899
 20
41.8282275711
 11
36.5030059899
 21
41.8282275711
  0
LINE
  5
235
100
AcDbEntity
  8
0
100
AcDbLine
 62
7
  6
BYLAYER
 10
32.5030059899
 20
40.82822758
 11
32.5030059899
 21
32.8282275623
  0
LINE
  5
236
100
AcDbEntity
  8
0
100
AcDbLine
 62
7
  6
BYLAYER
 10
33.0442559899
 20
32.8283314952
 11
33.0442559899
 21
40.8281236471
  0
LINE
  5
237
100
AcDbEntity
  8
0
100
AcDbLine
 62
7
  6
BYLAYER
 10
33.0442559899
 20
33.3694775534
 11
32.5030059987
 21
32.8282275623
  0
LINE
  5
238
100
AcDbEntity
  8
0
100
AcDbLine
 62
7
  6
BYLAYER
 10
33.0442559899
 20
40.2869775888
 11
32.5030059987
 21
40.82822758
  0
LINE
  5
239
100
AcDbEntity
  8
0
100
AcDbLine
 62
7
  6
BYLAYER
 10
36.5030059899
 20
31.8282275711
 11
36.5030059899
 21
41.8282275711
  0
LINE
  5
23A
100
AcDbEntity
  8
0
100
AcDbLine
 62
7
  6
BYLAYER
 10
39.5030059899
 20
41.8282275711
 11
39.5030059899
 21
31.8282275711
  0
LINE
  5
23B
100
AcDbEntity
  8
0
100
AcDbLine
 62
7
  6
BYLAYER
 10
42.5030059899
 20
33.3694775534
 11
41.9617559899
 21
32.8282275534
  0
LINE
  5
23C
100
AcDbEntity
  8
0
100
AcDbLine
 62
7
  6
BYLAYER
 10
42.5030059899
 20
40.2869775888
 11
41.9617559899
 21
40.8282275888
  0
LINE
  5
23D
100
AcDbEntity
  8
0
100
AcDbLine
 62
7
  6
BYLAYER
 10
41.9617559899
 20
40.8282275888
 11
41.9617559899
 21
32.8282275534
  0
LINE
  5
23E
100
AcDbEntity
  8
0
100
AcDbLine
 62
7
  6
BYLAYER
 10
42.5030059899
 20
40.2869709346
 11
42.5030059899
 21
33.3694842077
  0
LINE
  5
23F
100
AcDbEntity
  8
0
100
AcDbLine
 62
7
  6
BYLAYER
 10
45.4077247447
 20
39.5782275711
 11
45.4077434995
 21
34.0782275711
  0
ARC
  5
240
100
AcDbEntity
  8
0
100
AcDbCircle
 62
7
  6
BYLAYER
 10
42.5030059899
 20
36.8282275711
 40
4.0
100
AcDbArc
 50
316.5674604662
 51
43.4325365578
  0
SPLINE
  5
241
100
AcDbEntity
  8
0
100
AcDbSpline
 62
7
  6
BYLAYER
 70
0
 71
3
 72
13
 73
9
 74
0
 42
0.0000001
 43
0.0000001
 44
0.0000000001
 40
0.0
 40
0.0
 40
0.0
 40
0.0
 40
0.2513855782
 40
0.5016831749
 40
0.6264930183
 40
0.7511112818
 40
0.8755962448
 40
1.0
 40
1.0
 40
1.0
 40
1.0
 10
39.0564240025
 20
41.8282275711
 30
0.0
 10
39.1240078725
 20
41.6254759611
 30
0.0
 10
39.2479526284
 20
41.2170656978
 30
0.0
 10
39.3673279175
 20
40.6974212167
 30
0.0
 10
39.4367523062
 20
40.2781646675
 30
0.0
 10
39.4747374926
 20
39.9624388442
 30
0.0
 10
39.4978418784
 20
39.6456235405
 30
0.0
 10
39.5030059899
 20
39.433991162
 30
0.0
 10
39.5030059899
 20
39.3282275711
 30
0.0
  0
SPLINE
  5
242
100
AcDbEntity
  8
0
100
AcDbSpline
 62
7
  6
BYLAYER
 70
0
 71
3
 72
13
 73
9
 74
0
 42
0.0000001
 43
0.0000001
 44
0.0000000001
 40
0.0
 40
0.0
 40
0.0
 40
0.0
 40
0.1244037923
 40
0.2488888388
 40
0.3735071292
 40
0.4983169576
 40
0.7486145012
 40
1.0
 40
1.0
 40
1.0
 40
1.0
 10
39.5030059899
 20
34.3282275711
 30
0.0
 10
39.5030059899
 20
34.2224639484
 30
0.0
 10
39.4978417685
 20
34.0108314723
 30
0.0
 10
39.4747375452
 20
33.6940160271
 30
0.0
 10
39.4367520091
 20
33.3782901648
 30
0.0
 10
39.3673280625
 20
32.9590335841
 30
0.0
 10
39.2479527473
 20
32.4393892146
 30
0.0
 10
39.1240078513
 20
32.0309791174
 30
0.0
 10
39.0564240025
 20
31.8282275711
 30
0.0
  0
SPLINE
  5
243
100
AcDbEntity
  8
0
100
AcDbSpline
 62
7
  6
BYLAYER
 70
0
 71
3
 72
13
 73
9
 74
0
 42
0.0000001
 43
0.0000001
 44
0.0000000001
 40
0.0
 40
0.0
 40
0.0
 40
0.0
 40
0.1244037923
 40
0.2488888388
 40
0.3735071292
 40
0.4983169576
 40
0.7486145012
 40
1.0
 40
1.0
 40
1.0
 40
1.0
 10
36.5030059899
 20
39.3282275711
 30
0.0
 10
36.5030059899
 20
39.4339911938
 30
0.0
 10
36.5081702112
 20
39.6456236699
 30
0.0
 10
36.5312744345
 20
39.9624391151
 30
0.0
 10
36.5692599707
 20
40.2781649774
 30
0.0
 10
36.6386839172
 20
40.6974215581
 30
0.0
 10
36.7580592325
 20
41.2170659276
 30
0.0
 10
36.8820041285
 20
41.6254760248
 30
0.0
 10
36.9495879773
 20
41.8282275711
 30
0.0
  0
SPLINE
  5
244
100
AcDbEntity
  8
0
100
AcDbSpline
 62
7
  6
BYLAYER
 70
0
 71
3
 72
13
 73
9
 74
0
 42
0.0000001
 43
0.0000001
 44
0.0000000001
 40
0.0
 40
0.0
 40
0.0
 40
0.0
 40
0.2513855782
 40
0.5016831749
 40
0.6264930183
 40
0.7511112818
 40
0.8755962448
 40
1.0
 40
1.0
 40
1.0
 40
1.0
 10
36.9495879773
 20
36.8282275711
 30
0.0
 10
36.8820041073
 20
37.0309791811
 30
0.0
 10
36.7580593513
 20
37.4393894444
 30
0.0
 10
36.6386840623
 20
37.9590339255
 30
0.0
 10
36.5692596736
 20
38.3782904747
 30
0.0
 10
36.5312744871
 20
38.694016298
 30
0.0
 10
36.5081701014
 20
39.0108316018
 30
0.0
 10
36.5030059899
 20
39.2224639802
 30
0.0
 10
36.5030059899
 20
39.3282275711
 30
0.0
  0
SPLINE
  5
245
100
AcDbEntity
  8
0
100
AcDbSpline
 62
7
  6
BYLAYER
 70
0
 71
3
 72
13
 73
9
 74
0
 42
0.0000001
 43
0.0000001
 44
0.0000000001
 40
0.0
 40
0.0
 40
0.0
 40
0.0
 40
0.1244037923
 40
0.2488888388
 40
0.3735071292
 40
0.4983169576
 40
0.7486145012
 40
1.0
 40
1.0
 40
1.0
 40
1.0
 10
36.5030059899
 20
34.3282275711
 30
0.0
 10
36.5030059899
 20
34.4339911938
 30
0.0
 10
36.5081702112
 20
34.6456236699
 30
0.0
 10
36.5312744345
 20
34.9624391151
 30
0.0
 10
36.5692599707
 20
35.2781649774
 30
0.0
 10
36.6386839172
 20
35.6974215581
 30
0.0
 10
36.7580592325
 20
36.2170659276
 30
0.0
 10
36.8820041285
 20
36.6254760248
 30
0.0
 10
36.9495879773
 20
36.8282275711
 30
0.0
  0
SPLINE
  5
246
100
AcDbEntity
  8
0
100
AcDbSpline
 62
7
  6
BYLAYER
 70
0
 71
3
 72
13
 73
9
 74
0
 42
0.0000001
 43
0.0000001
 44
0.0000000001
 40
0.0
 40
0.0
 40
0.0
 40
0.0
 40
0.2513855782
 40
0.5016831749
 40
0.6264930183
 40
0.7511112818
 40
0.8755962448
 40
1.0
 40
1.0
 40
1.0
 40
1.0
 10
39.0564240025
 20
36.8282275711
 30
0.0
 10
39.1240078725
 20
36.6254759611
 30
0.0
 10
39.2479526284
 20
36.2170656978
 30
0.0
 10
39.3673279175
 20
35.6974212167
 30
0.0
 10
39.4367523062
 20
35.2781646675
 30
0.0
 10
39.4747374926
 20
34.9624388442
 30
0.0
 10
39.4978418784
 20
34.6456235405
 30
0.0
 10
39.5030059899
 20
34.433991162
 30
0.0
 10
39.5030059899
 20
34.3282275711
 30
0.0
  0
SPLINE
  5
247
100
AcDbEntity
  8
0
100
AcDbSpline
 62
7
  6
BYLAYER
 70
0
 71
3
 72
13
 73
9
 74
0
 42
0.0000001
 43
0.0000001
 44
0.0000000001
 40
0.0
 40
0.0
 40
0.0
 40
0.0
 40
0.1244037923
 40
0.2488888388
 40
0.3735071292
 40
0.4983169576
 40
0.7486145012
 40
1.0
 40
1.0
 40
1.0
 40
1.0
 10
39.5030059899
 20
39.3282275711
 30
0.0
 10
39.5030059899
 20
39.2224639484
 30
0.0
 10
39.4978417685
 20
39.0108314723
 30
0.0
 10
39.4747375452
 20
38.6940160271
 30
0.0
 10
39.4367520091
 20
38.3782901648
 30
0.0
 10
39.3673280625
 20
37.9590335841
 30
0.0
 10
39.2479527473
 20
37.4393892146
 30
0.0
 10
39.1240078513
 20
37.0309791174
 30
0.0
 10
39.0564240025
 20
36.8282275711
 30
0.0
  0
SPLINE
  5
248
100
AcDbEntity
  8
0
100
AcDbSpline
 62
7
  6
BYLAYER
 70
0
 71
3
 72
13
 73
9
 74
0
 42
0.0000001
 43
0.0000001
 44
0.0000000001
 40
0.0
 40
0.0
 40
0.0
 40
0.0
 40
0.2513855782
 40
0.5016831749
 40
0.6264930183
 40
0.7511112818
 40
0.8755962448
 40
1.0
 40
1.0
 40
1.0
 40
1.0
 10
36.9495879773
 20
31.8282275711
 30
0.0
 10
36.8820041073
 20
32.0309791811
 30
0.0
 10
36.7580593513
 20
32.4393894444
 30
0.0
 10
36.6386840623
 20
32.9590339255
 30
0.0
 10
36.5692596736
 20
33.3782904747
 30
0.0
 10
36.5312744871
 20
33.694016298
 30
0.0
 10
36.5081701014
 20
34.0108316018
 30
0.0
 10
36.5030059899
 20
34.2224639802
 30
0.0
 10
36.5030059899
 20
34.3282275711
 30
0.0
  0
SPLINE
  5
249
100
AcDbEntity
  8
0
100
AcDbSpline
 62
7
  6
BYLAYER
 70
0
 71
3
 72
15
 73
11
 74
0
 42
0.0000001
 43
0.0000001
 44
0.0000000001
 40
0.0
 40
0.0
 40
0.0
 40
0.0
 40
0.1556995302
 40
0.3080449569
 40
0.5922577419
 40
0.7194631199
 40
0.8325827694
 40
0.9275517633
 40
0.9668471741
 40
1.0
 40
1.0
 40
1.0
 40
1.0
 10
5.5030059899
 20
36.0732441276
 30
0.0
 10
5.5592580927
 20
36.0732441276
 30
0.0
 10
5.670731031
 20
36.0639901463
 30
0.0
 10
5.8796202023
 20
36.0151409693
 30
0.0
 10
6.0691770357
 20
35.9383128146
 30
0.0
 10
6.2403521855
 20
35.8571534648
 30
0.0
 10
6.3492873934
 20
35.8041746099
 30
0.0
 10
6.4304844633
 20
35.766704411
 30
0.0
 10
6.486822478
 20
35.7446560301
 30
0.0
 10
6.511808926
 20
35.7367037685
 30
0.0
 10
6.5234338642
 20
35.733818431
 30
0.0
  0
SPLINE
  5
24A
100
AcDbEntity
  8
0
100
AcDbSpline
 62
7
  6
BYLAYER
 70
0
 71
3
 72
9
 73
5
 74
0
 42
0.0000001
 43
0.0000001
 44
0.0000000001
 40
0.0
 40
0.0
 40
0.0
 40
0.0
 40
0.282329847
 40
1.0
 40
1.0
 40
1.0
 40
1.0
 10
6.5234338642
 20
35.733818431
 30
0.0
 10
6.5269319071
 20
35.7329502083
 30
0.0
 10
6.5393755552
 20
35.7301422607
 30
0.0
 10
6.552136771
 20
35.7283951057
 30
0.0
 10
6.5612984397
 20
35.7283951057
 30
0.0
  0
SPLINE
  5
24B
100
AcDbEntity
  8
0
100
AcDbSpline
 62
7
  6
BYLAYER
 70
0
 71
3
 72
9
 73
5
 74
0
 42
0.0000001
 43
0.0000001
 44
0.0000000001
 40
0.0
 40
0.0
 40
0.0
 40
0.0
 40
0.2185839769
 40
1.0
 40
1.0
 40
1.0
 40
1.0
 10
6.56129844
 20
37.9280600366
 30
0.0
 10
6.5585075172
 20
37.9280600366
 30
0.0
 10
6.5457388747
 20
37.9274867825
 30
0.0
 10
6.5331189605
 20
37.9250405175
 30
0.0
 10
6.5234354885
 20
37.9226371197
 30
0.0
  0
SPLINE
  5
24C
100
AcDbEntity
  8
0
100
AcDbSpline
 62
7
  6
BYLAYER
 70
0
 71
3
 72
15
 73
11
 74
0
 42
0.0000001
 43
0.0000001
 44
0.0000000001
 40
0.0
 40
0.0
 40
0.0
 40
0.0
 40
0.0331525638
 40
0.0724477607
 40
0.1674164799
 40
0.2805360245
 40
0.4077414413
 40
0.6919545159
 40
0.8443001969
 40
1.0
 40
1.0
 40
1.0
 40
1.0
 10
6.5234354885
 20
37.9226371197
 30
0.0
 10
6.5118106066
 20
37.9197518719
 30
0.0
 10
6.4868242508
 20
37.9117997462
 30
0.0
 10
6.4304863483
 20
37.8897515662
 30
0.0
 10
6.3492893182
 20
37.8522814565
 30
0.0
 10
6.2403540489
 20
37.7993025845
 30
0.0
 10
6.0691785935
 20
37.7181430099
 30
0.0
 10
5.8796213316
 20
37.6413145145
 30
0.0
 10
5.670731579
 20
37.5924650647
 30
0.0
 10
5.559258278
 20
37.5832110146
 30
0.0
 10
5.5030059899
 20
37.5832110146
 30
0.0
  0
SPLINE
  5
24D
100
AcDbEntity
  8
0
100
AcDbSpline
 62
7
  6
BYLAYER
 70
0
 71
3
 72
29
 73
25
 74
0
 42
0.0000001
 43
0.0000001
 44
0.0000000001
 40
0.0
 40
0.0
 40
0.0
 40
0.0
 40
0.0128671296
 40
0.0293979254
 40
0.0494978815
 40
0.0728468168
 40
0.0991115998
 40
0.1279432669
 40
0.1920221946
 40
0.2628742404
 40
0.3388027886
 40
0.4183797402
 40
0.4999998925
 40
0.5816200976
 40
0.6611969618
 40
0.737125611
 40
0.8079778063
 40
0.8720567243
 40
0.9008883871
 40
0.9271531681
 40
0.9505021078
 40
0.9706020742
 40
0.987132873
 40
1.0
 40
1.0
 40
1.0
 40
1.0
 10
6.6030059899
 20
35.7700788621
 30
0.0
 10
6.6030059899
 20
35.7797047915
 30
0.0
 10
6.5996596998
 20
35.801638778
 30
0.0
 10
6.5891774699
 20
35.8371702877
 30
0.0
 10
6.5731906273
 20
35.879139455
 30
0.0
 10
6.5523910352
 20
35.9269706047
 30
0.0
 10
6.5276168016
 20
35.980175066
 30
0.0
 10
6.4889813821
 20
36.0605238218
 30
0.0
 10
6.4356164466
 20
36.1708034736
 30
0.0
 10
6.3712708014
 20
36.3148852773
 30
0.0
 10
6.3123462111
 20
36.4738499968
 30
0.0
 10
6.2689218441
 20
36.646382514
 30
0.0
 10
6.252453974
 20
36.8282273707
 30
0.0
 10
6.2689217131
 20
37.0100721813
 30
0.0
 10
6.3123460797
 20
37.1826047486
 30
0.0
 10
6.3712706295
 20
37.3415696144
 30
0.0
 10
6.435616407
 20
37.4856515581
 30
0.0
 10
6.4889813763
 20
37.5959313053
 30
0.0
 10
6.5276167881
 20
37.6762800516
 30
0.0
 10
6.552391024
 20
37.7294845101
 30
0.0
 10
6.5731906222
 20
37.7773156679
 30
0.0
 10
6.5891774611
 20
37.8192848505
 30
0.0
 10
6.5996597018
 20
37.8548163654
 30
0.0
 10
6.6030059899
 20
37.8767503526
 30
0.0
 10
6.6030059899
 20
37.8863762802
 30
0.0
  0
SPLINE
  5
24E
100
AcDbEntity
  8
0
100
AcDbSpline
 62
7
  6
BYLAYER
 70
0
 71
3
 72
12
 73
8
 74
0
 42
0.0000001
 43
0.0000001
 44
0.0000000001
 40
0.0
 40
0.0
 40
0.0
 40
0.0
 40
0.2743190788
 40
0.4981621211
 40
0.6071363165
 40
0.7240378375
 40
1.0
 40
1.0
 40
1.0
 40
1.0
 10
6.5612984397
 20
35.7283951057
 30
0.0
 10
6.5674788916
 20
35.7283951057
 30
0.0
 10
6.5788406514
 20
35.7294788799
 30
0.0
 10
6.5913685306
 20
35.7362507594
 30
0.0
 10
6.5976359612
 20
35.7443723935
 30
0.0
 10
6.6021324104
 20
35.7548437265
 30
0.0
 10
6.6030059899
 20
35.7638593526
 30
0.0
 10
6.6030059899
 20
35.7700768234
 30
0.0
  0
SPLINE
  5
24F
100
AcDbEntity
  8
0
100
AcDbSpline
 62
7
  6
BYLAYER
 70
0
 71
3
 72
12
 73
8
 74
0
 42
0.0000001
 43
0.0000001
 44
0.0000000001
 40
0.0
 40
0.0
 40
0.0
 40
0.0
 40
0.2759621962
 40
0.392863683
 40
0.5018378603
 40
0.7256809241
 40
1.0
 40
1.0
 40
1.0
 40
1.0
 10
6.6030059899
 20
37.8863783188
 30
0.0
 10
6.6030059899
 20
37.8925957904
 30
0.0
 10
6.6021324121
 20
37.9016114169
 30
0.0
 10
6.5976359612
 20
37.9120827491
 30
0.0
 10
6.5913685301
 20
37.9202043815
 30
0.0
 10
6.578840653
 20
37.926976265
 30
0.0
 10
6.5674788918
 20
37.9280600366
 30
0.0
 10
6.56129844
 20
37.9280600366
 30
0.0
  0
ENDSEC
  0
SECTION
  2
OBJECTS
  0
DICTIONARY
  5
C
100
AcDbDictionary
280
0
281
1
  3
ACAD_GROUP
350
D
  3
ACAD_MLINESTYLE
350
17
  3
ACAD_LAYOUT
350
1A
  3
ACAD_PLOTSETTINGS
350
19
  3
ACAD_PLOTSTYLENAME
350
E
  0
DICTIONARY
  5
D
102
{ACAD_REACTORS
330
C
102
}
100
AcDbDictionary
280
0
281
1
  0
ACDBDICTIONARYWDFLT
  5
E
102
{ACAD_REACTORS
330
C
102
}
100
AcDbDictionary
281
1
  3
Normal
350
F
100
AcDbDictionaryWithDefault
340
F
  0
DICTIONARY
  5
17
102
{ACAD_REACTORS
330
C
102
}
100
AcDbDictionary
280
0
281
1
  3
Standard
350
18
  0
DICTIONARY
  5
19
102
{ACAD_REACTORS
330
C
102
}
100
AcDbDictionary
281
1
  0
DICTIONARY
  5
1A
102
{ACAD_REACTORS
330
C
102
}
100
AcDbDictionary
281
1
  3
Model
350
250
  3
Layout1
350
251
  0
ACDBPLACEHOLDER
  5
F
102
{ACAD_REACTORS
330
E
102
}
  0
MLINESTYLE
  5
18
102
{ACAD_REACTORS
330
17
102
}
100
AcDbMlineStyle
  2
STANDARD
 70
0
  3

 62
256
 51
90.0
 52
90.0
 71
2
 49
0.5
 62
256
  6
BYLAYER
 49
-0.5
 62
256
  6
BYLAYER
  0
LAYOUT
  5
250
102
{ACAD_REACTORS
330
1A
102
}
100
AcDbPlotSettings
  1

  2
none_device
  4

  6

 40
0.0
 41
0.0
 42
0.0
 43
0.0
 44
210.0
 45
297.0
 46
0.0
 47
0.0
 48
0.0
 49
0.0
140
0.0
141
0.0
142
1.0
143
1.0
 70
1024
 72
1
 73
0
 74
0
  7

 75
0
147
1.0
148
0.0
149
0.0
100
AcDbLayout
  1
Model
 70
0
 71
0
 10
0.0
 20
0.0
 11
210.0
 21
297.0
 12
0.0
 22
0.0
 32
0.0
 14
0.0
 24
0.0
 34
0.0
 15
0.0
 25
0.0
 35
0.0
146
0.0
 13
0.0
 23
0.0
 33
0.0
 16
1.0
 26
0.0
 36
0.0
 17
0.0
 27
1.0
 37
0.0
 76
0
330
210
345
0
346
0
  0
LAYOUT
  5
251
102
{ACAD_REACTORS
330
1A
102
}
100
AcDbPlotSettings
  1

  2
none_device
  4

  6

 40
0.0
 41
0.0
 42
0.0
 43
0.0
 44
210.0
 45
297.0
 46
0.0
 47
0.0
 48
0.0
 49
0.0
140
0.0
141
0.0
142
1.0
143
1.0
 70
0
 72
1
 73
0
 74
0
  7

 75
0
147
1.0
148
0.0
149
0.0
100
AcDbLayout
  1
Layout1
 70
0
 71
1
 10
0.0
 20
0.0
 11
210.0
 21
297.0
 12
0.0
 22
0.0
 32
0.0
 14
0.0
 24
0.0
 34
0.0
 15
0.0
 25
0.0
 35
0.0
146
0.0
 13
0.0
 23
0.0
 33
0.0
 16
1.0
 26
0.0
 36
0.0
 17
0.0
 27
1.0
 37
0.0
 76
0
330
211
345
0
346
0
  0
ENDSEC
  0
EOF
