999
DXF file: C:\Users\sesa63760\Dev\_Creo\CAD\MCADPD0004085_3D-CAD\drw0001_1.dxf
999
Pro/ENGINEER 2019471 by Parametric Technology Corporation
  0
SECTION
  2
HEADER
  9
$ACADVER
  1
AC1024
  9
$DWGCODEPAGE
  3
ANSI_1252
  9
$EXTMAX
 10
48.4636842982
 20
68.5414963646
 30
0.0
  9
$EXTMIN
 10
0.0
 20
0.0
 30
0.0
  9
$LIMMIN
 10
0.0
 20
0.0
  9
$LIMMAX
 10
48.4636842982
 20
68.5414963646
  9
$VIEWCTR
 10
24.2318421491
 20
34.2707481823
  9
$VIEWSIZE
 40
68.5414963646
  9
$CLAYER
  8
0
  9
$LTSCALE
 40
4.4678901334
  9
$CELTYPE
  6
BYLAYER
  9
$DIMSCALE
 40
1.0
  9
$DIMASZ
 40
0.5769486226
  9
$DIMEXO
 40
1.0
  9
$DIMDLI
 40
3.0869059103
  9
$DIMEXE
 40
1.0
  9
$DIMCEN
 40
0.7311092946
  9
$DIMLFAC
 40
1.0
  9
$DIMBLK
  1
_FILLED
  9
$DIMALT
 70
0
  9
$DIMALTF
 40
0.0393700787
  9
$DIMTXT
 40
0.8077280716
  9
$DIMTOL
 70
1
  9
$DIMLIM
 70
0
  9
$DIMTFAC
 40
1.0
  9
$DIMTP
 40
0.01
  9
$DIMTM
 40
0.01
  9
$DIMGAP
 40
0.625
  9
$DIMDSEP
 70
46
  9
$AUNITS
 70
0
  9
$PDMODE
 70
3
  9
$PDSIZE
 40
0.3125
  9
$HANDSEED
  5
316
  9
$TILEMODE
 70
1
  9
$MEASUREMENT
 70
1
  9
$INSUNITS
 70
4
  0
ENDSEC
  0
SECTION
  2
CLASSES
  0
CLASS
  1
ACDBDICTIONARYWDFLT
  2
AcDbDictionaryWithDefault
  3
AutoCAD 2000
 90
0
 91
1
280
0
281
0
  0
CLASS
  1
ACDBPLACEHOLDER
  2
AcDbPlaceHolder
  3
AutoCAD 2000
 90
0
 91
1
280
0
281
0
  0
CLASS
  1
LAYOUT
  2
AcDbLayout
  3
AutoCAD 2000
 90
0
 91
0
280
0
281
0
  0
ENDSEC
  0
SECTION
  2
TABLES
  0
TABLE
  2
VPORT
  5
8
100
AcDbSymbolTable
 70
2
  0
VPORT
  5
1F4
100
AcDbSymbolTableRecord
100
AcDbViewportTableRecord
  2
*ACTIVE
 70
0
 10
0.0
 20
0.0
 11
1.0
 21
1.0
 12
24.2318421491
 22
34.2707481823
 13
0.0
 23
0.0
 14
1.0
 24
1.0
 15
0.0
 25
0.0
 16
0.0
 26
0.0
 36
1.0
 17
0.0
 27
0.0
 37
0.0
 40
68.5414963646
 41
0.7070707071
 42
50.0
 43
0.0
 44
0.0
 50
0.0
 51
0.0
 71
0
 72
100
 73
1
 74
1
 75
0
 76
0
 77
0
 78
0
  0
ENDTAB
  0
TABLE
  2
LTYPE
  5
5
100
AcDbSymbolTable
 70
6
  0
LTYPE
  5
14
100
AcDbSymbolTableRecord
100
AcDbLinetypeTableRecord
  2
BYBLOCK
 70
0
  3

 72
65
 73
0
 40
0.0
  0
LTYPE
  5
15
100
AcDbSymbolTableRecord
100
AcDbLinetypeTableRecord
  2
BYLAYER
 70
0
  3

 72
65
 73
0
 40
0.0
  0
LTYPE
  5
16
100
AcDbSymbolTableRecord
100
AcDbLinetypeTableRecord
  2
CONTINUOUS
 70
64
  3
Solid line
 72
65
 73
0
 40
0.0
  0
LTYPE
  5
1F5
100
AcDbSymbolTableRecord
100
AcDbLinetypeTableRecord
  2
CENTER
 70
64
  3
____ _ ____ _ ____ _ ____ _ ____ _ ____ _ ____
 72
65
 73
4
 40
0.6
 49
0.375
 74
0
 49
-0.075
 74
0
 49
0.075
 74
0
 49
-0.075
 74
0
  0
LTYPE
  5
1F6
100
AcDbSymbolTableRecord
100
AcDbLinetypeTableRecord
  2
HIDDEN
 70
64
  3
- - - - - - - - - - - - - - - - - - - -
 72
65
 73
2
 40
0.2
 49
0.1
 74
0
 49
-0.1
 74
0
  0
LTYPE
  5
1F7
100
AcDbSymbolTableRecord
100
AcDbLinetypeTableRecord
  2
PHANTOM
 70
64
  3
_____ _ _ _____ _ _ _____ _ _ _____
 72
65
 73
6
 40
0.8
 49
0.45
 74
0
 49
-0.05
 74
0
 49
0.1
 74
0
 49
-0.05
 74
0
 49
0.1
 74
0
 49
-0.05
 74
0
  0
LTYPE
  5
1F8
100
AcDbSymbolTableRecord
100
AcDbLinetypeTableRecord
  2
DOT
 70
64
  3
. . . . . . . . . . . . . . . . . . . .
 72
65
 73
2
 40
0.2
 49
0.1
 74
0
 49
-0.1
 74
0
  0
LTYPE
  5
1F9
100
AcDbSymbolTableRecord
100
AcDbLinetypeTableRecord
  2
DASHED
 70
64
  3
- - - - - - - - - - - - - - - - - - - -
 72
65
 73
2
 40
0.2
 49
0.1
 74
0
 49
-0.1
 74
0
  0
ENDTAB
  0
TABLE
  2
LAYER
  5
2
100
AcDbSymbolTable
 70
36
  0
LAYER
  5
10
100
AcDbSymbolTableRecord
100
AcDbLayerTableRecord
  2
0
 70
0
 62
7
  6
CONTINUOUS
370
-3
390
F
  0
LAYER
  5
1FA
100
AcDbSymbolTableRecord
100
AcDbLayerTableRecord
  2
DEFAULT_1
 70
0
 62
7
  6
CENTER
370
-3
390
F
  0
LAYER
  5
1FB
100
AcDbSymbolTableRecord
100
AcDbLayerTableRecord
  2
DEFAULT_2
 70
0
 62
7
  6
HIDDEN
370
-3
390
F
  0
LAYER
  5
1FC
100
AcDbSymbolTableRecord
100
AcDbLayerTableRecord
  2
DEFAULT_3
 70
0
 62
7
  6
PHANTOM
370
-3
390
F
  0
LAYER
  5
1FD
100
AcDbSymbolTableRecord
100
AcDbLayerTableRecord
  2
00_COMPONENTS
 70
0
 62
7
  6
CONTINUOUS
370
-3
390
F
  0
LAYER
  5
1FE
100
AcDbSymbolTableRecord
100
AcDbLayerTableRecord
  2
00_COMPONENTS_1
 70
0
 62
7
  6
CONTINUOUS
370
-3
390
F
  0
LAYER
  5
1FF
100
AcDbSymbolTableRecord
100
AcDbLayerTableRecord
  2
01_1_DEFAULT_DATUMS
 70
0
 62
7
  6
CONTINUOUS
370
-3
390
F
  0
LAYER
  5
200
100
AcDbSymbolTableRecord
100
AcDbLayerTableRecord
  2
01_PLANES
 70
0
 62
7
  6
CONTINUOUS
370
-3
390
F
  0
LAYER
  5
201
100
AcDbSymbolTableRecord
100
AcDbLayerTableRecord
  2
02_COORD_SYS
 70
0
 62
7
  6
CONTINUOUS
370
-3
390
F
  0
LAYER
  5
202
100
AcDbSymbolTableRecord
100
AcDbLayerTableRecord
  2
03_AXES
 70
0
 62
7
  6
CONTINUOUS
370
-3
390
F
  0
LAYER
  5
203
100
AcDbSymbolTableRecord
100
AcDbLayerTableRecord
  2
03_AXES_1
 70
0
 62
7
  6
CONTINUOUS
370
-3
390
F
  0
LAYER
  5
204
100
AcDbSymbolTableRecord
100
AcDbLayerTableRecord
  2
04_POINTS
 70
0
 62
7
  6
CONTINUOUS
370
-3
390
F
  0
LAYER
  5
205
100
AcDbSymbolTableRecord
100
AcDbLayerTableRecord
  2
05_CURVES
 70
0
 62
7
  6
CONTINUOUS
370
-3
390
F
  0
LAYER
  5
206
100
AcDbSymbolTableRecord
100
AcDbLayerTableRecord
  2
06_SURFS
 70
0
 62
7
  6
CONTINUOUS
370
-3
390
F
  0
LAYER
  5
207
100
AcDbSymbolTableRecord
100
AcDbLayerTableRecord
  2
07_COSMETICS
 70
0
 62
7
  6
CONTINUOUS
370
-3
390
F
  0
LAYER
  5
208
100
AcDbSymbolTableRecord
100
AcDbLayerTableRecord
  2
10_NOTES
 70
0
 62
7
  6
CONTINUOUS
370
-3
390
F
  0
LAYER
  5
209
100
AcDbSymbolTableRecord
100
AcDbLayerTableRecord
  2
11_NOTES_PUB
 70
0
 62
7
  6
CONTINUOUS
370
-3
390
F
  0
LAYER
  5
20A
100
AcDbSymbolTableRecord
100
AcDbLayerTableRecord
  2
13_REF_GTOL
 70
0
 62
7
  6
CONTINUOUS
370
-3
390
F
  0
LAYER
  5
20B
100
AcDbSymbolTableRecord
100
AcDbLayerTableRecord
  2
16_MISC
 70
0
 62
7
  6
CONTINUOUS
370
-3
390
F
  0
LAYER
  5
20C
100
AcDbSymbolTableRecord
100
AcDbLayerTableRecord
  2
17_NO_PRINT
 70
0
 62
7
  6
CONTINUOUS
370
-3
390
F
  0
LAYER
  5
20D
100
AcDbSymbolTableRecord
100
AcDbLayerTableRecord
  2
18_DATUM_CAMS_JOINTS
 70
0
 62
7
  6
CONTINUOUS
370
-3
390
F
  0
LAYER
  5
20E
100
AcDbSymbolTableRecord
100
AcDbLayerTableRecord
  2
19_DATUM_FUNCTIONAL
 70
0
 62
7
  6
CONTINUOUS
370
-3
390
F
  0
LAYER
  5
20F
100
AcDbSymbolTableRecord
100
AcDbLayerTableRecord
  2
20_DATUM_KINEMATIC_SCHEME
 70
0
 62
7
  6
CONTINUOUS
370
-3
390
F
  0
LAYER
  5
210
100
AcDbSymbolTableRecord
100
AcDbLayerTableRecord
  2
INTF_BLANK
 70
0
 62
7
  6
CONTINUOUS
370
-3
390
F
  0
LAYER
  5
211
100
AcDbSymbolTableRecord
100
AcDbLayerTableRecord
  2
INTF_YELLOW
 70
0
 62
7
  6
CONTINUOUS
370
-3
390
F
  0
LAYER
  5
212
100
AcDbSymbolTableRecord
100
AcDbLayerTableRecord
  2
_BLACK_HOLE
 70
0
 62
7
  6
CONTINUOUS
370
-3
390
F
  0
ENDTAB
  0
TABLE
  2
STYLE
  5
3
100
AcDbSymbolTable
 70
1
  0
STYLE
  5
11
100
AcDbSymbolTableRecord
100
AcDbTextStyleTableRecord
  2
STANDARD
 70
0
 40
0.0
 41
1.0
 50
0.0
 71
0
 42
0.2
  3
ARIAL.TTF
  4

  0
STYLE
  5
213
100
AcDbSymbolTableRecord
100
AcDbTextStyleTableRecord
  2
TEXTSTYLE_1
 70
0
 40
0.0
 41
0.8
 50
0.0
 71
0
 42
0.2
  3
gdt
  4

  0
ENDTAB
  0
TABLE
  2
VIEW
  5
6
100
AcDbSymbolTable
 70
0
  0
ENDTAB
  0
TABLE
  2
UCS
  5
7
100
AcDbSymbolTable
 70
0
  0
ENDTAB
  0
TABLE
  2
APPID
  5
9
100
AcDbSymbolTable
 70
1
  0
APPID
  5
214
100
AcDbSymbolTableRecord
100
AcDbRegAppTableRecord
  2
ACAD
 70
0
  0
ENDTAB
  0
TABLE
  2
BLOCK_RECORD
  5
1
100
AcDbSymbolTable
 70
0
  0
BLOCK_RECORD
  5
215
100
AcDbSymbolTableRecord
100
AcDbBlockTableRecord
  2
*Model_Space
  0
BLOCK_RECORD
  5
216
100
AcDbSymbolTableRecord
100
AcDbBlockTableRecord
  2
*Paper_Space
  0
BLOCK_RECORD
  5
217
100
AcDbSymbolTableRecord
100
AcDbBlockTableRecord
  2
_FILLED
  0
ENDTAB
  0
TABLE
  2
DIMSTYLE
  5
A
100
AcDbSymbolTable
 70
1
100
AcDbDimStyleTable
 71
0
  0
DIMSTYLE
105
218
100
AcDbSymbolTableRecord
100
AcDbDimStyleTableRecord
  2
STANDARD
 70
0
  3

  4

 40
1.0
 41
0.5769486226
 42
1.0
 43
0.38
 44
1.0
 45
0.0
 46
0.0
 47
0.01
 48
0.01
140
0.8077280716
141
0.09
142
0.0
143
25.4
144
1.0
145
0.0
146
1.0
147
0.625
 71
1
 72
0
 73
0
 74
0
 75
0
 76
0
 77
1
 78
8
 79
2
170
0
171
1
172
0
173
0
174
0
175
0
176
0
177
0
178
0
270
2
179
2
271
2
272
2
273
2
274
2
275
0
280
0
281
0
282
0
283
1
284
8
285
0
286
0
287
3
288
0
340
11
278
46
341
217
342
217
343
217
344
217
  0
ENDTAB
  0
ENDSEC
  0
SECTION
  2
BLOCKS
  0
BLOCK
  5
20
100
AcDbEntity
  8
0
100
AcDbBlockBegin
  2
*Model_Space
 70
0
 10
0.0
 20
0.0
 30
0.0
  3
*Model_Space
  1

  0
ENDBLK
  5
21
100
AcDbEntity
  8
0
100
AcDbBlockEnd
  0
BLOCK
  5
1C
100
AcDbEntity
  8
0
100
AcDbBlockBegin
  2
*Paper_Space
 70
0
 10
0.0
 20
0.0
 30
0.0
  3
*Paper_Space
  1

  0
ENDBLK
  5
1D
100
AcDbEntity
  8
0
100
AcDbBlockEnd
  0
BLOCK
  5
219
100
AcDbEntity
  8
0
100
AcDbBlockBegin
  2
_FILLED
 70
64
 10
0.0
 20
0.0
  3
_FILLED
  1

  0
SOLID
  5
21A
100
AcDbEntity
  8
0
  6
BYBLOCK
 62
0
100
AcDbTrace
 10
0.0
 20
0.0
 11
-1.0
 21
0.25
 12
-1.0
 22
-0.25
 13
-1.0
 23
-0.25
  0
ENDBLK
  5
21B
100
AcDbEntity
  8
0
  6
BYBLOCK
 62
0
100
AcDbBlockEnd
  0
ENDSEC
  0
SECTION
  2
ENTITIES
  0
LINE
  5
21C
100
AcDbEntity
  8
00_COMPONENTS_1
100
AcDbLine
 62
7
  6
BYLAYER
 10
8.4861240447
 20
53.923692555
 11
12.233774382
 21
56.0873865705
  0
LINE
  5
21D
100
AcDbEntity
  8
00_COMPONENTS_1
100
AcDbLine
 62
7
  6
BYLAYER
 10
11.950961698
 20
51.9233128578
 11
15.6986120352
 21
54.0870068733
  0
LINE
  5
21E
100
AcDbEntity
  8
00_COMPONENTS_1
100
AcDbLine
 62
7
  6
BYLAYER
 10
7.5668890564
 20
49.0655123441
 11
8.4861240447
 21
49.5962297442
  0
LINE
  5
21F
100
AcDbEntity
  8
00_COMPONENTS_1
100
AcDbLine
 62
7
  6
BYLAYER
 10
5.6223449665
 20
30.7880997494
 11
5.6223449665
 21
40.8800696251
  0
LINE
  5
220
100
AcDbEntity
  8
00_COMPONENTS_1
100
AcDbLine
 62
7
  6
BYLAYER
 10
15.6986120352
 20
51.1884232925
 11
11.950961698
 21
49.024729277
  0
LINE
  5
221
100
AcDbEntity
  8
00_COMPONENTS_1
100
AcDbLine
 62
7
  6
BYLAYER
 10
6.5415799549
 20
41.4107870252
 11
6.5415799549
 21
42.9948017144
  0
LINE
  5
222
100
AcDbEntity
  8
00_COMPONENTS_1
100
AcDbLine
 62
7
  6
BYLAYER
 10
6.5415893756
 20
33.3519361821
 11
6.5415893756
 21
36.7649162857
  0
LINE
  5
223
100
AcDbEntity
  8
00_COMPONENTS_1
100
AcDbLine
 62
7
  6
BYLAYER
 10
7.3194100733
 20
36.061198866
 11
7.3194100733
 21
33.1575239418
  0
LINE
  5
224
100
AcDbEntity
  8
00_COMPONENTS_1
100
AcDbLine
 62
7
  6
BYLAYER
 10
7.5315412244
 20
35.9387276594
 11
7.5315412244
 21
33.279997188
  0
LINE
  5
225
100
AcDbEntity
  8
00_COMPONENTS_1
100
AcDbLine
 62
7
  6
BYLAYER
 10
15.52186581
 20
49.8616970475
 11
15.9839959203
 21
50.1285063984
  0
LINE
  5
226
100
AcDbEntity
  8
00_COMPONENTS_1
100
AcDbLine
 62
7
  6
BYLAYER
 10
18.7695182289
 20
51.7367188534
 11
19.2695161472
 21
52.025391063
  0
LINE
  5
227
100
AcDbEntity
  8
00_COMPONENTS_1
100
AcDbLine
 62
7
  6
BYLAYER
 10
7.5668890564
 20
49.0655123441
 11
7.5668890564
 21
42.4028526204
  0
LINE
  5
228
100
AcDbEntity
  8
00_COMPONENTS_1
100
AcDbLine
 62
7
  6
BYLAYER
 10
8.3093636885
 20
32.5859868855
 11
8.3093636885
 21
35.4896618097
  0
LINE
  5
229
100
AcDbEntity
  8
00_COMPONENTS_1
100
AcDbLine
 62
7
  6
BYLAYER
 10
8.4861240447
 20
49.5962297442
 11
8.4861240447
 21
53.923692555
  0
LINE
  5
22A
100
AcDbEntity
  8
00_COMPONENTS_1
100
AcDbLine
 62
7
  6
BYLAYER
 10
8.4861316991
 20
41.5373736485
 11
8.4861316991
 21
43.9378907548
  0
LINE
  5
22B
100
AcDbEntity
  8
00_COMPONENTS_1
100
AcDbLine
 62
7
  6
BYLAYER
 10
9.3920005654
 20
43.4148989527
 11
9.3920005654
 21
41.0143818463
  0
LINE
  5
22C
100
AcDbEntity
  8
00_COMPONENTS_1
100
AcDbLine
 62
7
  6
BYLAYER
 10
16.5825303977
 20
49.2493359157
 11
17.044660508
 21
49.5161452667
  0
LINE
  5
22D
100
AcDbEntity
  8
00_COMPONENTS_1
100
AcDbLine
 62
7
  6
BYLAYER
 10
19.8301828166
 20
51.1243577216
 11
20.3301807349
 21
51.4130299312
  0
LINE
  5
22E
100
AcDbEntity
  8
00_COMPONENTS_1
100
AcDbLine
 62
7
  6
BYLAYER
 10
18.56241231
 20
50.1882676791
 11
17.2214547957
 21
49.4140701186
  0
LINE
  5
22F
100
AcDbEntity
  8
00_COMPONENTS_1
100
AcDbLine
 62
7
  6
BYLAYER
 10
6.5415799549
 20
42.9948017144
 11
7.5668890564
 21
43.5867606666
  0
LINE
  5
230
100
AcDbEntity
  8
00_COMPONENTS_1
100
AcDbLine
 62
7
  6
BYLAYER
 10
19.6230768977
 20
49.5759065474
 11
17.2896342349
 21
48.2287008396
  0
LINE
  5
231
100
AcDbEntity
  8
00_COMPONENTS_1
100
AcDbLine
 62
7
  6
BYLAYER
 10
6.5415799549
 20
41.4107870252
 11
5.6223449665
 21
40.8800696251
  0
LINE
  5
232
100
AcDbEntity
  8
00_COMPONENTS_1
100
AcDbLine
 62
7
  6
BYLAYER
 10
10.0771380013
 20
34.7237125131
 11
10.0771380013
 21
31.3107324095
  0
LINE
  5
233
100
AcDbEntity
  8
00_COMPONENTS_1
100
AcDbLine
 62
7
  6
BYLAYER
 10
10.2892691525
 20
34.8461857593
 11
10.2892691525
 21
31.4332056557
  0
LINE
  5
234
100
AcDbEntity
  8
00_COMPONENTS_1
100
AcDbLine
 62
7
  6
BYLAYER
 10
18.7695182289
 20
51.7367188534
 11
18.56241231
 21
51.377998888
  0
LINE
  5
235
100
AcDbEntity
  8
00_COMPONENTS_1
100
AcDbLine
 62
7
  6
BYLAYER
 10
20.3301807349
 20
48.5144463504
 11
16.5825303977
 21
46.3507523349
  0
LINE
  5
236
100
AcDbEntity
  8
00_COMPONENTS_1
100
AcDbLine
 62
7
  6
BYLAYER
 10
9.3920005654
 20
42.0603741604
 11
8.4861316991
 21
41.5373736485
  0
LINE
  5
237
100
AcDbEntity
  8
00_COMPONENTS_1
100
AcDbLine
 62
7
  6
BYLAYER
 10
11.950961698
 20
49.024729277
 11
11.950961698
 21
51.9233128578
  0
LINE
  5
238
100
AcDbEntity
  8
00_COMPONENTS_1
100
AcDbLine
 62
7
  6
BYLAYER
 10
12.6580867317
 20
30.2860547806
 11
12.6580867317
 21
26.726104242
  0
LINE
  5
239
100
AcDbEntity
  8
00_COMPONENTS_1
100
AcDbLine
 62
7
  6
BYLAYER
 10
12.6580867317
 20
33.258123579
 11
12.6580867317
 21
36.8180741177
  0
LINE
  5
23A
100
AcDbEntity
  8
00_COMPONENTS_1
100
AcDbLine
 62
7
  6
BYLAYER
 10
19.6230768977
 20
50.7656377562
 11
19.8301828166
 21
51.1243577216
  0
LINE
  5
23B
100
AcDbEntity
  8
00_COMPONENTS_1
100
AcDbLine
 62
7
  6
BYLAYER
 10
37.0887277356
 20
12.6213861733
 11
30.0529859703
 21
16.6833816808
  0
LINE
  5
23C
100
AcDbEntity
  8
00_COMPONENTS_1
100
AcDbLine
 62
7
  6
BYLAYER
 10
24.3961081692
 20
19.9493077169
 11
18.3149645329
 21
23.4601782058
  0
LINE
  5
23D
100
AcDbEntity
  8
00_COMPONENTS_1
100
AcDbLine
 62
7
  6
BYLAYER
 10
12.6580867317
 20
26.726104242
 11
5.6223449665
 21
30.7880997494
  0
LINE
  5
23E
100
AcDbEntity
  8
00_COMPONENTS_1
100
AcDbLine
 62
7
  6
BYLAYER
 10
30.0529859703
 20
17.7448076425
 11
25.3153431576
 21
20.4800251169
  0
LINE
  5
23F
100
AcDbEntity
  8
00_COMPONENTS_1
100
AcDbLine
 62
7
  6
BYLAYER
 10
18.3149645329
 20
24.5216041676
 11
13.5773217201
 21
27.256821642
  0
LINE
  5
240
100
AcDbEntity
  8
00_COMPONENTS_1
100
AcDbLine
 62
7
  6
BYLAYER
 10
23.3354435815
 20
21.7864224744
 11
19.3756291206
 21
24.0725706997
  0
LINE
  5
241
100
AcDbEntity
  8
00_COMPONENTS_1
100
AcDbLine
 62
7
  6
BYLAYER
 10
13.5773217201
 20
37.3487915177
 11
13.5773217201
 21
34.7824051627
  0
LINE
  5
242
100
AcDbEntity
  8
00_COMPONENTS_1
100
AcDbLine
 62
7
  6
BYLAYER
 10
13.5773217201
 20
27.256821642
 11
13.5773217201
 21
29.7553462189
  0
LINE
  5
243
100
AcDbEntity
  8
00_COMPONENTS_1
100
AcDbLine
 62
7
  6
BYLAYER
 10
14.3551500721
 20
33.5357594905
 11
14.3551500721
 21
32.2783457681
  0
LINE
  5
244
100
AcDbEntity
  8
00_COMPONENTS_1
100
AcDbLine
 62
7
  6
BYLAYER
 10
14.3551500721
 20
29.3062769698
 11
14.3551500721
 21
28.0488632474
  0
LINE
  5
245
100
AcDbEntity
  8
00_COMPONENTS_1
100
AcDbLine
 62
7
  6
BYLAYER
 10
6.5415893756
 20
36.7649162857
 11
6.7537205268
 21
36.8873895319
  0
LINE
  5
246
100
AcDbEntity
  8
00_COMPONENTS_1
100
AcDbLine
 62
7
  6
BYLAYER
 10
30.0529859703
 20
24.7388594501
 11
29.2043997497
 21
24.738099563
  0
LINE
  5
247
100
AcDbEntity
  8
00_COMPONENTS_1
100
AcDbLine
 62
7
  6
BYLAYER
 10
23.3354435815
 20
22.8478484362
 11
20.294864109
 21
24.6032880997
  0
LINE
  5
248
100
AcDbEntity
  8
00_COMPONENTS_1
100
AcDbLine
 62
7
  6
BYLAYER
 10
14.3551500721
 20
28.0488632474
 11
16.6179011926
 21
26.7424928329
  0
LINE
  5
249
100
AcDbEntity
  8
00_COMPONENTS_1
100
AcDbLine
 62
7
  6
BYLAYER
 10
26.0931715095
 20
21.2720667224
 11
28.35592263
 21
19.9656963079
  0
LINE
  5
24A
100
AcDbEntity
  8
00_COMPONENTS_1
100
AcDbLine
 62
7
  6
BYLAYER
 10
35.7452210242
 20
16.4915930204
 11
32.2096723984
 21
18.532796793
  0
LINE
  5
24B
100
AcDbEntity
  8
00_COMPONENTS_1
100
AcDbLine
 62
7
  6
BYLAYER
 10
10.0771380013
 20
31.3107324095
 11
6.5415893756
 21
33.3519361821
  0
LINE
  5
24C
100
AcDbEntity
  8
00_COMPONENTS_1
100
AcDbLine
 62
7
  6
BYLAYER
 10
7.3194100733
 20
33.1575239418
 11
8.3093636885
 21
32.5859868855
  0
LINE
  5
24D
100
AcDbEntity
  8
00_COMPONENTS_1
100
AcDbLine
 62
7
  6
BYLAYER
 10
33.9774467113
 20
17.7668474964
 11
34.9674003265
 21
17.1953104401
  0
LINE
  5
24E
100
AcDbEntity
  8
00_COMPONENTS_1
100
AcDbLine
 62
7
  6
BYLAYER
 10
12.6580867317
 20
30.2860547806
 11
14.3551500721
 21
29.3062769698
  0
LINE
  5
24F
100
AcDbEntity
  8
00_COMPONENTS_1
100
AcDbLine
 62
7
  6
BYLAYER
 10
16.6179011926
 20
27.9999065553
 11
18.3149645329
 21
27.0201287445
  0
LINE
  5
250
100
AcDbEntity
  8
00_COMPONENTS_1
100
AcDbLine
 62
7
  6
BYLAYER
 10
24.3961081692
 20
23.5092582556
 11
26.0931715095
 21
22.5294804447
  0
LINE
  5
251
100
AcDbEntity
  8
00_COMPONENTS_1
100
AcDbLine
 62
7
  6
BYLAYER
 10
28.35592263
 20
21.2231100303
 11
30.0529859703
 21
20.2433322194
  0
LINE
  5
252
100
AcDbEntity
  8
00_COMPONENTS_1
100
AcDbLine
 62
7
  6
BYLAYER
 10
7.5315412244
 20
33.279997188
 11
8.3093636885
 21
32.8309313382
  0
LINE
  5
253
100
AcDbEntity
  8
00_COMPONENTS_1
100
AcDbLine
 62
7
  6
BYLAYER
 10
34.1895778625
 20
17.8893207426
 11
34.9674003265
 21
17.4402548928
  0
LINE
  5
254
100
AcDbEntity
  8
00_COMPONENTS_1
100
AcDbLine
 62
7
  6
BYLAYER
 10
15.52186581
 20
49.8616970475
 11
15.52186581
 21
46.9631134667
  0
LINE
  5
255
100
AcDbEntity
  8
00_COMPONENTS_1
100
AcDbLine
 62
7
  6
BYLAYER
 10
15.6986120352
 20
51.1884232925
 11
15.6986120352
 21
54.0870068733
  0
LINE
  5
256
100
AcDbEntity
  8
00_COMPONENTS_1
100
AcDbLine
 62
7
  6
BYLAYER
 10
16.5825303977
 20
46.3507523349
 11
16.5825303977
 21
49.2493359157
  0
LINE
  5
257
100
AcDbEntity
  8
00_COMPONENTS_1
100
AcDbLine
 62
7
  6
BYLAYER
 10
16.6179011926
 20
26.7424928329
 11
16.6179011926
 21
27.9999065553
  0
LINE
  5
258
100
AcDbEntity
  8
00_COMPONENTS_1
100
AcDbLine
 62
7
  6
BYLAYER
 10
16.6179011926
 20
30.9719753537
 11
16.6179011926
 21
32.2293890761
  0
LINE
  5
259
100
AcDbEntity
  8
00_COMPONENTS_1
100
AcDbLine
 62
7
  6
BYLAYER
 10
16.6988207777
 20
34.2810552202
 11
16.6988207777
 21
34.2562803298
  0
LINE
  5
25A
100
AcDbEntity
  8
00_COMPONENTS_1
100
AcDbLine
 62
7
  6
BYLAYER
 10
12.6580867317
 20
36.8180741177
 11
13.5773217201
 21
37.3487915177
  0
LINE
  5
25B
100
AcDbEntity
  8
00_COMPONENTS_1
100
AcDbLine
 62
7
  6
BYLAYER
 10
23.8304006645
 20
42.7786482823
 11
25.7564696778
 21
43.8906581079
  0
LINE
  5
25C
100
AcDbEntity
  8
00_COMPONENTS_1
100
AcDbLine
 62
7
  6
BYLAYER
 10
7.3194100733
 20
33.1575239418
 11
7.5315412244
 21
33.279997188
  0
LINE
  5
25D
100
AcDbEntity
  8
00_COMPONENTS_1
100
AcDbLine
 62
7
  6
BYLAYER
 10
10.0771380013
 20
34.7237125131
 11
10.2892691525
 21
34.8461857593
  0
LINE
  5
25E
100
AcDbEntity
  8
00_COMPONENTS_1
100
AcDbLine
 62
7
  6
BYLAYER
 10
28.9184927032
 20
26.1075777265
 11
30.0529859703
 21
26.1085936361
  0
LINE
  5
25F
100
AcDbEntity
  8
00_COMPONENTS_1
100
AcDbLine
 62
7
  6
BYLAYER
 10
14.5558583034
 20
33.6516377502
 11
13.5773217201
 21
34.7824051627
  0
LINE
  5
260
100
AcDbEntity
  8
00_COMPONENTS_1
100
AcDbLine
 62
7
  6
BYLAYER
 10
17.2896342349
 20
48.2287008396
 11
17.2896342349
 21
49.3747055756
  0
LINE
  5
261
100
AcDbEntity
  8
00_COMPONENTS_1
100
AcDbLine
 62
7
  6
BYLAYER
 10
17.4664257972
 20
31.4618683383
 11
17.4664257972
 21
32.7192820607
  0
LINE
  5
262
100
AcDbEntity
  8
00_COMPONENTS_1
100
AcDbLine
 62
7
  6
BYLAYER
 10
17.5371361809
 20
27.273210233
 11
17.5371361809
 21
27.4691979936
  0
LINE
  5
263
100
AcDbEntity
  8
00_COMPONENTS_1
100
AcDbLine
 62
7
  6
BYLAYER
 10
18.3149645329
 20
27.0201287445
 11
18.3149645329
 21
23.4601782058
  0
LINE
  5
264
100
AcDbEntity
  8
00_COMPONENTS_1
100
AcDbLine
 62
7
  6
BYLAYER
 10
18.3149645329
 20
29.9921975428
 11
18.3149645329
 21
33.5521480815
  0
LINE
  5
265
100
AcDbEntity
  8
00_COMPONENTS_1
100
AcDbLine
 62
7
  6
BYLAYER
 10
18.56241231
 20
51.377998888
 11
18.56241231
 21
50.1882676791
  0
LINE
  5
266
100
AcDbEntity
  8
00_COMPONENTS_1
100
AcDbLine
 62
7
  6
BYLAYER
 10
24.5375226089
 20
42.3704004732
 11
25.7723246943
 21
43.0833095342
  0
LINE
  5
267
100
AcDbEntity
  8
00_COMPONENTS_1
100
AcDbLine
 62
7
  6
BYLAYER
 10
27.5427075857
 20
43.2889602734
 11
25.2446201148
 21
41.9621667733
  0
LINE
  5
268
100
AcDbEntity
  8
00_COMPONENTS_1
100
AcDbLine
 62
7
  6
BYLAYER
 10
34.9674003265
 20
20.0989853643
 11
33.9774467113
 21
20.6705224206
  0
LINE
  5
269
100
AcDbEntity
  8
00_COMPONENTS_1
100
AcDbLine
 62
7
  6
BYLAYER
 10
8.3093636885
 20
35.4896618097
 11
7.3194100733
 21
36.061198866
  0
LINE
  5
26A
100
AcDbEntity
  8
00_COMPONENTS_1
100
AcDbLine
 62
7
  6
BYLAYER
 10
6.5415893756
 20
36.7649162857
 11
10.0771380013
 21
34.7237125131
  0
LINE
  5
26B
100
AcDbEntity
  8
00_COMPONENTS_1
100
AcDbLine
 62
7
  6
BYLAYER
 10
32.2096723984
 20
21.9457768966
 11
35.7452210242
 21
19.904573124
  0
LINE
  5
26C
100
AcDbEntity
  8
00_COMPONENTS_1
100
AcDbLine
 62
7
  6
BYLAYER
 10
30.0529859703
 20
23.2154010178
 11
28.35592263
 21
24.1951788286
  0
LINE
  5
26D
100
AcDbEntity
  8
00_COMPONENTS_1
100
AcDbLine
 62
7
  6
BYLAYER
 10
26.0931715095
 20
25.5015492431
 11
24.3961081692
 21
26.481327054
  0
LINE
  5
26E
100
AcDbEntity
  8
00_COMPONENTS_1
100
AcDbLine
 62
7
  6
BYLAYER
 10
18.3149645329
 20
29.9921975428
 11
16.6179011926
 21
30.9719753537
  0
LINE
  5
26F
100
AcDbEntity
  8
00_COMPONENTS_1
100
AcDbLine
 62
7
  6
BYLAYER
 10
14.3551500721
 20
32.2783457681
 11
12.6580867317
 21
33.258123579
  0
LINE
  5
270
100
AcDbEntity
  8
00_COMPONENTS_1
100
AcDbLine
 62
7
  6
BYLAYER
 10
6.7537205268
 20
36.8873895319
 11
10.2892691525
 21
34.8461857593
  0
LINE
  5
271
100
AcDbEntity
  8
00_COMPONENTS_1
100
AcDbLine
 62
7
  6
BYLAYER
 10
32.4218035496
 20
22.0682501428
 11
35.9573521753
 21
20.0270463702
  0
LINE
  5
272
100
AcDbEntity
  8
00_COMPONENTS_1
100
AcDbLine
 62
7
  6
BYLAYER
 10
30.0529859703
 20
24.1951788287
 11
29.2044472347
 21
24.6850718133
  0
LINE
  5
273
100
AcDbEntity
  8
00_COMPONENTS_1
100
AcDbLine
 62
7
  6
BYLAYER
 10
26.0931715095
 20
26.481327054
 11
25.2446327738
 21
26.9712200386
  0
LINE
  5
274
100
AcDbEntity
  8
00_COMPONENTS_1
100
AcDbLine
 62
7
  6
BYLAYER
 10
18.3149645329
 20
30.9719753537
 11
17.4664257972
 21
31.4618683383
  0
LINE
  5
275
100
AcDbEntity
  8
00_COMPONENTS_1
100
AcDbLine
 62
7
  6
BYLAYER
 10
14.3551500721
 20
33.258123579
 11
13.5066113364
 21
33.7480165636
  0
LINE
  5
276
100
AcDbEntity
  8
00_COMPONENTS_1
100
AcDbLine
 62
7
  6
BYLAYER
 10
28.35592263
 20
25.452592551
 11
26.0931715095
 21
26.7589629655
  0
LINE
  5
277
100
AcDbEntity
  8
00_COMPONENTS_1
100
AcDbLine
 62
7
  6
BYLAYER
 10
16.6179011926
 20
32.2293890761
 11
14.3551500721
 21
33.5357594905
  0
LINE
  5
278
100
AcDbEntity
  8
00_COMPONENTS_1
100
AcDbLine
 62
7
  6
BYLAYER
 10
13.6965238675
 20
36.0143929362
 11
15.6310499756
 21
33.7789128133
  0
LINE
  5
279
100
AcDbEntity
  8
00_COMPONENTS_1
100
AcDbLine
 62
7
  6
BYLAYER
 10
19.3756291206
 20
24.0725706997
 11
19.3756291206
 21
31.715033324
  0
LINE
  5
27A
100
AcDbEntity
  8
00_COMPONENTS_1
100
AcDbLine
 62
7
  6
BYLAYER
 10
19.6230768977
 20
50.7656377562
 11
19.6230768977
 21
49.5759065474
  0
LINE
  5
27B
100
AcDbEntity
  8
00_COMPONENTS_1
100
AcDbLine
 62
7
  6
BYLAYER
 10
20.294864109
 20
24.6032880997
 11
20.294864109
 21
31.1843247623
  0
LINE
  5
27C
100
AcDbEntity
  8
00_COMPONENTS_1
100
AcDbLine
 62
7
  6
BYLAYER
 10
20.3301807349
 20
48.5144463504
 11
20.3301807349
 21
51.4130299312
  0
LINE
  5
27D
100
AcDbEntity
  8
00_COMPONENTS_1
100
AcDbLine
 62
7
  6
BYLAYER
 10
13.5066113364
 20
33.7480165636
 11
12.6580867317
 21
33.258123579
  0
LINE
  5
27E
100
AcDbEntity
  8
00_COMPONENTS_1
100
AcDbLine
 62
7
  6
BYLAYER
 10
10.0771380013
 20
31.3107324095
 11
10.2892691525
 21
31.4332056557
  0
LINE
  5
27F
100
AcDbEntity
  8
00_COMPONENTS_1
100
AcDbLine
 62
7
  6
BYLAYER
 10
15.2036746767
 20
34.0256524752
 11
14.3551500721
 21
33.5357594905
  0
LINE
  5
280
100
AcDbEntity
  8
00_COMPONENTS_1
100
AcDbLine
 62
7
  6
BYLAYER
 10
29.8054822579
 20
41.6152338062
 11
30.2676123682
 21
41.8820431571
  0
LINE
  5
281
100
AcDbEntity
  8
00_COMPONENTS_1
100
AcDbLine
 62
7
  6
BYLAYER
 10
33.0531346769
 20
43.4902556121
 11
33.5531325952
 21
43.7789278217
  0
LINE
  5
282
100
AcDbEntity
  8
00_COMPONENTS_1
100
AcDbLine
 62
7
  6
BYLAYER
 10
29.2044472347
 20
25.9424855357
 11
26.9416961142
 21
27.2488559501
  0
LINE
  5
283
100
AcDbEntity
  8
00_COMPONENTS_1
100
AcDbLine
 62
7
  6
BYLAYER
 10
17.4664257972
 20
32.7192820607
 11
15.2036746767
 21
34.0256524752
  0
LINE
  5
284
100
AcDbEntity
  8
00_COMPONENTS_1
100
AcDbLine
 62
7
  6
BYLAYER
 10
19.3756291206
 20
31.715033324
 11
23.3354435815
 21
29.4288850987
  0
LINE
  5
285
100
AcDbEntity
  8
00_COMPONENTS_1
100
AcDbLine
 62
7
  6
BYLAYER
 10
30.0529859703
 20
26.5711987717
 11
25.4345453049
 21
29.2375964112
  0
LINE
  5
286
100
AcDbEntity
  8
00_COMPONENTS_1
100
AcDbLine
 62
7
  6
BYLAYER
 10
18.3149645329
 20
33.3479952967
 11
13.6965238675
 21
36.0143929362
  0
LINE
  5
287
100
AcDbEntity
  8
00_COMPONENTS_1
100
AcDbLine
 62
7
  6
BYLAYER
 10
37.0887277356
 20
22.713356049
 11
30.0529859703
 21
26.7753515565
  0
LINE
  5
288
100
AcDbEntity
  8
00_COMPONENTS_1
100
AcDbLine
 62
7
  6
BYLAYER
 10
24.3961081692
 20
30.0412775926
 11
18.3149645329
 21
33.5521480815
  0
LINE
  5
289
100
AcDbEntity
  8
00_COMPONENTS_1
100
AcDbLine
 62
7
  6
BYLAYER
 10
12.6580867317
 20
36.8180741177
 11
5.6223449665
 21
40.8800696251
  0
LINE
  5
28A
100
AcDbEntity
  8
00_COMPONENTS_1
100
AcDbLine
 62
7
  6
BYLAYER
 10
26.2938797409
 20
26.8748412252
 11
25.3153431576
 21
28.0056086376
  0
LINE
  5
28B
100
AcDbEntity
  8
00_COMPONENTS_1
100
AcDbLine
 62
7
  6
BYLAYER
 10
16.0809638729
 20
33.5191607799
 11
16.8382498305
 21
33.9563774215
  0
LINE
  5
28C
100
AcDbEntity
  8
00_COMPONENTS_1
100
AcDbLine
 62
7
  6
BYLAYER
 10
30.8661468456
 20
41.0028726744
 11
31.328276956
 21
41.2696820253
  0
LINE
  5
28D
100
AcDbEntity
  8
00_COMPONENTS_1
100
AcDbLine
 62
7
  6
BYLAYER
 10
34.1137992646
 20
42.8778944803
 11
34.6137971829
 21
43.1665666899
  0
LINE
  5
28E
100
AcDbEntity
  8
00_COMPONENTS_1
100
AcDbLine
 62
7
  6
BYLAYER
 10
17.7880942471
 20
33.407996898
 11
17.0308082895
 21
32.9707802564
  0
LINE
  5
28F
100
AcDbEntity
  8
00_COMPONENTS_1
100
AcDbLine
 62
7
  6
BYLAYER
 10
32.8460287579
 20
41.9418044378
 11
31.5050712436
 21
41.1676068773
  0
LINE
  5
290
100
AcDbEntity
  8
00_COMPONENTS_1
100
AcDbLine
 62
7
  6
BYLAYER
 10
18.3149645329
 20
33.5521480815
 11
19.2341995213
 21
34.0828654815
  0
LINE
  5
291
100
AcDbEntity
  8
00_COMPONENTS_1
100
AcDbLine
 62
7
  6
BYLAYER
 10
17.4664257972
 20
32.7192820607
 11
16.6179011926
 21
32.2293890761
  0
LINE
  5
292
100
AcDbEntity
  8
00_COMPONENTS_1
100
AcDbLine
 62
7
  6
BYLAYER
 10
18.3149645329
 20
31.5156559752
 11
17.4663783122
 21
31.514896088
  0
LINE
  5
293
100
AcDbEntity
  8
00_COMPONENTS_1
100
AcDbLine
 62
7
  6
BYLAYER
 10
38.0079627239
 20
23.244073449
 11
30.9722209587
 21
27.3060689565
  0
LINE
  5
294
100
AcDbEntity
  8
00_COMPONENTS_1
100
AcDbLine
 62
7
  6
BYLAYER
 10
25.3153431576
 20
30.5719949927
 11
19.2341995213
 21
34.0828654815
  0
LINE
  5
295
100
AcDbEntity
  8
00_COMPONENTS_1
100
AcDbLine
 62
7
  6
BYLAYER
 10
13.5773217201
 20
37.3487915177
 11
6.5415799549
 21
41.4107870252
  0
LINE
  5
296
100
AcDbEntity
  8
00_COMPONENTS_1
100
AcDbLine
 62
7
  6
BYLAYER
 10
36.0634109798
 20
25.6159842222
 11
35.1575421135
 21
26.1389760243
  0
LINE
  5
297
100
AcDbEntity
  8
00_COMPONENTS_1
100
AcDbLine
 62
7
  6
BYLAYER
 10
9.3920005654
 20
41.0143818463
 11
8.4861316991
 21
41.5373736485
  0
LINE
  5
298
100
AcDbEntity
  8
00_COMPONENTS_1
100
AcDbLine
 62
7
  6
BYLAYER
 10
25.4345453049
 20
29.2375964112
 11
27.3690714131
 21
27.0021162883
  0
LINE
  5
299
100
AcDbEntity
  8
00_COMPONENTS_1
100
AcDbLine
 62
7
  6
BYLAYER
 10
23.3354435815
 20
29.4288850987
 11
23.3354435815
 21
21.7864224744
  0
LINE
  5
29A
100
AcDbEntity
  8
00_COMPONENTS_1
100
AcDbLine
 62
7
  6
BYLAYER
 10
24.3961081692
 20
23.5092582556
 11
24.3961081692
 21
19.9493077169
  0
LINE
  5
29B
100
AcDbEntity
  8
00_COMPONENTS_1
100
AcDbLine
 62
7
  6
BYLAYER
 10
24.3961081692
 20
26.481327054
 11
24.3961081692
 21
30.0412775926
  0
LINE
  5
29C
100
AcDbEntity
  8
00_COMPONENTS_1
100
AcDbLine
 62
7
  6
BYLAYER
 10
33.9066933457
 20
41.3294433061
 11
31.5732506829
 21
39.9822375983
  0
LINE
  5
29D
100
AcDbEntity
  8
00_COMPONENTS_1
100
AcDbLine
 62
7
  6
BYLAYER
 10
17.4664257972
 20
31.4618683383
 11
16.6179011926
 21
30.9719753537
  0
LINE
  5
29E
100
AcDbEntity
  8
00_COMPONENTS_1
100
AcDbLine
 62
7
  6
BYLAYER
 10
34.6137971829
 20
40.2679831091
 11
30.8661468456
 21
38.1042890936
  0
LINE
  5
29F
100
AcDbEntity
  8
00_COMPONENTS_1
100
AcDbLine
 62
7
  6
BYLAYER
 10
17.1804712658
 20
32.8843742515
 11
18.3149645329
 21
32.8853901611
  0
LINE
  5
2A0
100
AcDbEntity
  8
00_COMPONENTS_1
100
AcDbLine
 62
7
  6
BYLAYER
 10
38.0079627239
 20
24.8280881383
 11
36.9826536225
 21
25.4200372323
  0
LINE
  5
2A1
100
AcDbEntity
  8
00_COMPONENTS_1
100
AcDbLine
 62
7
  6
BYLAYER
 10
7.5668890564
 20
42.4028526204
 11
6.5415799549
 21
42.9948017144
  0
LINE
  5
2A2
100
AcDbEntity
  8
00_COMPONENTS_1
100
AcDbLine
 62
7
  6
BYLAYER
 10
8.4861316991
 20
43.9378907548
 11
9.3920005654
 21
43.4148989527
  0
LINE
  5
2A3
100
AcDbEntity
  8
00_COMPONENTS_1
100
AcDbLine
 62
7
  6
BYLAYER
 10
35.1575421135
 20
28.5394931307
 11
36.0634109798
 21
28.0165013285
  0
LINE
  5
2A4
100
AcDbEntity
  8
00_COMPONENTS_1
100
AcDbLine
 62
7
  6
BYLAYER
 10
25.3153431576
 20
30.5719949927
 11
25.3153431576
 21
28.0056086376
  0
LINE
  5
2A5
100
AcDbEntity
  8
00_COMPONENTS_1
100
AcDbLine
 62
7
  6
BYLAYER
 10
25.3153431576
 20
20.4800251169
 11
25.3153431576
 21
22.9785496938
  0
LINE
  5
2A6
100
AcDbEntity
  8
00_COMPONENTS_1
100
AcDbLine
 62
7
  6
BYLAYER
 10
26.0931715095
 20
26.7589629655
 11
26.0931715095
 21
25.5015492431
  0
LINE
  5
2A7
100
AcDbEntity
  8
00_COMPONENTS_1
100
AcDbLine
 62
7
  6
BYLAYER
 10
26.0931715095
 20
22.5294804447
 11
26.0931715095
 21
21.2720667224
  0
LINE
  5
2A8
100
AcDbEntity
  8
00_COMPONENTS_1
100
AcDbLine
 62
7
  6
BYLAYER
 10
25.3086335335
 20
44.882547927
 11
25.3112471459
 21
45.1470641085
  0
LINE
  5
2A9
100
AcDbEntity
  8
00_COMPONENTS_1
100
AcDbLine
 62
7
  6
BYLAYER
 10
25.7624867007
 20
44.4996236594
 11
25.7486312428
 21
43.0973526893
  0
LINE
  5
2AA
100
AcDbEntity
  8
00_COMPONENTS_1
100
AcDbLine
 62
7
  6
BYLAYER
 10
26.3692981212
 20
44.2701867952
 11
26.3719117336
 21
44.5347029767
  0
LINE
  5
2AB
100
AcDbEntity
  8
00_COMPONENTS_1
100
AcDbLine
 62
7
  6
BYLAYER
 10
26.8130773731
 20
42.8677105883
 11
26.8231512884
 21
43.8872625276
  0
LINE
  5
2AC
100
AcDbEntity
  8
00_COMPONENTS_1
100
AcDbLine
 62
7
  6
BYLAYER
 10
13.5773217201
 20
27.256821642
 11
12.6580867317
 21
26.726104242
  0
LINE
  5
2AD
100
AcDbEntity
  8
00_COMPONENTS_1
100
AcDbLine
 62
7
  6
BYLAYER
 10
34.4370509576
 20
38.9412568641
 11
38.1847012949
 21
41.1049508796
  0
LINE
  5
2AE
100
AcDbEntity
  8
00_COMPONENTS_1
100
AcDbLine
 62
7
  6
BYLAYER
 10
28.35592263
 20
19.9656963079
 11
28.35592263
 21
21.2231100303
  0
LINE
  5
2AF
100
AcDbEntity
  8
00_COMPONENTS_1
100
AcDbLine
 62
7
  6
BYLAYER
 10
28.35592263
 20
24.1951788286
 11
28.35592263
 21
25.452592551
  0
LINE
  5
2B0
100
AcDbEntity
  8
00_COMPONENTS_1
100
AcDbLine
 62
7
  6
BYLAYER
 10
28.4368422151
 20
27.5042586952
 11
28.4368422151
 21
27.4794838048
  0
LINE
  5
2B1
100
AcDbEntity
  8
00_COMPONENTS_1
100
AcDbLine
 62
7
  6
BYLAYER
 10
27.2840163175
 20
44.3376828567
 11
27.2721105252
 21
43.1327319202
  0
LINE
  5
2B2
100
AcDbEntity
  8
00_COMPONENTS_1
100
AcDbLine
 62
7
  6
BYLAYER
 10
33.0531346769
 20
43.4902556121
 11
32.8460287579
 21
43.1315356467
  0
LINE
  5
2B3
100
AcDbEntity
  8
00_COMPONENTS_1
100
AcDbLine
 62
7
  6
BYLAYER
 10
33.9066933457
 20
42.5191745149
 11
34.1137992646
 21
42.8778944803
  0
LINE
  5
2B4
100
AcDbEntity
  8
00_COMPONENTS_1
100
AcDbLine
 62
7
  6
BYLAYER
 10
17.5371361809
 20
27.273210233
 11
16.6179011926
 21
26.7424928329
  0
LINE
  5
2B5
100
AcDbEntity
  8
00_COMPONENTS_1
100
AcDbLine
 62
7
  6
BYLAYER
 10
24.3961081692
 20
30.0412775926
 11
25.3153431576
 21
30.5719949927
  0
LINE
  5
2B6
100
AcDbEntity
  8
00_COMPONENTS_1
100
AcDbLine
 62
7
  6
BYLAYER
 10
42.5687739365
 20
28.6451660479
 11
43.5940830379
 21
28.0532169538
  0
LINE
  5
2B7
100
AcDbEntity
  8
00_COMPONENTS_1
100
AcDbLine
 62
7
  6
BYLAYER
 10
29.2044472347
 20
24.6850718133
 11
29.2044472347
 21
25.9424855357
  0
LINE
  5
2B8
100
AcDbEntity
  8
00_COMPONENTS_1
100
AcDbLine
 62
7
  6
BYLAYER
 10
29.2751576184
 20
20.4964137079
 11
29.2751576184
 21
20.6924014685
  0
LINE
  5
2B9
100
AcDbEntity
  8
00_COMPONENTS_1
100
AcDbLine
 62
7
  6
BYLAYER
 10
29.8054822579
 20
41.6152338062
 11
29.8054822579
 21
38.7166502254
  0
LINE
  5
2BA
100
AcDbEntity
  8
00_COMPONENTS_1
100
AcDbLine
 62
7
  6
BYLAYER
 10
30.0529859703
 20
20.2433322194
 11
30.0529859703
 21
16.6833816808
  0
LINE
  5
2BB
100
AcDbEntity
  8
00_COMPONENTS_1
100
AcDbLine
 62
7
  6
BYLAYER
 10
30.0529859703
 20
23.2154010178
 11
30.0529859703
 21
26.7753515565
  0
LINE
  5
2BC
100
AcDbEntity
  8
00_COMPONENTS_1
100
AcDbLine
 62
7
  6
BYLAYER
 10
37.9018886109
 20
36.9408771669
 11
41.6495389481
 21
39.1045711824
  0
LINE
  5
2BD
100
AcDbEntity
  8
00_COMPONENTS_1
100
AcDbLine
 62
7
  6
BYLAYER
 10
36.9826536225
 20
32.0826969561
 11
7.5668890564
 21
49.0655123441
  0
LINE
  5
2BE
100
AcDbEntity
  8
00_COMPONENTS_1
100
AcDbLine
 62
7
  6
BYLAYER
 10
37.9018886109
 20
32.6134143561
 11
8.4861240447
 21
49.5962297442
  0
LINE
  5
2BF
100
AcDbEntity
  8
00_COMPONENTS_1
100
AcDbLine
 62
7
  6
BYLAYER
 10
30.8661468456
 20
38.1042890936
 11
30.8661468456
 21
41.0028726744
  0
LINE
  5
2C0
100
AcDbEntity
  8
00_COMPONENTS_1
100
AcDbLine
 62
7
  6
BYLAYER
 10
31.5732506829
 20
39.9822375983
 11
31.5732506829
 21
41.1282423343
  0
LINE
  5
2C1
100
AcDbEntity
  8
00_COMPONENTS_1
100
AcDbLine
 62
7
  6
BYLAYER
 10
32.2096723984
 20
18.532796793
 11
32.2096723984
 21
21.9457768966
  0
LINE
  5
2C2
100
AcDbEntity
  8
00_COMPONENTS_1
100
AcDbLine
 62
7
  6
BYLAYER
 10
20.294864109
 20
24.6032880997
 11
19.3756291206
 21
24.0725706997
  0
LINE
  5
2C3
100
AcDbEntity
  8
00_COMPONENTS_1
100
AcDbLine
 62
7
  6
BYLAYER
 10
25.2446327738
 20
26.9712200386
 11
24.3961081692
 21
26.481327054
  0
LINE
  5
2C4
100
AcDbEntity
  8
00_COMPONENTS_1
100
AcDbLine
 62
7
  6
BYLAYER
 10
26.9416961142
 20
27.2488559501
 11
26.0931715095
 21
26.7589629655
  0
LINE
  5
2C5
100
AcDbEntity
  8
00_COMPONENTS_1
100
AcDbLine
 62
7
  6
BYLAYER
 10
34.4370509576
 20
36.0426732833
 11
30.8661468456
 21
38.1042890936
  0
LINE
  5
2C6
100
AcDbEntity
  8
00_COMPONENTS_1
100
AcDbLine
 62
7
  6
BYLAYER
 10
29.8054822579
 20
38.7166502254
 11
16.5825303977
 21
46.3507523349
  0
LINE
  5
2C7
100
AcDbEntity
  8
00_COMPONENTS_1
100
AcDbLine
 62
7
  6
BYLAYER
 10
15.52186581
 20
46.9631134667
 11
11.950961698
 21
49.024729277
  0
LINE
  5
2C8
100
AcDbEntity
  8
00_COMPONENTS_1
100
AcDbLine
 62
7
  6
BYLAYER
 10
25.2446201148
 20
41.9621667733
 11
23.8304006645
 21
42.7786482823
  0
LINE
  5
2C9
100
AcDbEntity
  8
00_COMPONENTS_1
100
AcDbLine
 62
7
  6
BYLAYER
 10
32.8460287579
 20
43.1315356467
 11
32.8460287579
 21
41.9418044378
  0
LINE
  5
2CA
100
AcDbEntity
  8
00_COMPONENTS_1
100
AcDbLine
 62
7
  6
BYLAYER
 10
33.9066933457
 20
42.5191745149
 11
33.9066933457
 21
41.3294433061
  0
LINE
  5
2CB
100
AcDbEntity
  8
00_COMPONENTS_1
100
AcDbLine
 62
7
  6
BYLAYER
 10
33.9774467113
 20
20.6705224206
 11
33.9774467113
 21
17.7668474964
  0
LINE
  5
2CC
100
AcDbEntity
  8
00_COMPONENTS_1
100
AcDbLine
 62
7
  6
BYLAYER
 10
34.1895778625
 20
20.548051214
 11
34.1895778625
 21
17.8893207426
  0
LINE
  5
2CD
100
AcDbEntity
  8
00_COMPONENTS_1
100
AcDbLine
 62
7
  6
BYLAYER
 10
34.4370509576
 20
38.9412568641
 11
34.4370509576
 21
36.0426732833
  0
LINE
  5
2CE
100
AcDbEntity
  8
00_COMPONENTS_1
100
AcDbLine
 62
7
  6
BYLAYER
 10
36.9826536225
 20
32.0826969561
 11
37.9018886109
 21
32.6134143561
  0
LINE
  5
2CF
100
AcDbEntity
  8
00_COMPONENTS_1
100
AcDbLine
 62
7
  6
BYLAYER
 10
41.6495389481
 20
34.7771083716
 11
42.5687739365
 21
35.3078257717
  0
LINE
  5
2D0
100
AcDbEntity
  8
00_COMPONENTS_1
100
AcDbLine
 62
7
  6
BYLAYER
 10
27.8189853104
 20
26.7423642549
 11
28.5762712679
 21
27.1795808965
  0
LINE
  5
2D1
100
AcDbEntity
  8
00_COMPONENTS_1
100
AcDbLine
 62
7
  6
BYLAYER
 10
29.5261156845
 20
26.6312003729
 11
28.768829727
 21
26.1939837313
  0
LINE
  5
2D2
100
AcDbEntity
  8
00_COMPONENTS_1
100
AcDbLine
 62
7
  6
BYLAYER
 10
30.0529859703
 20
26.7753515565
 11
30.9722209587
 21
27.3060689565
  0
LINE
  5
2D3
100
AcDbEntity
  8
00_COMPONENTS_1
100
AcDbLine
 62
7
  6
BYLAYER
 10
29.2044472347
 20
25.9424855357
 11
28.35592263
 21
25.452592551
  0
LINE
  5
2D4
100
AcDbEntity
  8
00_COMPONENTS_1
100
AcDbLine
 62
7
  6
BYLAYER
 10
26.4757079735
 20
42.6729314372
 11
26.0514543576
 21
42.9178688353
  0
LINE
  5
2D5
100
AcDbEntity
  8
00_COMPONENTS_1
100
AcDbLine
 62
7
  6
BYLAYER
 10
26.4797374761
 20
42.6752578578
 11
25.7486312428
 21
43.0973526893
  0
LINE
  5
2D6
100
AcDbEntity
  8
00_COMPONENTS_1
100
AcDbLine
 62
7
  6
BYLAYER
 10
8.4861240447
 20
53.923692555
 11
11.950961698
 21
51.9233128578
  0
LINE
  5
2D7
100
AcDbEntity
  8
00_COMPONENTS_1
100
AcDbLine
 62
7
  6
BYLAYER
 10
15.52186581
 20
49.8616970475
 11
16.5825303977
 21
49.2493359157
  0
LINE
  5
2D8
100
AcDbEntity
  8
00_COMPONENTS_1
100
AcDbLine
 62
7
  6
BYLAYER
 10
29.8054822579
 20
41.6152338062
 11
30.8661468456
 21
41.0028726744
  0
LINE
  5
2D9
100
AcDbEntity
  8
00_COMPONENTS_1
100
AcDbLine
 62
7
  6
BYLAYER
 10
34.4370509576
 20
38.9412568641
 11
37.9018886109
 21
36.9408771669
  0
LINE
  5
2DA
100
AcDbEntity
  8
00_COMPONENTS_1
100
AcDbLine
 62
7
  6
BYLAYER
 10
27.2751802877
 20
43.4434137367
 11
27.5427075857
 21
43.2889602734
  0
LINE
  5
2DB
100
AcDbEntity
  8
00_COMPONENTS_1
100
AcDbLine
 62
7
  6
BYLAYER
 10
17.2896342349
 20
49.3747055756
 11
15.9839959203
 21
50.1285063984
  0
LINE
  5
2DC
100
AcDbEntity
  8
00_COMPONENTS_1
100
AcDbLine
 62
7
  6
BYLAYER
 10
30.2676123682
 20
41.8820431571
 11
31.5732506829
 21
41.1282423343
  0
LINE
  5
2DD
100
AcDbEntity
  8
00_COMPONENTS_1
100
AcDbLine
 62
7
  6
BYLAYER
 10
26.8231512884
 20
43.8872625276
 11
25.7624867007
 21
44.4996236594
  0
LINE
  5
2DE
100
AcDbEntity
  8
00_COMPONENTS_1
100
AcDbLine
 62
7
  6
BYLAYER
 10
26.3692981212
 20
44.2701867952
 11
25.3086335335
 21
44.882547927
  0
LINE
  5
2DF
100
AcDbEntity
  8
00_COMPONENTS_1
100
AcDbLine
 62
7
  6
BYLAYER
 10
26.3719117336
 20
44.5347029767
 11
25.3112471459
 21
45.1470641085
  0
LINE
  5
2E0
100
AcDbEntity
  8
00_COMPONENTS_1
100
AcDbLine
 62
7
  6
BYLAYER
 10
42.5687739365
 20
35.3078257717
 11
41.6495389481
 21
35.8385343334
  0
LINE
  5
2E1
100
AcDbEntity
  8
00_COMPONENTS_1
100
AcDbLine
 62
7
  6
BYLAYER
 10
26.6735843588
 20
44.8507672897
 11
26.6858697171
 21
44.8423501487
  0
LINE
  5
2E2
100
AcDbEntity
  8
00_COMPONENTS_1
100
AcDbLine
 62
7
  6
BYLAYER
 10
25.3086335335
 20
44.882547927
 11
25.7624867007
 21
44.4996236594
  0
LINE
  5
2E3
100
AcDbEntity
  8
00_COMPONENTS_1
100
AcDbLine
 62
7
  6
BYLAYER
 10
26.8231512884
 20
43.8872625276
 11
26.3692981212
 21
44.2701867952
  0
LINE
  5
2E4
100
AcDbEntity
  8
00_COMPONENTS_1
100
AcDbLine
 62
7
  6
BYLAYER
 10
26.6858697171
 20
44.8423501487
 11
27.2840163175
 21
44.3376828567
  0
LINE
  5
2E5
100
AcDbEntity
  8
00_COMPONENTS_1
100
AcDbLine
 62
7
  6
BYLAYER
 10
34.6137971829
 20
40.2679831091
 11
34.6137971829
 21
43.1665666899
  0
LINE
  5
2E6
100
AcDbEntity
  8
00_COMPONENTS_1
100
AcDbLine
 62
7
  6
BYLAYER
 10
34.9674003265
 20
17.1953104401
 11
34.9674003265
 21
20.0989853643
  0
LINE
  5
2E7
100
AcDbEntity
  8
00_COMPONENTS_1
100
AcDbLine
 62
7
  6
BYLAYER
 10
35.1575421135
 20
26.1389760243
 11
35.1575421135
 21
28.5394931307
  0
LINE
  5
2E8
100
AcDbEntity
  8
00_COMPONENTS_1
100
AcDbLine
 62
7
  6
BYLAYER
 10
35.7452210242
 20
19.904573124
 11
35.7452210242
 21
16.4915930204
  0
LINE
  5
2E9
100
AcDbEntity
  8
00_COMPONENTS_1
100
AcDbLine
 62
7
  6
BYLAYER
 10
35.9573521753
 20
20.0270463702
 11
35.9573521753
 21
16.6140662666
  0
LINE
  5
2EA
100
AcDbEntity
  8
00_COMPONENTS_1
100
AcDbLine
 62
7
  6
BYLAYER
 10
36.0634109798
 20
28.0165013285
 11
36.0634109798
 21
25.6159842222
  0
LINE
  5
2EB
100
AcDbEntity
  8
00_COMPONENTS_1
100
AcDbLine
 62
7
  6
BYLAYER
 10
29.2044472347
 20
24.6850718133
 11
28.35592263
 21
24.1951788286
  0
LINE
  5
2EC
100
AcDbEntity
  8
00_COMPONENTS_1
100
AcDbLine
 62
7
  6
BYLAYER
 10
35.6744183923
 20
39.6556470212
 11
34.6137971829
 21
40.2679831091
  0
LINE
  5
2ED
100
AcDbEntity
  8
00_COMPONENTS_1
100
AcDbLine
 62
7
  6
BYLAYER
 10
32.2803130953
 20
41.6151902973
 11
26.6870477016
 21
44.8443905238
  0
LINE
  5
2EE
100
AcDbEntity
  8
00_COMPONENTS_1
100
AcDbLine
 62
7
  6
BYLAYER
 10
26.6736739349
 20
44.8509227113
 11
20.3301807349
 21
48.5144463504
  0
LINE
  5
2EF
100
AcDbEntity
  8
00_COMPONENTS_1
100
AcDbLine
 62
7
  6
BYLAYER
 10
17.9966966473
 20
49.8616535386
 11
15.6986120352
 21
51.1884232925
  0
LINE
  5
2F0
100
AcDbEntity
  8
00_COMPONENTS_1
100
AcDbLine
 62
7
  6
BYLAYER
 10
18.56241231
 20
50.1882676791
 11
19.6230768977
 21
49.5759065474
  0
LINE
  5
2F1
100
AcDbEntity
  8
00_COMPONENTS_1
100
AcDbLine
 62
7
  6
BYLAYER
 10
32.8460287579
 20
41.9418044378
 11
33.9066933457
 21
41.3294433061
  0
LINE
  5
2F2
100
AcDbEntity
  8
00_COMPONENTS_1
100
AcDbLine
 62
7
  6
BYLAYER
 10
18.56241231
 20
51.377998888
 11
19.6230768977
 21
50.7656377562
  0
LINE
  5
2F3
100
AcDbEntity
  8
00_COMPONENTS_1
100
AcDbLine
 62
7
  6
BYLAYER
 10
32.8460287579
 20
43.1315356467
 11
33.9066933457
 21
42.5191745149
  0
LINE
  5
2F4
100
AcDbEntity
  8
00_COMPONENTS_1
100
AcDbLine
 62
7
  6
BYLAYER
 10
36.9826536225
 20
32.0826969561
 11
36.9826536225
 21
25.4200372323
  0
LINE
  5
2F5
100
AcDbEntity
  8
00_COMPONENTS_1
100
AcDbLine
 62
7
  6
BYLAYER
 10
37.0887277356
 20
22.713356049
 11
37.0887277356
 21
12.6213861733
  0
LINE
  5
2F6
100
AcDbEntity
  8
00_COMPONENTS_1
100
AcDbLine
 62
7
  6
BYLAYER
 10
37.9018886109
 20
32.6134143561
 11
37.9018886109
 21
36.9408771669
  0
LINE
  5
2F7
100
AcDbEntity
  8
00_COMPONENTS_1
100
AcDbLine
 62
7
  6
BYLAYER
 10
38.0079627239
 20
23.244073449
 11
38.0079627239
 21
24.8280881383
  0
LINE
  5
2F8
100
AcDbEntity
  8
00_COMPONENTS_1
100
AcDbLine
 62
7
  6
BYLAYER
 10
25.3153431576
 20
20.4800251169
 11
24.3961081692
 21
19.9493077169
  0
LINE
  5
2F9
100
AcDbEntity
  8
00_COMPONENTS_1
100
AcDbLine
 62
7
  6
BYLAYER
 10
36.0634109798
 20
26.6619765362
 11
35.1575421135
 21
26.1389760243
  0
LINE
  5
2FA
100
AcDbEntity
  8
00_COMPONENTS_1
100
AcDbLine
 62
7
  6
BYLAYER
 10
34.1137992646
 20
42.8778944803
 11
33.0531346769
 21
43.4902556121
  0
LINE
  5
2FB
100
AcDbEntity
  8
00_COMPONENTS_1
100
AcDbLine
 62
7
  6
BYLAYER
 10
19.8301828166
 20
51.1243577216
 11
18.7695182289
 21
51.7367188534
  0
LINE
  5
2FC
100
AcDbEntity
  8
00_COMPONENTS_1
100
AcDbLine
 62
7
  6
BYLAYER
 10
12.233774382
 20
56.0873865705
 11
15.6986120352
 21
54.0870068733
  0
LINE
  5
2FD
100
AcDbEntity
  8
00_COMPONENTS_1
100
AcDbLine
 62
7
  6
BYLAYER
 10
19.2695161472
 20
52.025391063
 11
20.3301807349
 21
51.4130299312
  0
LINE
  5
2FE
100
AcDbEntity
  8
00_COMPONENTS_1
100
AcDbLine
 62
7
  6
BYLAYER
 10
33.5531325952
 20
43.7789278217
 11
34.6137971829
 21
43.1665666899
  0
LINE
  5
2FF
100
AcDbEntity
  8
00_COMPONENTS_1
100
AcDbLine
 62
7
  6
BYLAYER
 10
38.1847012949
 20
41.1049508796
 11
41.6495389481
 21
39.1045711824
  0
LINE
  5
300
100
AcDbEntity
  8
00_COMPONENTS_1
100
AcDbLine
 62
7
  6
BYLAYER
 10
42.5687739365
 20
28.6451660479
 11
36.9826536225
 21
25.4200372323
  0
LINE
  5
301
100
AcDbEntity
  8
00_COMPONENTS_1
100
AcDbLine
 62
7
  6
BYLAYER
 10
29.2751576184
 20
20.4964137079
 11
28.35592263
 21
19.9656963079
  0
LINE
  5
302
100
AcDbEntity
  8
00_COMPONENTS_1
100
AcDbLine
 62
7
  6
BYLAYER
 10
32.2096723984
 20
21.9457768966
 11
32.4218035496
 21
22.0682501428
  0
LINE
  5
303
100
AcDbEntity
  8
00_COMPONENTS_1
100
AcDbLine
 62
7
  6
BYLAYER
 10
38.0079627239
 20
24.8280881383
 11
43.5940830379
 21
28.0532169538
  0
LINE
  5
304
100
AcDbEntity
  8
00_COMPONENTS_1
100
AcDbLine
 62
7
  6
BYLAYER
 10
41.6495389481
 20
34.7771083716
 11
41.6495389481
 21
39.1045711824
  0
LINE
  5
305
100
AcDbEntity
  8
00_COMPONENTS_1
100
AcDbLine
 62
7
  6
BYLAYER
 10
38.0079627239
 20
23.244073449
 11
37.0887277356
 21
22.713356049
  0
LINE
  5
306
100
AcDbEntity
  8
00_COMPONENTS_1
100
AcDbLine
 62
7
  6
BYLAYER
 10
42.5687739365
 20
28.6451660479
 11
42.5687739365
 21
35.3078257717
  0
LINE
  5
307
100
AcDbEntity
  8
00_COMPONENTS_1
100
AcDbLine
 62
7
  6
BYLAYER
 10
43.5940830379
 20
28.0532169538
 11
43.5940830379
 21
16.3772323889
  0
LINE
  5
308
100
AcDbEntity
  8
00_COMPONENTS_1
100
AcDbLine
 62
7
  6
BYLAYER
 10
35.7452210242
 20
19.904573124
 11
35.9573521753
 21
20.0270463702
  0
LINE
  5
309
100
AcDbEntity
  8
00_COMPONENTS_1
100
AcDbLine
 62
7
  6
BYLAYER
 10
33.9774467113
 20
17.7668474964
 11
34.1895778625
 21
17.8893207426
  0
LINE
  5
30A
100
AcDbEntity
  8
00_COMPONENTS_1
100
AcDbLine
 62
7
  6
BYLAYER
 10
35.7452210242
 20
16.4915930204
 11
35.9573521753
 21
16.6140662666
  0
LINE
  5
30B
100
AcDbEntity
  8
00_COMPONENTS_1
100
AcDbLine
 62
7
  6
BYLAYER
 10
37.0887277356
 20
12.6213861733
 11
43.5940830379
 21
16.3772323889
  0
SPLINE
  5
30C
100
AcDbEntity
  8
00_COMPONENTS_1
100
AcDbSpline
 62
7
  6
BYLAYER
 70
0
 71
3
 72
17
 73
13
 74
0
 42
0.0000001
 43
0.0000001
 44
0.0000000001
 40
0.0
 40
0.0
 40
0.0
 40
0.0
 40
0.0428865671
 40
0.0875457016
 40
0.1353402022
 40
0.1872023126
 40
0.3042266803
 40
0.4376171469
 40
0.5817652627
 40
0.7288773876
 40
0.8707976941
 40
1.0
 40
1.0
 40
1.0
 40
1.0
 10
25.6130018631
 20
45.4632707514
 30
0.0
 10
25.606859149
 20
45.4668067721
 30
0.0
 10
25.5933355951
 20
45.4724355392
 30
0.0
 10
25.5710208402
 20
45.4757717554
 30
0.0
 10
25.5470653028
 20
45.4740443266
 30
0.0
 10
25.5122738711
 20
45.4648934427
 30
0.0
 10
25.4677715162
 20
45.4407269037
 30
0.0
 10
25.4185193808
 20
45.3974124906
 30
0.0
 10
25.3748962746
 20
45.3419786351
 30
0.0
 10
25.3403724825
 20
45.2788783123
 30
0.0
 10
25.3177806811
 20
45.2132129502
 30
0.0
 10
25.3114581184
 20
45.1684160291
 30
0.0
 10
25.3112471459
 20
45.1470641085
 30
0.0
  0
SPLINE
  5
30D
100
AcDbEntity
  8
00_COMPONENTS_1
100
AcDbSpline
 62
7
  6
BYLAYER
 70
0
 71
3
 72
14
 73
10
 74
0
 42
0.0000001
 43
0.0000001
 44
0.0000000001
 40
0.0
 40
0.0
 40
0.0
 40
0.0
 40
0.1374682844
 40
0.2707894091
 40
0.5238902168
 40
0.6455011734
 40
0.7648292735
 40
0.8827940623
 40
1.0
 40
1.0
 40
1.0
 40
1.0
 10
16.8382498305
 20
33.9563774215
 30
0.0
 10
16.8648368641
 20
33.9101440405
 30
0.0
 10
16.9219264251
 20
33.8216180355
 30
0.0
 10
17.0511094655
 20
33.6643664085
 30
0.0
 10
17.2062084147
 20
33.5373224762
 30
0.0
 10
17.3798725282
 20
33.4545106132
 30
0.0
 10
17.5141926556
 20
33.415419707
 30
0.0
 10
17.6513316202
 20
33.3991057647
 30
0.0
 10
17.7429298443
 20
33.4027185379
 30
0.0
 10
17.7880942471
 20
33.407996898
 30
0.0
  0
SPLINE
  5
30E
100
AcDbEntity
  8
00_COMPONENTS_1
100
AcDbSpline
 62
7
  6
BYLAYER
 70
0
 71
3
 72
14
 73
10
 74
0
 42
0.0000001
 43
0.0000001
 44
0.0000000001
 40
0.0
 40
0.0
 40
0.0
 40
0.0
 40
0.1374682844
 40
0.2707894091
 40
0.5238902168
 40
0.6455011734
 40
0.7648292735
 40
0.8827940623
 40
1.0
 40
1.0
 40
1.0
 40
1.0
 10
28.5762712679
 20
27.1795808965
 30
0.0
 10
28.6028583016
 20
27.1333475154
 30
0.0
 10
28.6599478625
 20
27.0448215105
 30
0.0
 10
28.789130903
 20
26.8875698834
 30
0.0
 10
28.9442298521
 20
26.7605259512
 30
0.0
 10
29.1178939656
 20
26.6777140881
 30
0.0
 10
29.252214093
 20
26.6386231819
 30
0.0
 10
29.3893530576
 20
26.6223092397
 30
0.0
 10
29.4809512817
 20
26.6259220128
 30
0.0
 10
29.5261156845
 20
26.6312003729
 30
0.0
  0
SPLINE
  5
30F
100
AcDbEntity
  8
00_COMPONENTS_1
100
AcDbSpline
 62
7
  6
BYLAYER
 70
0
 71
3
 72
17
 73
13
 74
0
 42
0.0000001
 43
0.0000001
 44
0.0000000001
 40
0.0
 40
0.0
 40
0.0
 40
0.0
 40
0.1292023059
 40
0.2711226124
 40
0.4182347373
 40
0.5623828531
 40
0.6957733197
 40
0.8127976874
 40
0.8646597978
 40
0.9124542984
 40
0.9571134329
 40
1.0
 40
1.0
 40
1.0
 40
1.0
 10
26.3719117336
 20
44.5347029767
 30
0.0
 10
26.3721227062
 20
44.5560548973
 30
0.0
 10
26.3784452688
 20
44.6008518184
 30
0.0
 10
26.4010370703
 20
44.6665171805
 30
0.0
 10
26.4355608623
 20
44.7296175033
 30
0.0
 10
26.4791839685
 20
44.7850513588
 30
0.0
 10
26.5284361039
 20
44.8283657719
 30
0.0
 10
26.5729384588
 20
44.8525323109
 30
0.0
 10
26.6077298905
 20
44.8616831949
 30
0.0
 10
26.6316854279
 20
44.8634106237
 30
0.0
 10
26.6540001828
 20
44.8600744074
 30
0.0
 10
26.6675237367
 20
44.8544456403
 30
0.0
 10
26.6736664509
 20
44.8509096196
 30
0.0
  0
ELLIPSE
  5
310
100
AcDbEntity
  8
00_COMPONENTS_1
100
AcDbEllipse
 62
7
  6
BYLAYER
 10
19.1988207777
 20
34.4962449258
 30
0.0
 11
2.4235516795
 21
-1.8267225398
 31
0.0
 40
0.7114248445
 41
-2.2444365948
 42
-2.1107100942
  0
ELLIPSE
  5
311
100
AcDbEntity
  8
00_COMPONENTS_1
100
AcDbEllipse
 62
7
  6
BYLAYER
 10
19.1988207777
 20
34.4962449258
 30
0.0
 11
2.7406397506
 21
0.857711647
 31
0.0
 40
0.2643101729
 41
-2.1919931784
 42
-2.0574223923
  0
ELLIPSE
  5
312
100
AcDbEntity
  8
00_COMPONENTS_1
100
AcDbEllipse
 62
7
  6
BYLAYER
 10
30.9368422151
 20
27.7194484008
 30
0.0
 11
2.4235516795
 21
-1.8267225398
 31
0.0
 40
0.7114248445
 41
-2.2444365948
 42
-2.1107100942
  0
ELLIPSE
  5
313
100
AcDbEntity
  8
00_COMPONENTS_1
100
AcDbEllipse
 62
7
  6
BYLAYER
 10
30.9368422151
 20
27.7194484008
 30
0.0
 11
2.7406397506
 21
0.857711647
 31
0.0
 40
0.2643101729
 41
-2.1919931784
 42
-2.0574223923
  0
ENDSEC
  0
SECTION
  2
OBJECTS
  0
DICTIONARY
  5
C
100
AcDbDictionary
280
0
281
1
  3
ACAD_GROUP
350
D
  3
ACAD_MLINESTYLE
350
17
  3
ACAD_LAYOUT
350
1A
  3
ACAD_PLOTSETTINGS
350
19
  3
ACAD_PLOTSTYLENAME
350
E
  0
DICTIONARY
  5
D
102
{ACAD_REACTORS
330
C
102
}
100
AcDbDictionary
280
0
281
1
  0
ACDBDICTIONARYWDFLT
  5
E
102
{ACAD_REACTORS
330
C
102
}
100
AcDbDictionary
281
1
  3
Normal
350
F
100
AcDbDictionaryWithDefault
340
F
  0
DICTIONARY
  5
17
102
{ACAD_REACTORS
330
C
102
}
100
AcDbDictionary
280
0
281
1
  3
Standard
350
18
  0
DICTIONARY
  5
19
102
{ACAD_REACTORS
330
C
102
}
100
AcDbDictionary
281
1
  0
DICTIONARY
  5
1A
102
{ACAD_REACTORS
330
C
102
}
100
AcDbDictionary
281
1
  3
Model
350
314
  3
Layout1
350
315
  0
ACDBPLACEHOLDER
  5
F
102
{ACAD_REACTORS
330
E
102
}
  0
MLINESTYLE
  5
18
102
{ACAD_REACTORS
330
17
102
}
100
AcDbMlineStyle
  2
STANDARD
 70
0
  3

 62
256
 51
90.0
 52
90.0
 71
2
 49
0.5
 62
256
  6
BYLAYER
 49
-0.5
 62
256
  6
BYLAYER
  0
LAYOUT
  5
314
102
{ACAD_REACTORS
330
1A
102
}
100
AcDbPlotSettings
  1

  2
none_device
  4

  6

 40
0.0
 41
0.0
 42
0.0
 43
0.0
 44
210.0
 45
297.0
 46
0.0
 47
0.0
 48
0.0
 49
0.0
140
0.0
141
0.0
142
1.0
143
1.0
 70
1024
 72
1
 73
0
 74
0
  7

 75
0
147
1.0
148
0.0
149
0.0
100
AcDbLayout
  1
Model
 70
0
 71
0
 10
0.0
 20
0.0
 11
210.0
 21
297.0
 12
0.0
 22
0.0
 32
0.0
 14
0.0
 24
0.0
 34
0.0
 15
0.0
 25
0.0
 35
0.0
146
0.0
 13
0.0
 23
0.0
 33
0.0
 16
1.0
 26
0.0
 36
0.0
 17
0.0
 27
1.0
 37
0.0
 76
0
330
215
345
0
346
0
  0
LAYOUT
  5
315
102
{ACAD_REACTORS
330
1A
102
}
100
AcDbPlotSettings
  1

  2
none_device
  4

  6

 40
0.0
 41
0.0
 42
0.0
 43
0.0
 44
210.0
 45
297.0
 46
0.0
 47
0.0
 48
0.0
 49
0.0
140
0.0
141
0.0
142
1.0
143
1.0
 70
0
 72
1
 73
0
 74
0
  7

 75
0
147
1.0
148
0.0
149
0.0
100
AcDbLayout
  1
Layout1
 70
0
 71
1
 10
0.0
 20
0.0
 11
210.0
 21
297.0
 12
0.0
 22
0.0
 32
0.0
 14
0.0
 24
0.0
 34
0.0
 15
0.0
 25
0.0
 35
0.0
146
0.0
 13
0.0
 23
0.0
 33
0.0
 16
1.0
 26
0.0
 36
0.0
 17
0.0
 27
1.0
 37
0.0
 76
0
330
216
345
0
346
0
  0
ENDSEC
  0
EOF
