999
DXF file: C:\Users\sesa63760\Dev\_Creo\CAD\MCADUE0002047_3D-CAD\drw0001_1.dxf
999
Pro/ENGINEER 2019471 by Parametric Technology Corporation
  0
SECTION
  2
HEADER
  9
$ACADVER
  1
AC1024
  9
$DWGCODEPAGE
  3
ANSI_1252
  9
$EXTMAX
 10
311.7576128653
 20
440.9143381953
 30
0.0
  9
$EXTMIN
 10
0.0
 20
0.0
 30
0.0
  9
$LIMMIN
 10
0.0
 20
0.0
  9
$LIMMAX
 10
311.7576128653
 20
440.9143381953
  9
$VIEWCTR
 10
155.8788064327
 20
220.4571690976
  9
$VIEWSIZE
 40
440.9143381953
  9
$CLAYER
  8
0
  9
$LTSCALE
 40
28.7410827861
  9
$CELTYPE
  6
BYLAYER
  9
$DIMSCALE
 40
1.0
  9
$DIMASZ
 40
3.7114001532
  9
$DIMEXO
 40
1.0
  9
$DIMDLI
 40
19.8574753795
  9
$DIMEXE
 40
1.0
  9
$DIMCEN
 40
4.7030862741
  9
$DIMLFAC
 40
1.0
  9
$DIMBLK
  1
_FILLED
  9
$DIMALT
 70
0
  9
$DIMALTF
 40
0.0393700787
  9
$DIMTXT
 40
5.1959602144
  9
$DIMTOL
 70
1
  9
$DIMLIM
 70
0
  9
$DIMTFAC
 40
1.0
  9
$DIMTP
 40
0.01
  9
$DIMTM
 40
0.01
  9
$DIMGAP
 40
0.625
  9
$DIMDSEP
 70
46
  9
$AUNITS
 70
0
  9
$PDMODE
 70
3
  9
$PDSIZE
 40
0.3125
  9
$HANDSEED
  5
254
  9
$TILEMODE
 70
1
  9
$MEASUREMENT
 70
1
  9
$INSUNITS
 70
4
  0
ENDSEC
  0
SECTION
  2
CLASSES
  0
CLASS
  1
ACDBDICTIONARYWDFLT
  2
AcDbDictionaryWithDefault
  3
AutoCAD 2000
 90
0
 91
1
280
0
281
0
  0
CLASS
  1
ACDBPLACEHOLDER
  2
AcDbPlaceHolder
  3
AutoCAD 2000
 90
0
 91
1
280
0
281
0
  0
CLASS
  1
LAYOUT
  2
AcDbLayout
  3
AutoCAD 2000
 90
0
 91
0
280
0
281
0
  0
ENDSEC
  0
SECTION
  2
TABLES
  0
TABLE
  2
VPORT
  5
8
100
AcDbSymbolTable
 70
2
  0
VPORT
  5
1F4
100
AcDbSymbolTableRecord
100
AcDbViewportTableRecord
  2
*ACTIVE
 70
0
 10
0.0
 20
0.0
 11
1.0
 21
1.0
 12
155.8788064327
 22
220.4571690976
 13
0.0
 23
0.0
 14
1.0
 24
1.0
 15
0.0
 25
0.0
 16
0.0
 26
0.0
 36
1.0
 17
0.0
 27
0.0
 37
0.0
 40
440.9143381953
 41
0.7070707071
 42
50.0
 43
0.0
 44
0.0
 50
0.0
 51
0.0
 71
0
 72
100
 73
1
 74
1
 75
0
 76
0
 77
0
 78
0
  0
ENDTAB
  0
TABLE
  2
LTYPE
  5
5
100
AcDbSymbolTable
 70
6
  0
LTYPE
  5
14
100
AcDbSymbolTableRecord
100
AcDbLinetypeTableRecord
  2
BYBLOCK
 70
0
  3

 72
65
 73
0
 40
0.0
  0
LTYPE
  5
15
100
AcDbSymbolTableRecord
100
AcDbLinetypeTableRecord
  2
BYLAYER
 70
0
  3

 72
65
 73
0
 40
0.0
  0
LTYPE
  5
16
100
AcDbSymbolTableRecord
100
AcDbLinetypeTableRecord
  2
CONTINUOUS
 70
64
  3
Solid line
 72
65
 73
0
 40
0.0
  0
LTYPE
  5
1F5
100
AcDbSymbolTableRecord
100
AcDbLinetypeTableRecord
  2
CENTER
 70
64
  3
____ _ ____ _ ____ _ ____ _ ____ _ ____ _ ____
 72
65
 73
4
 40
0.6
 49
0.375
 74
0
 49
-0.075
 74
0
 49
0.075
 74
0
 49
-0.075
 74
0
  0
LTYPE
  5
1F6
100
AcDbSymbolTableRecord
100
AcDbLinetypeTableRecord
  2
HIDDEN
 70
64
  3
- - - - - - - - - - - - - - - - - - - -
 72
65
 73
2
 40
0.2
 49
0.1
 74
0
 49
-0.1
 74
0
  0
LTYPE
  5
1F7
100
AcDbSymbolTableRecord
100
AcDbLinetypeTableRecord
  2
PHANTOM
 70
64
  3
_____ _ _ _____ _ _ _____ _ _ _____
 72
65
 73
6
 40
0.8
 49
0.45
 74
0
 49
-0.05
 74
0
 49
0.1
 74
0
 49
-0.05
 74
0
 49
0.1
 74
0
 49
-0.05
 74
0
  0
LTYPE
  5
1F8
100
AcDbSymbolTableRecord
100
AcDbLinetypeTableRecord
  2
DOT
 70
64
  3
. . . . . . . . . . . . . . . . . . . .
 72
65
 73
2
 40
0.2
 49
0.1
 74
0
 49
-0.1
 74
0
  0
LTYPE
  5
1F9
100
AcDbSymbolTableRecord
100
AcDbLinetypeTableRecord
  2
DASHED
 70
64
  3
- - - - - - - - - - - - - - - - - - - -
 72
65
 73
2
 40
0.2
 49
0.1
 74
0
 49
-0.1
 74
0
  0
ENDTAB
  0
TABLE
  2
LAYER
  5
2
100
AcDbSymbolTable
 70
36
  0
LAYER
  5
10
100
AcDbSymbolTableRecord
100
AcDbLayerTableRecord
  2
0
 70
0
 62
7
  6
CONTINUOUS
370
-3
390
F
  0
LAYER
  5
1FA
100
AcDbSymbolTableRecord
100
AcDbLayerTableRecord
  2
DEFAULT_1
 70
0
 62
7
  6
CENTER
370
-3
390
F
  0
LAYER
  5
1FB
100
AcDbSymbolTableRecord
100
AcDbLayerTableRecord
  2
DEFAULT_2
 70
0
 62
8
  6
HIDDEN
370
-3
390
F
  0
LAYER
  5
1FC
100
AcDbSymbolTableRecord
100
AcDbLayerTableRecord
  2
DEFAULT_3
 70
0
 62
7
  6
PHANTOM
370
-3
390
F
  0
LAYER
  5
1FD
100
AcDbSymbolTableRecord
100
AcDbLayerTableRecord
  2
00_COMPONENTS
 70
0
 62
7
  6
CONTINUOUS
370
-3
390
F
  0
LAYER
  5
1FE
100
AcDbSymbolTableRecord
100
AcDbLayerTableRecord
  2
01_1_DEFAULT_DATUMS
 70
0
 62
7
  6
CONTINUOUS
370
-3
390
F
  0
LAYER
  5
1FF
100
AcDbSymbolTableRecord
100
AcDbLayerTableRecord
  2
01_PLANES
 70
0
 62
7
  6
CONTINUOUS
370
-3
390
F
  0
LAYER
  5
200
100
AcDbSymbolTableRecord
100
AcDbLayerTableRecord
  2
02_COORD_SYS
 70
0
 62
7
  6
CONTINUOUS
370
-3
390
F
  0
LAYER
  5
201
100
AcDbSymbolTableRecord
100
AcDbLayerTableRecord
  2
03_AXES
 70
0
 62
7
  6
CONTINUOUS
370
-3
390
F
  0
LAYER
  5
202
100
AcDbSymbolTableRecord
100
AcDbLayerTableRecord
  2
04_POINTS
 70
0
 62
7
  6
CONTINUOUS
370
-3
390
F
  0
LAYER
  5
203
100
AcDbSymbolTableRecord
100
AcDbLayerTableRecord
  2
05_CURVES
 70
0
 62
7
  6
CONTINUOUS
370
-3
390
F
  0
LAYER
  5
204
100
AcDbSymbolTableRecord
100
AcDbLayerTableRecord
  2
06_SURFS
 70
0
 62
7
  6
CONTINUOUS
370
-3
390
F
  0
LAYER
  5
205
100
AcDbSymbolTableRecord
100
AcDbLayerTableRecord
  2
07_COSMETICS
 70
0
 62
7
  6
CONTINUOUS
370
-3
390
F
  0
LAYER
  5
206
100
AcDbSymbolTableRecord
100
AcDbLayerTableRecord
  2
10_NOTES
 70
0
 62
7
  6
CONTINUOUS
370
-3
390
F
  0
LAYER
  5
207
100
AcDbSymbolTableRecord
100
AcDbLayerTableRecord
  2
11_NOTES_PUB
 70
0
 62
7
  6
CONTINUOUS
370
-3
390
F
  0
LAYER
  5
208
100
AcDbSymbolTableRecord
100
AcDbLayerTableRecord
  2
13_REF_GTOL
 70
0
 62
7
  6
CONTINUOUS
370
-3
390
F
  0
LAYER
  5
209
100
AcDbSymbolTableRecord
100
AcDbLayerTableRecord
  2
16_MISC
 70
0
 62
7
  6
CONTINUOUS
370
-3
390
F
  0
LAYER
  5
20A
100
AcDbSymbolTableRecord
100
AcDbLayerTableRecord
  2
17_NO_PRINT
 70
0
 62
7
  6
CONTINUOUS
370
-3
390
F
  0
LAYER
  5
20B
100
AcDbSymbolTableRecord
100
AcDbLayerTableRecord
  2
18_DATUM_CAMS_JOINTS
 70
0
 62
7
  6
CONTINUOUS
370
-3
390
F
  0
LAYER
  5
20C
100
AcDbSymbolTableRecord
100
AcDbLayerTableRecord
  2
19_DATUM_FUNCTIONAL
 70
0
 62
7
  6
CONTINUOUS
370
-3
390
F
  0
LAYER
  5
20D
100
AcDbSymbolTableRecord
100
AcDbLayerTableRecord
  2
20_DATUM_KINEMATIC_SCHEME
 70
0
 62
7
  6
CONTINUOUS
370
-3
390
F
  0
ENDTAB
  0
TABLE
  2
STYLE
  5
3
100
AcDbSymbolTable
 70
1
  0
STYLE
  5
11
100
AcDbSymbolTableRecord
100
AcDbTextStyleTableRecord
  2
STANDARD
 70
0
 40
0.0
 41
0.8
 50
0.0
 71
0
 42
0.2
  3
txt
  4

  0
STYLE
  5
20E
100
AcDbSymbolTableRecord
100
AcDbTextStyleTableRecord
  2
TEXTSTYLE_1
 70
0
 40
0.0
 41
0.8
 50
0.0
 71
0
 42
0.2
  3
gdt
  4

  0
ENDTAB
  0
TABLE
  2
VIEW
  5
6
100
AcDbSymbolTable
 70
0
  0
ENDTAB
  0
TABLE
  2
UCS
  5
7
100
AcDbSymbolTable
 70
0
  0
ENDTAB
  0
TABLE
  2
APPID
  5
9
100
AcDbSymbolTable
 70
1
  0
APPID
  5
20F
100
AcDbSymbolTableRecord
100
AcDbRegAppTableRecord
  2
ACAD
 70
0
  0
ENDTAB
  0
TABLE
  2
BLOCK_RECORD
  5
1
100
AcDbSymbolTable
 70
0
  0
BLOCK_RECORD
  5
210
100
AcDbSymbolTableRecord
100
AcDbBlockTableRecord
  2
*Model_Space
  0
BLOCK_RECORD
  5
211
100
AcDbSymbolTableRecord
100
AcDbBlockTableRecord
  2
*Paper_Space
  0
BLOCK_RECORD
  5
212
100
AcDbSymbolTableRecord
100
AcDbBlockTableRecord
  2
_FILLED
  0
ENDTAB
  0
TABLE
  2
DIMSTYLE
  5
A
100
AcDbSymbolTable
 70
1
100
AcDbDimStyleTable
 71
0
  0
DIMSTYLE
105
213
100
AcDbSymbolTableRecord
100
AcDbDimStyleTableRecord
  2
STANDARD
 70
0
  3

  4

 40
1.0
 41
3.7114001532
 42
1.0
 43
0.38
 44
1.0
 45
0.0
 46
0.0
 47
0.01
 48
0.01
140
5.1959602144
141
0.09
142
0.0
143
25.4
144
1.0
145
0.0
146
1.0
147
0.625
 71
1
 72
0
 73
0
 74
0
 75
0
 76
0
 77
1
 78
8
 79
2
170
0
171
1
172
0
173
0
174
0
175
0
176
0
177
0
178
0
270
2
179
2
271
2
272
2
273
2
274
2
275
0
280
0
281
0
282
0
283
1
284
8
285
0
286
0
287
3
288
0
340
11
278
46
341
212
342
212
343
212
344
212
  0
ENDTAB
  0
ENDSEC
  0
SECTION
  2
BLOCKS
  0
BLOCK
  5
20
100
AcDbEntity
  8
0
100
AcDbBlockBegin
  2
*Model_Space
 70
0
 10
0.0
 20
0.0
 30
0.0
  3
*Model_Space
  1

  0
ENDBLK
  5
21
100
AcDbEntity
  8
0
100
AcDbBlockEnd
  0
BLOCK
  5
1C
100
AcDbEntity
  8
0
100
AcDbBlockBegin
  2
*Paper_Space
 70
0
 10
0.0
 20
0.0
 30
0.0
  3
*Paper_Space
  1

  0
ENDBLK
  5
1D
100
AcDbEntity
  8
0
100
AcDbBlockEnd
  0
BLOCK
  5
214
100
AcDbEntity
  8
0
100
AcDbBlockBegin
  2
_FILLED
 70
64
 10
0.0
 20
0.0
  3
_FILLED
  1

  0
SOLID
  5
215
100
AcDbEntity
  8
0
  6
BYBLOCK
 62
0
100
AcDbTrace
 10
0.0
 20
0.0
 11
-1.0
 21
0.25
 12
-1.0
 22
-0.25
 13
-1.0
 23
-0.25
  0
ENDBLK
  5
216
100
AcDbEntity
  8
0
  6
BYBLOCK
 62
0
100
AcDbBlockEnd
  0
ENDSEC
  0
SECTION
  2
ENTITIES
  0
LINE
  5
217
100
AcDbEntity
  8
0
100
AcDbLine
 62
7
  6
CONTINUOUS
 10
36.0725828959
 20
245.6936638437
 11
36.0725828959
 21
243.2441565923
  0
LINE
  5
218
100
AcDbEntity
  8
0
100
AcDbLine
 62
7
  6
CONTINUOUS
 10
43.3949869655
 20
233.0380527455
 11
43.3949869655
 21
235.4875599969
  0
LINE
  5
219
100
AcDbEntity
  8
0
100
AcDbLine
 62
7
  6
CONTINUOUS
 10
43.3948397672
 20
255.8996827067
 11
99.9631467443
 21
288.5592150164
  0
LINE
  5
21A
100
AcDbEntity
  8
0
100
AcDbLine
 62
7
  6
CONTINUOUS
 10
181.2813833692
 20
153.4311056141
 11
43.3949869655
 21
233.0380527455
  0
LINE
  5
21B
100
AcDbEntity
  8
0
100
AcDbLine
 62
7
  6
CONTINUOUS
 10
181.2813833692
 20
155.8806128654
 11
43.3949869655
 21
235.4875599969
  0
LINE
  5
21C
100
AcDbEntity
  8
0
100
AcDbLine
 62
7
  6
CONTINUOUS
 10
181.2813833692
 20
155.8806128654
 11
181.2813833692
 21
153.4311056141
  0
LINE
  5
21D
100
AcDbEntity
  8
0
100
AcDbLine
 62
7
  6
CONTINUOUS
 10
135.3184858033
 20
288.5593000002
 11
273.204882207
 21
208.9523528687
  0
LINE
  5
21E
100
AcDbEntity
  8
0
100
AcDbLine
 62
7
  6
CONTINUOUS
 10
216.6367224282
 20
153.4311905978
 11
216.6367224282
 21
155.8806978492
  0
LINE
  5
21F
100
AcDbEntity
  8
0
100
AcDbLine
 62
7
  6
CONTINUOUS
 10
273.2050294053
 20
188.5402301589
 11
216.6367224282
 21
155.8806978492
  0
LINE
  5
220
100
AcDbEntity
  8
0
100
AcDbLine
 62
7
  6
CONTINUOUS
 10
273.2050294053
 20
186.0907229076
 11
216.6367224282
 21
153.4311905978
  0
LINE
  5
221
100
AcDbEntity
  8
0
100
AcDbLine
 62
7
  6
CONTINUOUS
 10
273.2050294053
 20
188.5402301589
 11
273.2050294053
 21
186.0907229076
  0
LINE
  5
222
100
AcDbEntity
  8
0
100
AcDbLine
 62
7
  6
CONTINUOUS
 10
280.5272862767
 20
198.746249022
 11
280.5272862767
 21
196.2967417706
  0
ARC
  5
223
100
AcDbEntity
  8
0
100
AcDbCircle
 62
7
  6
CONTINUOUS
 10
66.7670795205
 20
223.1734836774
 40
2.9050078001
100
AcDbArc
 50
117.5564671535
 51
119.9823616764
  0
ARC
  5
224
100
AcDbEntity
  8
0
100
AcDbCircle
 62
7
  6
CONTINUOUS
 10
149.4982284744
 20
270.9380496805
 40
2.9050077999
100
AcDbArc
 50
117.5564671534
 51
119.9823616765
  0
ARC
  5
225
100
AcDbEntity
  8
0
100
AcDbCircle
 62
7
  6
CONTINUOUS
 10
75.6056066407
 20
265.8348413868
 40
2.9050078001
100
AcDbArc
 50
117.5564671535
 51
119.9823616764
  0
ARC
  5
226
100
AcDbEntity
  8
0
100
AcDbCircle
 62
7
  6
CONTINUOUS
 10
239.6550628749
 20
171.122986338
 40
2.9050078002
100
AcDbArc
 50
117.5564671535
 51
119.9823616764
  0
ARC
  5
227
100
AcDbEntity
  8
0
100
AcDbCircle
 62
7
  6
CONTINUOUS
 10
165.7624410411
 20
166.0197780445
 40
2.9050078002
100
AcDbArc
 50
117.5564671535
 51
119.9823616764
  0
ARC
  5
228
100
AcDbEntity
  8
0
100
AcDbCircle
 62
7
  6
CONTINUOUS
 10
248.4935899951
 20
213.7843440474
 40
2.9050078002
100
AcDbArc
 50
117.5564671535
 51
119.9823616764
  0
SPLINE
  5
229
100
AcDbEntity
  8
0
100
AcDbSpline
 62
7
  6
CONTINUOUS
 70
0
 71
3
 72
12
 73
8
 74
0
 42
0.0000001
 43
0.0000001
 44
0.0000000001
 40
0.0
 40
0.0
 40
0.0
 40
0.0
 40
0.2895910236
 40
0.5486316181
 40
0.7816370724
 40
0.8918384035
 40
1.0
 40
1.0
 40
1.0
 40
1.0
 10
43.3948397672
 20
255.8996827067
 30
0.0
 10
42.2974579386
 20
255.2661127944
 30
0.0
 10
40.3069820502
 20
253.8952794101
 30
0.0
 10
37.9291033976
 20
251.3974629036
 30
0.0
 10
36.6523257122
 20
249.0439117813
 30
0.0
 10
36.1548838329
 20
247.124407071
 30
0.0
 10
36.0726772056
 20
246.1669398393
 30
0.0
 10
36.0726772046
 20
245.6936638436
 30
0.0
  0
SPLINE
  5
22A
100
AcDbEntity
  8
0
100
AcDbSpline
 62
7
  6
CONTINUOUS
 70
0
 71
3
 72
15
 73
11
 74
0
 42
0.0000001
 43
0.0000001
 44
0.0000000001
 40
0.0
 40
0.0
 40
0.0
 40
0.0
 40
0.1141581171
 40
0.2373254444
 40
0.3669768515
 40
0.5000005115
 40
0.6330241004
 40
0.7626752999
 40
0.8858423003
 40
1.0
 40
1.0
 40
1.0
 40
1.0
 10
135.3184858033
 20
288.5593000002
 30
0.0
 10
134.1082688268
 20
289.2580032906
 30
0.0
 10
131.4620138839
 20
290.4902767541
 30
0.0
 10
127.1526755293
 20
291.799932391
 30
0.0
 10
122.487232126
 20
292.6061712264
 30
0.0
 10
117.6407868079
 20
292.8781171274
 30
0.0
 10
112.7943453074
 20
292.6061482995
 30
0.0
 10
108.1289131885
 20
291.7998873565
 30
0.0
 10
103.8195931546
 20
290.4902112158
 30
0.0
 10
101.1733542578
 20
289.2579244793
 30
0.0
 10
99.9631467443
 20
288.5592150164
 30
0.0
  0
SPLINE
  5
22B
100
AcDbEntity
  8
0
100
AcDbSpline
 62
7
  6
CONTINUOUS
 70
0
 71
3
 72
15
 73
11
 74
0
 42
0.0000001
 43
0.0000001
 44
0.0000000001
 40
0.0
 40
0.0
 40
0.0
 40
0.0
 40
0.1288244605
 40
0.2705976782
 40
0.4178986235
 40
0.5623949216
 40
0.69620836
 40
0.8136001012
 40
0.9130679301
 40
1.0
 40
1.0
 40
1.0
 40
1.0
 10
168.553370045
 20
168.5360983514
 30
0.0
 10
168.3313090459
 20
168.407892139
 30
0.0
 10
167.8284453161
 20
168.2004636136
 30
0.0
 10
167.0089907973
 20
168.0364307773
 30
0.0
 10
166.1421792489
 20
168.0125520548
 30
0.0
 10
165.2991560291
 20
168.1309241663
 30
0.0
 10
164.5471015207
 20
168.3822126439
 30
0.0
 10
163.9447153507
 20
168.749276796
 30
0.0
 10
163.536565378
 20
169.2133643118
 30
0.0
 10
163.4321786308
 20
169.5877903179
 30
0.0
 10
163.4321719496
 20
169.7608208319
 30
0.0
  0
SPLINE
  5
22C
100
AcDbEntity
  8
0
100
AcDbSpline
 62
7
  6
CONTINUOUS
 70
0
 71
3
 72
15
 73
11
 74
0
 42
0.0000001
 43
0.0000001
 44
0.0000000001
 40
0.0
 40
0.0
 40
0.0
 40
0.0
 40
0.1288244605
 40
0.2705976782
 40
0.4178986235
 40
0.5623949216
 40
0.69620836
 40
0.8136001012
 40
0.9130679301
 40
1.0
 40
1.0
 40
1.0
 40
1.0
 10
251.284518999
 20
216.3006643543
 30
0.0
 10
251.0624579999
 20
216.172458142
 30
0.0
 10
250.5595942701
 20
215.9650296165
 30
0.0
 10
249.7401397513
 20
215.8009967803
 30
0.0
 10
248.8733282029
 20
215.7771180577
 30
0.0
 10
248.0303049831
 20
215.8954901693
 30
0.0
 10
247.2782504747
 20
216.1467786468
 30
0.0
 10
246.6758643047
 20
216.513842799
 30
0.0
 10
246.267714332
 20
216.9779303147
 30
0.0
 10
246.1633275848
 20
217.3523563209
 30
0.0
 10
246.1633209036
 20
217.5253868348
 30
0.0
  0
SPLINE
  5
22D
100
AcDbEntity
  8
0
100
AcDbSpline
 62
7
  6
CONTINUOUS
 70
0
 71
3
 72
15
 73
11
 74
0
 42
0.0000001
 43
0.0000001
 44
0.0000000001
 40
0.0
 40
0.0
 40
0.0
 40
0.0
 40
0.1288244605
 40
0.2705976782
 40
0.4178986235
 40
0.5623949216
 40
0.69620836
 40
0.8136001012
 40
0.9130679301
 40
1.0
 40
1.0
 40
1.0
 40
1.0
 10
242.4459918788
 20
173.6393066449
 30
0.0
 10
242.2239308796
 20
173.5111004326
 30
0.0
 10
241.7210671498
 20
173.3036719071
 30
0.0
 10
240.901612631
 20
173.1396390708
 30
0.0
 10
240.0348010827
 20
173.1157603483
 30
0.0
 10
239.1917778629
 20
173.2341324599
 30
0.0
 10
238.4397233544
 20
173.4854209374
 30
0.0
 10
237.8373371845
 20
173.8524850896
 30
0.0
 10
237.4291872118
 20
174.3165726053
 30
0.0
 10
237.3248004645
 20
174.6909986115
 30
0.0
 10
237.3247937833
 20
174.8640291254
 30
0.0
  0
SPLINE
  5
22E
100
AcDbEntity
  8
0
100
AcDbSpline
 62
7
  6
CONTINUOUS
 70
0
 71
3
 72
15
 73
11
 74
0
 42
0.0000001
 43
0.0000001
 44
0.0000000001
 40
0.0
 40
0.0
 40
0.0
 40
0.0
 40
0.1288244605
 40
0.2705976782
 40
0.4178986235
 40
0.5623949216
 40
0.69620836
 40
0.8136001012
 40
0.9130679301
 40
1.0
 40
1.0
 40
1.0
 40
1.0
 10
78.3965356447
 20
268.3511616936
 30
0.0
 10
78.1744746455
 20
268.2229554813
 30
0.0
 10
77.6716109157
 20
268.0155269558
 30
0.0
 10
76.8521563969
 20
267.8514941196
 30
0.0
 10
75.9853448486
 20
267.827615397
 30
0.0
 10
75.1423216288
 20
267.9459875086
 30
0.0
 10
74.3902671203
 20
268.1972759861
 30
0.0
 10
73.7878809504
 20
268.5643401383
 30
0.0
 10
73.3797309777
 20
269.028427654
 30
0.0
 10
73.2753442304
 20
269.4028536602
 30
0.0
 10
73.2753375492
 20
269.5758841741
 30
0.0
  0
SPLINE
  5
22F
100
AcDbEntity
  8
0
100
AcDbSpline
 62
7
  6
CONTINUOUS
 70
0
 71
3
 72
15
 73
11
 74
0
 42
0.0000001
 43
0.0000001
 44
0.0000000001
 40
0.0
 40
0.0
 40
0.0
 40
0.0
 40
0.1288244605
 40
0.2705976782
 40
0.4178986235
 40
0.5623949216
 40
0.69620836
 40
0.8136001012
 40
0.9130679301
 40
1.0
 40
1.0
 40
1.0
 40
1.0
 10
69.5580085244
 20
225.6898039842
 30
0.0
 10
69.3359475253
 20
225.5615977719
 30
0.0
 10
68.8330837955
 20
225.3541692464
 30
0.0
 10
68.0136292767
 20
225.1901364101
 30
0.0
 10
67.1468177283
 20
225.1662576876
 30
0.0
 10
66.3037945085
 20
225.2846297992
 30
0.0
 10
65.5517400001
 20
225.5359182767
 30
0.0
 10
64.9493538301
 20
225.9029824288
 30
0.0
 10
64.5412038574
 20
226.3670699446
 30
0.0
 10
64.4368171102
 20
226.7414959508
 30
0.0
 10
64.436810429
 20
226.9145264647
 30
0.0
  0
SPLINE
  5
230
100
AcDbEntity
  8
0
100
AcDbSpline
 62
7
  6
CONTINUOUS
 70
0
 71
3
 72
15
 73
11
 74
0
 42
0.0000001
 43
0.0000001
 44
0.0000000001
 40
0.0
 40
0.0
 40
0.0
 40
0.0
 40
0.1288244605
 40
0.2705976782
 40
0.4178986235
 40
0.5623949216
 40
0.69620836
 40
0.8136001012
 40
0.9130679301
 40
1.0
 40
1.0
 40
1.0
 40
1.0
 10
152.2891574784
 20
273.4543699872
 30
0.0
 10
152.0670964793
 20
273.3261637748
 30
0.0
 10
151.5642327495
 20
273.1187352494
 30
0.0
 10
150.7447782307
 20
272.9547024131
 30
0.0
 10
149.8779666823
 20
272.9308236906
 30
0.0
 10
149.0349434625
 20
273.0491958021
 30
0.0
 10
148.2828889541
 20
273.3004842797
 30
0.0
 10
147.6805027841
 20
273.6675484318
 30
0.0
 10
147.2723528115
 20
274.1316359476
 30
0.0
 10
147.1679660642
 20
274.5060619537
 30
0.0
 10
147.167959383
 20
274.6790924677
 30
0.0
  0
SPLINE
  5
231
100
AcDbEntity
  8
0
100
AcDbSpline
 62
7
  6
CONTINUOUS
 70
0
 71
3
 72
11
 73
7
 74
0
 42
0.0000001
 43
0.0000001
 44
0.0000000001
 40
0.0
 40
0.0
 40
0.0
 40
0.0
 40
0.2177227832
 40
0.4508712161
 40
0.7104668615
 40
1.0
 40
1.0
 40
1.0
 40
1.0
 10
70.436548269
 20
226.9145260308
 30
0.0
 10
70.4365526797
 20
226.8002949982
 30
0.0
 10
70.3945448268
 20
226.5621262726
 30
0.0
 10
70.2138981721
 20
226.2301922603
 30
0.0
 10
69.9283026609
 20
225.9303786035
 30
0.0
 10
69.6895642588
 20
225.7657572695
 30
0.0
 10
69.5580085244
 20
225.6898039842
 30
0.0
  0
SPLINE
  5
232
100
AcDbEntity
  8
0
100
AcDbSpline
 62
7
  6
CONTINUOUS
 70
0
 71
3
 72
11
 73
7
 74
0
 42
0.0000001
 43
0.0000001
 44
0.0000000001
 40
0.0
 40
0.0
 40
0.0
 40
0.0
 40
0.2367751003
 40
0.4979262865
 40
0.7601413084
 40
1.0
 40
1.0
 40
1.0
 40
1.0
 10
69.5221336619
 20
225.710077083
 30
0.0
 10
69.2302714337
 20
225.8729807219
 30
0.0
 10
68.5586643289
 20
226.1132519697
 30
0.0
 10
67.4851280309
 20
226.2353018595
 30
0.0
 10
66.4051080455
 20
226.132951737
 30
0.0
 10
65.7232980192
 20
225.9056681057
 30
0.0
 10
65.4231573418
 20
225.7489338314
 30
0.0
  0
SPLINE
  5
233
100
AcDbEntity
  8
0
100
AcDbSpline
 62
7
  6
CONTINUOUS
 70
0
 71
3
 72
11
 73
7
 74
0
 42
0.0000001
 43
0.0000001
 44
0.0000000001
 40
0.0
 40
0.0
 40
0.0
 40
0.0
 40
0.2177227832
 40
0.4508712161
 40
0.7104668615
 40
1.0
 40
1.0
 40
1.0
 40
1.0
 10
153.167697223
 20
274.6790920338
 30
0.0
 10
153.1677016338
 20
274.5648610012
 30
0.0
 10
153.1256937808
 20
274.3266922755
 30
0.0
 10
152.9450471261
 20
273.9947582633
 30
0.0
 10
152.6594516149
 20
273.6949446065
 30
0.0
 10
152.4207132129
 20
273.5303232725
 30
0.0
 10
152.2891574784
 20
273.4543699872
 30
0.0
  0
SPLINE
  5
234
100
AcDbEntity
  8
0
100
AcDbSpline
 62
7
  6
CONTINUOUS
 70
0
 71
3
 72
11
 73
7
 74
0
 42
0.0000001
 43
0.0000001
 44
0.0000000001
 40
0.0
 40
0.0
 40
0.0
 40
0.0
 40
0.2367751003
 40
0.4979262865
 40
0.7601413084
 40
1.0
 40
1.0
 40
1.0
 40
1.0
 10
152.253282616
 20
273.474643086
 30
0.0
 10
151.9614203877
 20
273.6375467249
 30
0.0
 10
151.289813283
 20
273.8778179727
 30
0.0
 10
150.2162769849
 20
273.9998678625
 30
0.0
 10
149.1362569996
 20
273.8975177399
 30
0.0
 10
148.4544469732
 20
273.6702341087
 30
0.0
 10
148.1543062958
 20
273.5134998344
 30
0.0
  0
SPLINE
  5
235
100
AcDbEntity
  8
0
100
AcDbSpline
 62
7
  6
CONTINUOUS
 70
0
 71
3
 72
12
 73
8
 74
0
 42
0.0000001
 43
0.0000001
 44
0.0000000001
 40
0.0
 40
0.0
 40
0.0
 40
0.0
 40
0.2895914966
 40
0.5486322636
 40
0.7816375215
 40
0.8918386468
 40
1.0
 40
1.0
 40
1.0
 40
1.0
 10
43.3949869655
 20
233.0380527455
 30
0.0
 10
42.2975846243
 20
233.6716239493
 30
0.0
 10
40.3070709752
 20
235.0424626016
 30
0.0
 10
37.929143992
 20
237.540297529
 30
0.0
 10
36.6523383627
 20
239.8938723547
 30
0.0
 10
36.1548856069
 20
241.8133979106
 30
0.0
 10
36.0726772149
 20
242.7708755585
 30
0.0
 10
36.0726772046
 20
243.2441565924
 30
0.0
  0
SPLINE
  5
236
100
AcDbEntity
  8
0
100
AcDbSpline
 62
7
  6
CONTINUOUS
 70
0
 71
3
 72
15
 73
11
 74
0
 42
0.0000001
 43
0.0000001
 44
0.0000000001
 40
0.0
 40
0.0
 40
0.0
 40
0.0
 40
0.1141576923
 40
0.237324686
 40
0.3669758813
 40
0.4999994688
 40
0.6330231302
 40
0.7626745415
 40
0.8858418756
 40
1.0
 40
1.0
 40
1.0
 40
1.0
 10
216.6367224282
 20
153.4311905978
 30
0.0
 10
215.4265149929
 20
152.73248118
 30
0.0
 10
212.780276263
 20
151.5001944993
 30
0.0
 10
208.4709564587
 20
150.190518378
 30
0.0
 10
203.8055245024
 20
149.38425739
 30
0.0
 10
198.9590830578
 20
149.1122884868
 30
0.0
 10
194.1126376838
 20
149.3842343127
 30
0.0
 10
189.4471941178
 20
150.1904731031
 30
0.0
 10
185.1378555337
 20
151.5001287593
 30
0.0
 10
182.4916004238
 20
152.7324022786
 30
0.0
 10
181.2813833692
 20
153.4311056141
 30
0.0
  0
SPLINE
  5
237
100
AcDbEntity
  8
0
100
AcDbSpline
 62
7
  6
CONTINUOUS
 70
0
 71
3
 72
11
 73
7
 74
0
 42
0.0000001
 43
0.0000001
 44
0.0000000001
 40
0.0
 40
0.0
 40
0.0
 40
0.0
 40
0.2177227832
 40
0.4508712161
 40
0.7104668615
 40
1.0
 40
1.0
 40
1.0
 40
1.0
 10
79.2750753892
 20
269.5758837402
 30
0.0
 10
79.2750798
 20
269.4616527076
 30
0.0
 10
79.2330719471
 20
269.223483982
 30
0.0
 10
79.0524252923
 20
268.8915499697
 30
0.0
 10
78.7668297811
 20
268.591736313
 30
0.0
 10
78.5280913791
 20
268.4271149789
 30
0.0
 10
78.3965356447
 20
268.3511616936
 30
0.0
  0
SPLINE
  5
238
100
AcDbEntity
  8
0
100
AcDbSpline
 62
7
  6
CONTINUOUS
 70
0
 71
3
 72
11
 73
7
 74
0
 42
0.0000001
 43
0.0000001
 44
0.0000000001
 40
0.0
 40
0.0
 40
0.0
 40
0.0
 40
0.2367751003
 40
0.4979262865
 40
0.7601413084
 40
1.0
 40
1.0
 40
1.0
 40
1.0
 10
78.3606607822
 20
268.3714347924
 30
0.0
 10
78.0687985539
 20
268.5343384313
 30
0.0
 10
77.3971914492
 20
268.7746096791
 30
0.0
 10
76.3236551511
 20
268.8966595689
 30
0.0
 10
75.2436351658
 20
268.7943094464
 30
0.0
 10
74.5618251395
 20
268.5670258151
 30
0.0
 10
74.261684462
 20
268.4102915409
 30
0.0
  0
SPLINE
  5
239
100
AcDbEntity
  8
0
100
AcDbSpline
 62
7
  6
CONTINUOUS
 70
0
 71
3
 72
11
 73
7
 74
0
 42
0.0000001
 43
0.0000001
 44
0.0000000001
 40
0.0
 40
0.0
 40
0.0
 40
0.0
 40
0.2367751003
 40
0.4979262865
 40
0.7601413084
 40
1.0
 40
1.0
 40
1.0
 40
1.0
 10
242.4101170163
 20
173.6595797437
 30
0.0
 10
242.118254788
 20
173.8224833826
 30
0.0
 10
241.4466476833
 20
174.0627546304
 30
0.0
 10
240.3731113852
 20
174.1848045202
 30
0.0
 10
239.2930913999
 20
174.0824543977
 30
0.0
 10
238.6112813736
 20
173.8551707664
 30
0.0
 10
238.3111406961
 20
173.6984364921
 30
0.0
  0
SPLINE
  5
23A
100
AcDbEntity
  8
0
100
AcDbSpline
 62
7
  6
CONTINUOUS
 70
0
 71
3
 72
11
 73
7
 74
0
 42
0.0000001
 43
0.0000001
 44
0.0000000001
 40
0.0
 40
0.0
 40
0.0
 40
0.0
 40
0.2177227832
 40
0.4508712161
 40
0.7104668615
 40
1.0
 40
1.0
 40
1.0
 40
1.0
 10
243.3245316233
 20
174.8640286915
 30
0.0
 10
243.3245360341
 20
174.7497976589
 30
0.0
 10
243.2825281812
 20
174.5116289333
 30
0.0
 10
243.1018815264
 20
174.179694921
 30
0.0
 10
242.8162860152
 20
173.8798812643
 30
0.0
 10
242.5775476132
 20
173.7152599302
 30
0.0
 10
242.4459918788
 20
173.6393066449
 30
0.0
  0
SPLINE
  5
23B
100
AcDbEntity
  8
0
100
AcDbSpline
 62
7
  6
CONTINUOUS
 70
0
 71
3
 72
11
 73
7
 74
0
 42
0.0000001
 43
0.0000001
 44
0.0000000001
 40
0.0
 40
0.0
 40
0.0
 40
0.0
 40
0.2367751003
 40
0.4979262865
 40
0.7601413084
 40
1.0
 40
1.0
 40
1.0
 40
1.0
 10
168.5174951825
 20
168.5563714501
 30
0.0
 10
168.2256329542
 20
168.7192750891
 30
0.0
 10
167.5540258495
 20
168.9595463369
 30
0.0
 10
166.4804895515
 20
169.0815962267
 30
0.0
 10
165.4004695661
 20
168.9792461041
 30
0.0
 10
164.7186595398
 20
168.7519624729
 30
0.0
 10
164.4185188623
 20
168.5952281986
 30
0.0
  0
SPLINE
  5
23C
100
AcDbEntity
  8
0
100
AcDbSpline
 62
7
  6
CONTINUOUS
 70
0
 71
3
 72
11
 73
7
 74
0
 42
0.0000001
 43
0.0000001
 44
0.0000000001
 40
0.0
 40
0.0
 40
0.0
 40
0.0
 40
0.2177227832
 40
0.4508712161
 40
0.7104668615
 40
1.0
 40
1.0
 40
1.0
 40
1.0
 10
169.4319097895
 20
169.760820398
 30
0.0
 10
169.4319142003
 20
169.6465893654
 30
0.0
 10
169.3899063474
 20
169.4084206397
 30
0.0
 10
169.2092596927
 20
169.0764866275
 30
0.0
 10
168.9236641815
 20
168.7766729707
 30
0.0
 10
168.6849257794
 20
168.6120516367
 30
0.0
 10
168.553370045
 20
168.5360983514
 30
0.0
  0
SPLINE
  5
23D
100
AcDbEntity
  8
0
100
AcDbSpline
 62
7
  6
CONTINUOUS
 70
0
 71
3
 72
12
 73
8
 74
0
 42
0.0000001
 43
0.0000001
 44
0.0000000001
 40
0.0
 40
0.0
 40
0.0
 40
0.0
 40
0.1081613495
 40
0.2183624722
 40
0.4513677273
 40
0.7104084967
 40
1.0
 40
1.0
 40
1.0
 40
1.0
 10
280.527191968
 20
198.746249022
 30
0.0
 10
280.5271919691
 20
199.2195300397
 30
0.0
 10
280.444983551
 20
200.1770076578
 30
0.0
 10
279.9475308513
 20
202.0965331827
 30
0.0
 10
278.6707252359
 20
204.4501080067
 30
0.0
 10
276.2927982524
 20
206.9479429682
 30
0.0
 10
274.3022845734
 20
208.3187816504
 30
0.0
 10
273.204882207
 20
208.9523528687
 30
0.0
  0
SPLINE
  5
23E
100
AcDbEntity
  8
0
100
AcDbSpline
 62
7
  6
CONTINUOUS
 70
0
 71
3
 72
12
 73
8
 74
0
 42
0.0000001
 43
0.0000001
 44
0.0000000001
 40
0.0
 40
0.0
 40
0.0
 40
0.0
 40
0.1081615928
 40
0.2183629213
 40
0.4513683727
 40
0.7104089697
 40
1.0
 40
1.0
 40
1.0
 40
1.0
 10
280.527191968
 20
196.2967417705
 30
0.0
 10
280.5271919783
 20
195.8234657911
 30
0.0
 10
280.4449853251
 20
194.8659985891
 30
0.0
 10
279.9475435018
 20
192.9464939099
 30
0.0
 10
278.6707658303
 20
190.5929427892
 30
0.0
 10
276.2928871774
 20
188.0951262485
 30
0.0
 10
274.3024112591
 20
186.7242928343
 30
0.0
 10
273.2050294053
 20
186.0907229076
 30
0.0
  0
SPLINE
  5
23F
100
AcDbEntity
  8
0
100
AcDbSpline
 62
7
  6
CONTINUOUS
 70
0
 71
3
 72
11
 73
7
 74
0
 42
0.0000001
 43
0.0000001
 44
0.0000000001
 40
0.0
 40
0.0
 40
0.0
 40
0.0
 40
0.2177227832
 40
0.4508712161
 40
0.7104668615
 40
1.0
 40
1.0
 40
1.0
 40
1.0
 10
252.1630587436
 20
217.5253864009
 30
0.0
 10
252.1630631543
 20
217.4111553683
 30
0.0
 10
252.1210553014
 20
217.1729866427
 30
0.0
 10
251.9404086467
 20
216.8410526305
 30
0.0
 10
251.6548131355
 20
216.5412389737
 30
0.0
 10
251.4160747334
 20
216.3766176396
 30
0.0
 10
251.284518999
 20
216.3006643543
 30
0.0
  0
SPLINE
  5
240
100
AcDbEntity
  8
0
100
AcDbSpline
 62
7
  6
CONTINUOUS
 70
0
 71
3
 72
11
 73
7
 74
0
 42
0.0000001
 43
0.0000001
 44
0.0000000001
 40
0.0
 40
0.0
 40
0.0
 40
0.0
 40
0.2367751003
 40
0.4979262865
 40
0.7601413084
 40
1.0
 40
1.0
 40
1.0
 40
1.0
 10
251.2486441365
 20
216.3209374531
 30
0.0
 10
250.9567819083
 20
216.483841092
 30
0.0
 10
250.2851748035
 20
216.7241123398
 30
0.0
 10
249.2116385055
 20
216.8461622296
 30
0.0
 10
248.1316185201
 20
216.7438121071
 30
0.0
 10
247.4498084938
 20
216.5165284758
 30
0.0
 10
247.1496678164
 20
216.3597942016
 30
0.0
  0
SPLINE
  5
241
100
AcDbEntity
  8
0
100
AcDbSpline
 62
7
  6
CONTINUOUS
 70
0
 71
3
 72
11
 73
7
 74
0
 42
0.0000001
 43
0.0000001
 44
0.0000000001
 40
0.0
 40
0.0
 40
0.0
 40
0.0
 40
0.2177227832
 40
0.4508712161
 40
0.7104668615
 40
1.0
 40
1.0
 40
1.0
 40
1.0
 10
237.3247937833
 20
174.8640291254
 30
0.0
 10
237.3247893726
 20
174.978260158
 30
0.0
 10
237.3667972255
 20
175.2164288837
 30
0.0
 10
237.5474438802
 20
175.5483628959
 30
0.0
 10
237.8330393914
 20
175.8481765527
 30
0.0
 10
238.0717777935
 20
176.0127978867
 30
0.0
 10
238.2033335279
 20
176.088751172
 30
0.0
  0
SPLINE
  5
242
100
AcDbEntity
  8
0
100
AcDbSpline
 62
7
  6
CONTINUOUS
 70
0
 71
3
 72
15
 73
11
 74
0
 42
0.0000001
 43
0.0000001
 44
0.0000000001
 40
0.0
 40
0.0
 40
0.0
 40
0.0
 40
0.1288244605
 40
0.2705976782
 40
0.4178986235
 40
0.5623949216
 40
0.69620836
 40
0.8136001012
 40
0.9130679301
 40
1.0
 40
1.0
 40
1.0
 40
1.0
 10
238.2033335279
 20
176.088751172
 30
0.0
 10
238.425394527
 20
176.2169573844
 30
0.0
 10
238.9282582568
 20
176.4243859098
 30
0.0
 10
239.7477127756
 20
176.5884187461
 30
0.0
 10
240.614524324
 20
176.6122974686
 30
0.0
 10
241.4575475438
 20
176.4939253571
 30
0.0
 10
242.2096020522
 20
176.2426368795
 30
0.0
 10
242.8119882222
 20
175.8755727274
 30
0.0
 10
243.2201381949
 20
175.4114852116
 30
0.0
 10
243.3245249421
 20
175.0370592054
 30
0.0
 10
243.3245316233
 20
174.8640286915
 30
0.0
  0
SPLINE
  5
243
100
AcDbEntity
  8
0
100
AcDbSpline
 62
7
  6
CONTINUOUS
 70
0
 71
3
 72
15
 73
11
 74
0
 42
0.0000001
 43
0.0000001
 44
0.0000000001
 40
0.0
 40
0.0
 40
0.0
 40
0.0
 40
0.1288244605
 40
0.2705976782
 40
0.4178986235
 40
0.5623949216
 40
0.69620836
 40
0.8136001012
 40
0.9130679301
 40
1.0
 40
1.0
 40
1.0
 40
1.0
 10
164.3107116941
 20
170.9855428785
 30
0.0
 10
164.5327726933
 20
171.1137490908
 30
0.0
 10
165.035636423
 20
171.3211776163
 30
0.0
 10
165.8550909418
 20
171.4852104525
 30
0.0
 10
166.7219024902
 20
171.5090891751
 30
0.0
 10
167.56492571
 20
171.3907170635
 30
0.0
 10
168.3169802184
 20
171.139428586
 30
0.0
 10
168.9193663884
 20
170.7723644338
 30
0.0
 10
169.3275163611
 20
170.3082769181
 30
0.0
 10
169.4319031083
 20
169.9338509119
 30
0.0
 10
169.4319097895
 20
169.760820398
 30
0.0
  0
SPLINE
  5
244
100
AcDbEntity
  8
0
100
AcDbSpline
 62
7
  6
CONTINUOUS
 70
0
 71
3
 72
15
 73
11
 74
0
 42
0.0000001
 43
0.0000001
 44
0.0000000001
 40
0.0
 40
0.0
 40
0.0
 40
0.0
 40
0.1288244605
 40
0.2705976782
 40
0.4178986235
 40
0.5623949216
 40
0.69620836
 40
0.8136001012
 40
0.9130679301
 40
1.0
 40
1.0
 40
1.0
 40
1.0
 10
74.1538772938
 20
270.8006062207
 30
0.0
 10
74.3759382929
 20
270.9288124331
 30
0.0
 10
74.8788020227
 20
271.1362409585
 30
0.0
 10
75.6982565415
 20
271.3002737948
 30
0.0
 10
76.5650680899
 20
271.3241525173
 30
0.0
 10
77.4080913097
 20
271.2057804058
 30
0.0
 10
78.1601458181
 20
270.9544919282
 30
0.0
 10
78.7625319881
 20
270.5874277761
 30
0.0
 10
79.1706819608
 20
270.1233402603
 30
0.0
 10
79.275068708
 20
269.7489142542
 30
0.0
 10
79.2750753892
 20
269.5758837402
 30
0.0
  0
SPLINE
  5
245
100
AcDbEntity
  8
0
100
AcDbSpline
 62
7
  6
CONTINUOUS
 70
0
 71
3
 72
11
 73
7
 74
0
 42
0.0000001
 43
0.0000001
 44
0.0000000001
 40
0.0
 40
0.0
 40
0.0
 40
0.0
 40
0.2177227832
 40
0.4508712161
 40
0.7104668615
 40
1.0
 40
1.0
 40
1.0
 40
1.0
 10
163.4321719496
 20
169.7608208319
 30
0.0
 10
163.4321675388
 20
169.8750518645
 30
0.0
 10
163.4741753917
 20
170.1132205901
 30
0.0
 10
163.6548220464
 20
170.4451546023
 30
0.0
 10
163.9404175576
 20
170.7449682591
 30
0.0
 10
164.1791559597
 20
170.9095895932
 30
0.0
 10
164.3107116941
 20
170.9855428785
 30
0.0
  0
SPLINE
  5
246
100
AcDbEntity
  8
0
100
AcDbSpline
 62
7
  6
CONTINUOUS
 70
0
 71
3
 72
11
 73
7
 74
0
 42
0.0000001
 43
0.0000001
 44
0.0000000001
 40
0.0
 40
0.0
 40
0.0
 40
0.0
 40
0.2177227832
 40
0.4508712161
 40
0.7104668615
 40
1.0
 40
1.0
 40
1.0
 40
1.0
 10
147.167959383
 20
274.6790924677
 30
0.0
 10
147.1679549722
 20
274.7933235003
 30
0.0
 10
147.2099628251
 20
275.0314922259
 30
0.0
 10
147.3906094799
 20
275.3634262382
 30
0.0
 10
147.6762049911
 20
275.6632398949
 30
0.0
 10
147.9149433931
 20
275.827861229
 30
0.0
 10
148.0464991276
 20
275.9038145143
 30
0.0
  0
SPLINE
  5
247
100
AcDbEntity
  8
0
100
AcDbSpline
 62
7
  6
CONTINUOUS
 70
0
 71
3
 72
11
 73
7
 74
0
 42
0.0000001
 43
0.0000001
 44
0.0000000001
 40
0.0
 40
0.0
 40
0.0
 40
0.0
 40
0.2834881173
 40
0.5430275724
 40
0.7802721078
 40
1.0
 40
1.0
 40
1.0
 40
1.0
 10
273.2050294053
 20
188.5402301589
 30
0.0
 10
274.0959865213
 20
189.0546214192
 30
0.0
 10
275.7420303179
 20
190.1529181277
 30
0.0
 10
277.8270620034
 20
192.0899914366
 30
0.0
 10
279.3693681323
 20
194.2058985055
 30
0.0
 10
280.0208594224
 20
195.7528997774
 30
0.0
 10
280.2287787201
 20
196.5227148279
 30
0.0
  0
SPLINE
  5
248
100
AcDbEntity
  8
0
100
AcDbSpline
 62
7
  6
CONTINUOUS
 70
0
 71
3
 72
9
 73
5
 74
0
 42
0.0000001
 43
0.0000001
 44
0.0000000001
 40
0.0
 40
0.0
 40
0.0
 40
0.0
 40
0.2528301999
 40
1.0
 40
1.0
 40
1.0
 40
1.0
 10
280.2287787201
 20
196.5227148279
 30
0.0
 10
280.2781592681
 20
196.7055448463
 30
0.0
 10
280.450598268
 20
197.4346393445
 30
0.0
 10
280.5271919667
 20
198.1865850917
 30
0.0
 10
280.527191968
 20
198.746249022
 30
0.0
  0
SPLINE
  5
249
100
AcDbEntity
  8
0
100
AcDbSpline
 62
7
  6
CONTINUOUS
 70
0
 71
3
 72
15
 73
11
 74
0
 42
0.0000001
 43
0.0000001
 44
0.0000000001
 40
0.0
 40
0.0
 40
0.0
 40
0.0
 40
0.1288244605
 40
0.2705976782
 40
0.4178986235
 40
0.5623949216
 40
0.69620836
 40
0.8136001012
 40
0.9130679301
 40
1.0
 40
1.0
 40
1.0
 40
1.0
 10
65.3153501735
 20
228.1392485113
 30
0.0
 10
65.5374111727
 20
228.2674547237
 30
0.0
 10
66.0402749025
 20
228.4748832491
 30
0.0
 10
66.8597294213
 20
228.6389160854
 30
0.0
 10
67.7265409696
 20
228.6627948079
 30
0.0
 10
68.5695641894
 20
228.5444226964
 30
0.0
 10
69.3216186979
 20
228.2931342188
 30
0.0
 10
69.9240048678
 20
227.9260700667
 30
0.0
 10
70.3321548405
 20
227.4619825509
 30
0.0
 10
70.4365415878
 20
227.0875565447
 30
0.0
 10
70.436548269
 20
226.9145260308
 30
0.0
  0
SPLINE
  5
24A
100
AcDbEntity
  8
0
100
AcDbSpline
 62
7
  6
CONTINUOUS
 70
0
 71
3
 72
15
 73
11
 74
0
 42
0.0000001
 43
0.0000001
 44
0.0000000001
 40
0.0
 40
0.0
 40
0.0
 40
0.0
 40
0.1288244605
 40
0.2705976782
 40
0.4178986235
 40
0.5623949216
 40
0.69620836
 40
0.8136001012
 40
0.9130679301
 40
1.0
 40
1.0
 40
1.0
 40
1.0
 10
247.0418606481
 20
218.7501088814
 30
0.0
 10
247.2639216473
 20
218.8783150938
 30
0.0
 10
247.7667853771
 20
219.0857436192
 30
0.0
 10
248.5862398959
 20
219.2497764555
 30
0.0
 10
249.4530514442
 20
219.273655178
 30
0.0
 10
250.296074664
 20
219.1552830665
 30
0.0
 10
251.0481291725
 20
218.9039945889
 30
0.0
 10
251.6505153424
 20
218.5369304368
 30
0.0
 10
252.0586653151
 20
218.072842921
 30
0.0
 10
252.1630520624
 20
217.6984169149
 30
0.0
 10
252.1630587436
 20
217.5253864009
 30
0.0
  0
SPLINE
  5
24B
100
AcDbEntity
  8
0
100
AcDbSpline
 62
7
  6
CONTINUOUS
 70
0
 71
3
 72
9
 73
5
 74
0
 42
0.0000001
 43
0.0000001
 44
0.0000000001
 40
0.0
 40
0.0
 40
0.0
 40
0.0
 40
0.2484378394
 40
1.0
 40
1.0
 40
1.0
 40
1.0
 10
36.0726772046
 20
245.6936638436
 30
0.0
 10
36.0726772041
 20
245.5075695025
 30
0.0
 10
36.0975978976
 20
244.7586584407
 30
0.0
 10
36.2242990371
 20
244.0136211302
 30
0.0
 10
36.3710898405
 20
243.4701319437
 30
0.0
  0
SPLINE
  5
24C
100
AcDbEntity
  8
0
100
AcDbSpline
 62
7
  6
CONTINUOUS
 70
0
 71
3
 72
11
 73
7
 74
0
 42
0.0000001
 43
0.0000001
 44
0.0000000001
 40
0.0
 40
0.0
 40
0.0
 40
0.0
 40
0.2197274528
 40
0.4569718198
 40
0.7165114402
 40
1.0
 40
1.0
 40
1.0
 40
1.0
 10
36.3710898405
 20
243.4701319437
 30
0.0
 10
36.5790117959
 20
242.7003062342
 30
0.0
 10
37.2305152361
 20
241.1532832122
 30
0.0
 10
38.7728540487
 20
239.0373504242
 30
0.0
 10
40.8579314342
 20
237.1002576896
 30
0.0
 10
42.5040106958
 20
236.0019537489
 30
0.0
 10
43.3949869655
 20
235.4875599969
 30
0.0
  0
SPLINE
  5
24D
100
AcDbEntity
  8
0
100
AcDbSpline
 62
7
  6
CONTINUOUS
 70
0
 71
3
 72
15
 73
11
 74
0
 42
0.0000001
 43
0.0000001
 44
0.0000000001
 40
0.0
 40
0.0
 40
0.0
 40
0.0
 40
0.1288244605
 40
0.2705976782
 40
0.4178986235
 40
0.5623949216
 40
0.69620836
 40
0.8136001012
 40
0.9130679301
 40
1.0
 40
1.0
 40
1.0
 40
1.0
 10
148.0464991276
 20
275.9038145143
 30
0.0
 10
148.2685601267
 20
276.0320207266
 30
0.0
 10
148.7714238565
 20
276.2394492521
 30
0.0
 10
149.5908783753
 20
276.4034820883
 30
0.0
 10
150.4576899237
 20
276.4273608109
 30
0.0
 10
151.3007131434
 20
276.3089886993
 30
0.0
 10
152.0527676519
 20
276.0577002218
 30
0.0
 10
152.6551538219
 20
275.6906360696
 30
0.0
 10
153.0633037945
 20
275.2265485539
 30
0.0
 10
153.1676905418
 20
274.8521225477
 30
0.0
 10
153.167697223
 20
274.6790920338
 30
0.0
  0
SPLINE
  5
24E
100
AcDbEntity
  8
0
100
AcDbSpline
 62
7
  6
CONTINUOUS
 70
0
 71
3
 72
15
 73
11
 74
0
 42
0.0000001
 43
0.0000001
 44
0.0000000001
 40
0.0
 40
0.0
 40
0.0
 40
0.0
 40
0.1141581171
 40
0.2373254444
 40
0.3669768515
 40
0.5000005115
 40
0.6330241004
 40
0.7626752999
 40
0.8858423003
 40
1.0
 40
1.0
 40
1.0
 40
1.0
 10
181.2813833692
 20
155.8806128654
 30
0.0
 10
182.4916003457
 20
155.1819095751
 30
0.0
 10
185.1378552887
 20
153.9496361115
 30
0.0
 10
189.4471936432
 20
152.6399804747
 30
0.0
 10
194.1126370466
 20
151.8337416393
 30
0.0
 10
198.9590823646
 20
151.5617957382
 30
0.0
 10
203.8055238651
 20
151.8337645662
 30
0.0
 10
208.4709559841
 20
152.6400255092
 30
0.0
 10
212.7802760179
 20
153.9497016498
 30
0.0
 10
215.4265149148
 20
155.1819883863
 30
0.0
 10
216.6367224282
 20
155.8806978492
 30
0.0
  0
SPLINE
  5
24F
100
AcDbEntity
  8
0
100
AcDbSpline
 62
7
  6
CONTINUOUS
 70
0
 71
3
 72
11
 73
7
 74
0
 42
0.0000001
 43
0.0000001
 44
0.0000000001
 40
0.0
 40
0.0
 40
0.0
 40
0.0
 40
0.2177227832
 40
0.4508712161
 40
0.7104668615
 40
1.0
 40
1.0
 40
1.0
 40
1.0
 10
64.436810429
 20
226.9145264647
 30
0.0
 10
64.4368060182
 20
227.0287574973
 30
0.0
 10
64.4788138711
 20
227.266926223
 30
0.0
 10
64.6594605259
 20
227.5988602352
 30
0.0
 10
64.9450560371
 20
227.898673892
 30
0.0
 10
65.1837944391
 20
228.063295226
 30
0.0
 10
65.3153501735
 20
228.1392485113
 30
0.0
  0
SPLINE
  5
250
100
AcDbEntity
  8
0
100
AcDbSpline
 62
7
  6
CONTINUOUS
 70
0
 71
3
 72
11
 73
7
 74
0
 42
0.0000001
 43
0.0000001
 44
0.0000000001
 40
0.0
 40
0.0
 40
0.0
 40
0.0
 40
0.2177227832
 40
0.4508712161
 40
0.7104668615
 40
1.0
 40
1.0
 40
1.0
 40
1.0
 10
246.1633209036
 20
217.5253868348
 30
0.0
 10
246.1633164928
 20
217.6396178674
 30
0.0
 10
246.2053243457
 20
217.8777865931
 30
0.0
 10
246.3859710005
 20
218.2097206053
 30
0.0
 10
246.6715665117
 20
218.5095342621
 30
0.0
 10
246.9103049137
 20
218.6741555961
 30
0.0
 10
247.0418606481
 20
218.7501088814
 30
0.0
  0
SPLINE
  5
251
100
AcDbEntity
  8
0
100
AcDbSpline
 62
7
  6
CONTINUOUS
 70
0
 71
3
 72
11
 73
7
 74
0
 42
0.0000001
 43
0.0000001
 44
0.0000000001
 40
0.0
 40
0.0
 40
0.0
 40
0.0
 40
0.2177227832
 40
0.4508712161
 40
0.7104668615
 40
1.0
 40
1.0
 40
1.0
 40
1.0
 10
73.2753375492
 20
269.5758841741
 30
0.0
 10
73.2753331385
 20
269.6901152067
 30
0.0
 10
73.3173409914
 20
269.9282839324
 30
0.0
 10
73.4979876461
 20
270.2602179446
 30
0.0
 10
73.7835831573
 20
270.5600316014
 30
0.0
 10
74.0223215594
 20
270.7246529354
 30
0.0
 10
74.1538772938
 20
270.8006062207
 30
0.0
  0
ENDSEC
  0
SECTION
  2
OBJECTS
  0
DICTIONARY
  5
C
100
AcDbDictionary
280
0
281
1
  3
ACAD_GROUP
350
D
  3
ACAD_MLINESTYLE
350
17
  3
ACAD_LAYOUT
350
1A
  3
ACAD_PLOTSETTINGS
350
19
  3
ACAD_PLOTSTYLENAME
350
E
  0
DICTIONARY
  5
D
102
{ACAD_REACTORS
330
C
102
}
100
AcDbDictionary
280
0
281
1
  0
ACDBDICTIONARYWDFLT
  5
E
102
{ACAD_REACTORS
330
C
102
}
100
AcDbDictionary
281
1
  3
Normal
350
F
100
AcDbDictionaryWithDefault
340
F
  0
DICTIONARY
  5
17
102
{ACAD_REACTORS
330
C
102
}
100
AcDbDictionary
280
0
281
1
  3
Standard
350
18
  0
DICTIONARY
  5
19
102
{ACAD_REACTORS
330
C
102
}
100
AcDbDictionary
281
1
  0
DICTIONARY
  5
1A
102
{ACAD_REACTORS
330
C
102
}
100
AcDbDictionary
281
1
  3
Model
350
252
  3
Layout1
350
253
  0
ACDBPLACEHOLDER
  5
F
102
{ACAD_REACTORS
330
E
102
}
  0
MLINESTYLE
  5
18
102
{ACAD_REACTORS
330
17
102
}
100
AcDbMlineStyle
  2
STANDARD
 70
0
  3

 62
256
 51
90.0
 52
90.0
 71
2
 49
0.5
 62
256
  6
BYLAYER
 49
-0.5
 62
256
  6
BYLAYER
  0
LAYOUT
  5
252
102
{ACAD_REACTORS
330
1A
102
}
100
AcDbPlotSettings
  1

  2
none_device
  4

  6

 40
0.0
 41
0.0
 42
0.0
 43
0.0
 44
210.0
 45
297.0
 46
0.0
 47
0.0
 48
0.0
 49
0.0
140
0.0
141
0.0
142
1.0
143
1.0
 70
1024
 72
1
 73
0
 74
0
  7

 75
0
147
1.0
148
0.0
149
0.0
100
AcDbLayout
  1
Model
 70
0
 71
0
 10
0.0
 20
0.0
 11
210.0
 21
297.0
 12
0.0
 22
0.0
 32
0.0
 14
0.0
 24
0.0
 34
0.0
 15
0.0
 25
0.0
 35
0.0
146
0.0
 13
0.0
 23
0.0
 33
0.0
 16
1.0
 26
0.0
 36
0.0
 17
0.0
 27
1.0
 37
0.0
 76
0
330
210
345
0
346
0
  0
LAYOUT
  5
253
102
{ACAD_REACTORS
330
1A
102
}
100
AcDbPlotSettings
  1

  2
none_device
  4

  6

 40
0.0
 41
0.0
 42
0.0
 43
0.0
 44
210.0
 45
297.0
 46
0.0
 47
0.0
 48
0.0
 49
0.0
140
0.0
141
0.0
142
1.0
143
1.0
 70
0
 72
1
 73
0
 74
0
  7

 75
0
147
1.0
148
0.0
149
0.0
100
AcDbLayout
  1
Layout1
 70
0
 71
1
 10
0.0
 20
0.0
 11
210.0
 21
297.0
 12
0.0
 22
0.0
 32
0.0
 14
0.0
 24
0.0
 34
0.0
 15
0.0
 25
0.0
 35
0.0
146
0.0
 13
0.0
 23
0.0
 33
0.0
 16
1.0
 26
0.0
 36
0.0
 17
0.0
 27
1.0
 37
0.0
 76
0
330
211
345
0
346
0
  0
ENDSEC
  0
EOF
