999
DXF file: C:\Users\sesa63760\Dev\_Creo\CAD\MCADPD0004093_3D-CAD\drw0001_6.dxf
999
Pro/ENGINEER 2019471 by Parametric Technology Corporation
  0
SECTION
  2
HEADER
  9
$ACADVER
  1
AC1024
  9
$DWGCODEPAGE
  3
ANSI_1252
  9
$EXTMAX
 10
89.8243131534
 20
127.0372428884
 30
0.0
  9
$EXTMIN
 10
0.0
 20
0.0
 30
0.0
  9
$LIMMIN
 10
0.0
 20
0.0
  9
$LIMMAX
 10
89.8243131534
 20
127.0372428884
  9
$VIEWCTR
 10
44.9121565767
 20
63.5186214442
  9
$VIEWSIZE
 40
127.0372428884
  9
$CLAYER
  8
0
  9
$LTSCALE
 40
8.2809462031
  9
$CELTYPE
  6
BYLAYER
  9
$DIMSCALE
 40
1.0
  9
$DIMASZ
 40
1.0693370614
  9
$DIMEXO
 40
1.0
  9
$DIMDLI
 40
5.721381013
  9
$DIMEXE
 40
1.0
  9
$DIMCEN
 40
1.3550639241
  9
$DIMLFAC
 40
1.0
  9
$DIMBLK
  1
_FILLED
  9
$DIMALT
 70
0
  9
$DIMALTF
 40
0.0393700787
  9
$DIMTXT
 40
1.4970718859
  9
$DIMTOL
 70
1
  9
$DIMLIM
 70
0
  9
$DIMTFAC
 40
1.0
  9
$DIMTP
 40
0.01
  9
$DIMTM
 40
0.01
  9
$DIMGAP
 40
0.625
  9
$DIMDSEP
 70
46
  9
$AUNITS
 70
0
  9
$PDMODE
 70
3
  9
$PDSIZE
 40
0.3125
  9
$HANDSEED
  5
2B8
  9
$TILEMODE
 70
1
  9
$MEASUREMENT
 70
1
  9
$INSUNITS
 70
4
  0
ENDSEC
  0
SECTION
  2
CLASSES
  0
CLASS
  1
ACDBDICTIONARYWDFLT
  2
AcDbDictionaryWithDefault
  3
AutoCAD 2000
 90
0
 91
1
280
0
281
0
  0
CLASS
  1
ACDBPLACEHOLDER
  2
AcDbPlaceHolder
  3
AutoCAD 2000
 90
0
 91
1
280
0
281
0
  0
CLASS
  1
LAYOUT
  2
AcDbLayout
  3
AutoCAD 2000
 90
0
 91
0
280
0
281
0
  0
ENDSEC
  0
SECTION
  2
TABLES
  0
TABLE
  2
VPORT
  5
8
100
AcDbSymbolTable
 70
2
  0
VPORT
  5
1F4
100
AcDbSymbolTableRecord
100
AcDbViewportTableRecord
  2
*ACTIVE
 70
0
 10
0.0
 20
0.0
 11
1.0
 21
1.0
 12
44.9121565767
 22
63.5186214442
 13
0.0
 23
0.0
 14
1.0
 24
1.0
 15
0.0
 25
0.0
 16
0.0
 26
0.0
 36
1.0
 17
0.0
 27
0.0
 37
0.0
 40
127.0372428884
 41
0.7070707071
 42
50.0
 43
0.0
 44
0.0
 50
0.0
 51
0.0
 71
0
 72
100
 73
1
 74
1
 75
0
 76
0
 77
0
 78
0
  0
ENDTAB
  0
TABLE
  2
LTYPE
  5
5
100
AcDbSymbolTable
 70
6
  0
LTYPE
  5
14
100
AcDbSymbolTableRecord
100
AcDbLinetypeTableRecord
  2
BYBLOCK
 70
0
  3

 72
65
 73
0
 40
0.0
  0
LTYPE
  5
15
100
AcDbSymbolTableRecord
100
AcDbLinetypeTableRecord
  2
BYLAYER
 70
0
  3

 72
65
 73
0
 40
0.0
  0
LTYPE
  5
16
100
AcDbSymbolTableRecord
100
AcDbLinetypeTableRecord
  2
CONTINUOUS
 70
64
  3
Solid line
 72
65
 73
0
 40
0.0
  0
LTYPE
  5
1F5
100
AcDbSymbolTableRecord
100
AcDbLinetypeTableRecord
  2
CENTER
 70
64
  3
____ _ ____ _ ____ _ ____ _ ____ _ ____ _ ____
 72
65
 73
4
 40
0.6
 49
0.375
 74
0
 49
-0.075
 74
0
 49
0.075
 74
0
 49
-0.075
 74
0
  0
LTYPE
  5
1F6
100
AcDbSymbolTableRecord
100
AcDbLinetypeTableRecord
  2
HIDDEN
 70
64
  3
- - - - - - - - - - - - - - - - - - - -
 72
65
 73
2
 40
0.2
 49
0.1
 74
0
 49
-0.1
 74
0
  0
LTYPE
  5
1F7
100
AcDbSymbolTableRecord
100
AcDbLinetypeTableRecord
  2
PHANTOM
 70
64
  3
_____ _ _ _____ _ _ _____ _ _ _____
 72
65
 73
6
 40
0.8
 49
0.45
 74
0
 49
-0.05
 74
0
 49
0.1
 74
0
 49
-0.05
 74
0
 49
0.1
 74
0
 49
-0.05
 74
0
  0
LTYPE
  5
1F8
100
AcDbSymbolTableRecord
100
AcDbLinetypeTableRecord
  2
DOT
 70
64
  3
. . . . . . . . . . . . . . . . . . . .
 72
65
 73
2
 40
0.2
 49
0.1
 74
0
 49
-0.1
 74
0
  0
LTYPE
  5
1F9
100
AcDbSymbolTableRecord
100
AcDbLinetypeTableRecord
  2
DASHED
 70
64
  3
- - - - - - - - - - - - - - - - - - - -
 72
65
 73
2
 40
0.2
 49
0.1
 74
0
 49
-0.1
 74
0
  0
ENDTAB
  0
TABLE
  2
LAYER
  5
2
100
AcDbSymbolTable
 70
36
  0
LAYER
  5
10
100
AcDbSymbolTableRecord
100
AcDbLayerTableRecord
  2
0
 70
0
 62
7
  6
CONTINUOUS
370
-3
390
F
  0
LAYER
  5
1FA
100
AcDbSymbolTableRecord
100
AcDbLayerTableRecord
  2
DEFAULT_1
 70
0
 62
7
  6
CENTER
370
-3
390
F
  0
LAYER
  5
1FB
100
AcDbSymbolTableRecord
100
AcDbLayerTableRecord
  2
DEFAULT_2
 70
0
 62
7
  6
HIDDEN
370
-3
390
F
  0
LAYER
  5
1FC
100
AcDbSymbolTableRecord
100
AcDbLayerTableRecord
  2
DEFAULT_3
 70
0
 62
7
  6
PHANTOM
370
-3
390
F
  0
LAYER
  5
1FD
100
AcDbSymbolTableRecord
100
AcDbLayerTableRecord
  2
00_COMPONENTS
 70
0
 62
7
  6
CONTINUOUS
370
-3
390
F
  0
LAYER
  5
1FE
100
AcDbSymbolTableRecord
100
AcDbLayerTableRecord
  2
01_1_DEFAULT_DATUMS
 70
0
 62
7
  6
CONTINUOUS
370
-3
390
F
  0
LAYER
  5
1FF
100
AcDbSymbolTableRecord
100
AcDbLayerTableRecord
  2
01_PLANES
 70
0
 62
7
  6
CONTINUOUS
370
-3
390
F
  0
LAYER
  5
200
100
AcDbSymbolTableRecord
100
AcDbLayerTableRecord
  2
02_COORD_SYS
 70
0
 62
7
  6
CONTINUOUS
370
-3
390
F
  0
LAYER
  5
201
100
AcDbSymbolTableRecord
100
AcDbLayerTableRecord
  2
03_AXES
 70
0
 62
7
  6
CONTINUOUS
370
-3
390
F
  0
LAYER
  5
202
100
AcDbSymbolTableRecord
100
AcDbLayerTableRecord
  2
04_POINTS
 70
0
 62
7
  6
CONTINUOUS
370
-3
390
F
  0
LAYER
  5
203
100
AcDbSymbolTableRecord
100
AcDbLayerTableRecord
  2
05_CURVES
 70
0
 62
7
  6
CONTINUOUS
370
-3
390
F
  0
LAYER
  5
204
100
AcDbSymbolTableRecord
100
AcDbLayerTableRecord
  2
06_SURFS
 70
0
 62
7
  6
CONTINUOUS
370
-3
390
F
  0
LAYER
  5
205
100
AcDbSymbolTableRecord
100
AcDbLayerTableRecord
  2
07_COSMETICS
 70
0
 62
7
  6
CONTINUOUS
370
-3
390
F
  0
LAYER
  5
206
100
AcDbSymbolTableRecord
100
AcDbLayerTableRecord
  2
10_NOTES
 70
0
 62
7
  6
CONTINUOUS
370
-3
390
F
  0
LAYER
  5
207
100
AcDbSymbolTableRecord
100
AcDbLayerTableRecord
  2
11_NOTES_PUB
 70
0
 62
7
  6
CONTINUOUS
370
-3
390
F
  0
LAYER
  5
208
100
AcDbSymbolTableRecord
100
AcDbLayerTableRecord
  2
13_REF_GTOL
 70
0
 62
7
  6
CONTINUOUS
370
-3
390
F
  0
LAYER
  5
209
100
AcDbSymbolTableRecord
100
AcDbLayerTableRecord
  2
16_MISC
 70
0
 62
7
  6
CONTINUOUS
370
-3
390
F
  0
LAYER
  5
20A
100
AcDbSymbolTableRecord
100
AcDbLayerTableRecord
  2
17_NO_PRINT
 70
0
 62
7
  6
CONTINUOUS
370
-3
390
F
  0
LAYER
  5
20B
100
AcDbSymbolTableRecord
100
AcDbLayerTableRecord
  2
18_DATUM_CAMS_JOINTS
 70
0
 62
7
  6
CONTINUOUS
370
-3
390
F
  0
LAYER
  5
20C
100
AcDbSymbolTableRecord
100
AcDbLayerTableRecord
  2
19_DATUM_FUNCTIONAL
 70
0
 62
7
  6
CONTINUOUS
370
-3
390
F
  0
LAYER
  5
20D
100
AcDbSymbolTableRecord
100
AcDbLayerTableRecord
  2
20_DATUM_KINEMATIC_SCHEME
 70
0
 62
7
  6
CONTINUOUS
370
-3
390
F
  0
ENDTAB
  0
TABLE
  2
STYLE
  5
3
100
AcDbSymbolTable
 70
1
  0
STYLE
  5
11
100
AcDbSymbolTableRecord
100
AcDbTextStyleTableRecord
  2
STANDARD
 70
0
 40
0.0
 41
1.0
 50
0.0
 71
0
 42
0.2
  3
ARIAL.TTF
  4

  0
STYLE
  5
20E
100
AcDbSymbolTableRecord
100
AcDbTextStyleTableRecord
  2
TEXTSTYLE_1
 70
0
 40
0.0
 41
0.8
 50
0.0
 71
0
 42
0.2
  3
gdt
  4

  0
ENDTAB
  0
TABLE
  2
VIEW
  5
6
100
AcDbSymbolTable
 70
0
  0
ENDTAB
  0
TABLE
  2
UCS
  5
7
100
AcDbSymbolTable
 70
0
  0
ENDTAB
  0
TABLE
  2
APPID
  5
9
100
AcDbSymbolTable
 70
1
  0
APPID
  5
20F
100
AcDbSymbolTableRecord
100
AcDbRegAppTableRecord
  2
ACAD
 70
0
  0
ENDTAB
  0
TABLE
  2
BLOCK_RECORD
  5
1
100
AcDbSymbolTable
 70
0
  0
BLOCK_RECORD
  5
210
100
AcDbSymbolTableRecord
100
AcDbBlockTableRecord
  2
*Model_Space
  0
BLOCK_RECORD
  5
211
100
AcDbSymbolTableRecord
100
AcDbBlockTableRecord
  2
*Paper_Space
  0
BLOCK_RECORD
  5
212
100
AcDbSymbolTableRecord
100
AcDbBlockTableRecord
  2
_FILLED
  0
ENDTAB
  0
TABLE
  2
DIMSTYLE
  5
A
100
AcDbSymbolTable
 70
1
100
AcDbDimStyleTable
 71
0
  0
DIMSTYLE
105
213
100
AcDbSymbolTableRecord
100
AcDbDimStyleTableRecord
  2
STANDARD
 70
0
  3

  4

 40
1.0
 41
1.0693370614
 42
1.0
 43
0.38
 44
1.0
 45
0.0
 46
0.0
 47
0.01
 48
0.01
140
1.4970718859
141
0.09
142
0.0
143
25.4
144
1.0
145
0.0
146
1.0
147
0.625
 71
1
 72
0
 73
0
 74
0
 75
0
 76
0
 77
1
 78
8
 79
2
170
0
171
1
172
0
173
0
174
0
175
0
176
0
177
0
178
0
270
2
179
2
271
2
272
2
273
2
274
2
275
0
280
0
281
0
282
0
283
1
284
8
285
0
286
0
287
3
288
0
340
11
278
46
341
212
342
212
343
212
344
212
  0
ENDTAB
  0
ENDSEC
  0
SECTION
  2
BLOCKS
  0
BLOCK
  5
20
100
AcDbEntity
  8
0
100
AcDbBlockBegin
  2
*Model_Space
 70
0
 10
0.0
 20
0.0
 30
0.0
  3
*Model_Space
  1

  0
ENDBLK
  5
21
100
AcDbEntity
  8
0
100
AcDbBlockEnd
  0
BLOCK
  5
1C
100
AcDbEntity
  8
0
100
AcDbBlockBegin
  2
*Paper_Space
 70
0
 10
0.0
 20
0.0
 30
0.0
  3
*Paper_Space
  1

  0
ENDBLK
  5
1D
100
AcDbEntity
  8
0
100
AcDbBlockEnd
  0
BLOCK
  5
214
100
AcDbEntity
  8
0
100
AcDbBlockBegin
  2
_FILLED
 70
64
 10
0.0
 20
0.0
  3
_FILLED
  1

  0
SOLID
  5
215
100
AcDbEntity
  8
0
  6
BYBLOCK
 62
0
100
AcDbTrace
 10
0.0
 20
0.0
 11
-1.0
 21
0.25
 12
-1.0
 22
-0.25
 13
-1.0
 23
-0.25
  0
ENDBLK
  5
216
100
AcDbEntity
  8
0
  6
BYBLOCK
 62
0
100
AcDbBlockEnd
  0
ENDSEC
  0
SECTION
  2
ENTITIES
  0
LINE
  5
217
100
AcDbEntity
  8
0
100
AcDbLine
 62
7
  6
BYLAYER
 10
10.1596182835
 20
85.8186112744
 11
10.1596182835
 21
41.2187850607
  0
LINE
  5
218
100
AcDbEntity
  8
0
100
AcDbLine
 62
7
  6
BYLAYER
 10
12.1596182835
 20
87.8186214442
 11
12.1596182835
 21
39.2186214442
  0
LINE
  5
219
100
AcDbEntity
  8
0
100
AcDbLine
 62
7
  6
BYLAYER
 10
36.4988485629
 20
34.6021889714
 11
37.4751122234
 21
34.716384855
  0
LINE
  5
21A
100
AcDbEntity
  8
0
100
AcDbLine
 62
7
  6
BYLAYER
 10
35.1223600054
 20
33.7586214442
 11
32.6196182835
 21
33.7586214442
  0
LINE
  5
21B
100
AcDbEntity
  8
0
100
AcDbLine
 62
7
  6
BYLAYER
 10
34.6682685941
 20
34.1325707681
 11
32.6196182835
 21
34.1325707681
  0
LINE
  5
21C
100
AcDbEntity
  8
0
100
AcDbLine
 62
7
  6
BYLAYER
 10
77.4196182835
 20
35.7413035005
 11
79.9196182835
 21
35.7413035005
  0
LINE
  5
21D
100
AcDbEntity
  8
0
100
AcDbLine
 62
7
  6
BYLAYER
 10
35.1221773477
 20
33.7414059634
 11
56.1196182835
 21
33.5186214442
  0
LINE
  5
21E
100
AcDbEntity
  8
0
100
AcDbLine
 62
7
  6
BYLAYER
 10
36.4988485629
 20
34.6021889714
 11
34.710912247
 21
34.6211591159
  0
LINE
  5
21F
100
AcDbEntity
  8
0
100
AcDbLine
 62
7
  6
BYLAYER
 10
56.1196182835
 20
34.5185651621
 11
37.4751122234
 21
34.716384855
  0
LINE
  5
220
100
AcDbEntity
  8
0
100
AcDbLine
 62
7
  6
BYLAYER
 10
77.4196182835
 20
36.4348572378
 11
79.9196182835
 21
36.4348572378
  0
LINE
  5
221
100
AcDbEntity
  8
0
100
AcDbLine
 62
7
  6
BYLAYER
 10
77.4196182835
 20
38.4175183944
 11
79.9196182835
 21
38.4175183944
  0
LINE
  5
222
100
AcDbEntity
  8
0
100
AcDbLine
 62
7
  6
BYLAYER
 10
12.1596182835
 20
39.2186214442
 11
31.6196182835
 21
39.2186214442
  0
LINE
  5
223
100
AcDbEntity
  8
0
100
AcDbLine
 62
7
  6
BYLAYER
 10
34.858183085
 20
39.2404019848
 11
32.6196182835
 21
39.2404019848
  0
LINE
  5
224
100
AcDbEntity
  8
0
100
AcDbLine
 62
7
  6
BYLAYER
 10
56.1196182835
 20
39.7186214442
 11
56.9196182835
 21
39.7186214442
  0
LINE
  5
225
100
AcDbEntity
  8
0
100
AcDbLine
 62
7
  6
BYLAYER
 10
12.1596182835
 20
40.5201277252
 11
25.7996182835
 21
40.5201277252
  0
LINE
  5
226
100
AcDbEntity
  8
0
100
AcDbLine
 62
7
  6
BYLAYER
 10
34.6804818053
 20
40.674054021
 11
32.6196182835
 21
40.6740540304
  0
LINE
  5
227
100
AcDbEntity
  8
0
100
AcDbLine
 62
7
  6
BYLAYER
 10
79.9196182835
 20
41.5186214442
 11
81.2196182835
 21
41.5186214442
  0
LINE
  5
228
100
AcDbEntity
  8
0
100
AcDbLine
 62
7
  6
BYLAYER
 10
25.7996182835
 20
40.5201277252
 11
25.799618048
 21
85.5887805048
  0
LINE
  5
229
100
AcDbEntity
  8
0
100
AcDbLine
 62
7
  6
BYLAYER
 10
12.1596182557
 20
42.3100789256
 11
25.7996182834
 21
42.3100789311
  0
LINE
  5
22A
100
AcDbEntity
  8
0
100
AcDbLine
 62
7
  6
BYLAYER
 10
33.9345680195
 20
44.0654721809
 11
32.6196182835
 21
44.0654721809
  0
LINE
  5
22B
100
AcDbEntity
  8
0
100
AcDbLine
 62
7
  6
BYLAYER
 10
60.4196182835
 20
44.2786214442
 11
61.5054047211
 21
44.2786214442
  0
LINE
  5
22C
100
AcDbEntity
  8
0
100
AcDbLine
 62
7
  6
BYLAYER
 10
32.6196182835
 20
44.3962118815
 11
33.7918010887
 21
44.3962118815
  0
LINE
  5
22D
100
AcDbEntity
  8
0
100
AcDbLine
 62
7
  6
BYLAYER
 10
80.9196182835
 20
45.2446645656
 11
79.8296182835
 21
45.2446645656
  0
LINE
  5
22E
100
AcDbEntity
  8
0
100
AcDbLine
 62
7
  6
BYLAYER
 10
33.7918919237
 20
44.3962118815
 11
33.7920733866
 21
44.3962110021
  0
LINE
  5
22F
100
AcDbEntity
  8
0
100
AcDbLine
 62
7
  6
BYLAYER
 10
56.9196182835
 20
45.9086214442
 11
58.7196182835
 21
45.9086214442
  0
LINE
  5
230
100
AcDbEntity
  8
0
100
AcDbLine
 62
7
  6
BYLAYER
 10
33.9345680195
 20
44.0654721809
 11
34.6804818053
 21
40.674054021
  0
LINE
  5
231
100
AcDbEntity
  8
0
100
AcDbLine
 62
7
  6
BYLAYER
 10
34.8285127745
 20
40.7915724572
 11
34.082598991
 21
44.1829906084
  0
LINE
  5
232
100
AcDbEntity
  8
0
100
AcDbLine
 62
7
  6
BYLAYER
 10
30.7996182835
 20
78.9561085856
 11
30.7996182835
 21
46.5087032406
  0
LINE
  5
233
100
AcDbEntity
  8
0
100
AcDbLine
 62
7
  6
BYLAYER
 10
31.6196182835
 20
43.3962115843
 11
31.6196182835
 21
34.7586214442
  0
LINE
  5
234
100
AcDbEntity
  8
0
100
AcDbLine
 62
7
  6
BYLAYER
 10
32.6196182835
 20
44.3962118815
 11
32.6196182835
 21
33.7586214442
  0
LINE
  5
235
100
AcDbEntity
  8
0
100
AcDbLine
 62
7
  6
BYLAYER
 10
32.7996182835
 20
80.3406365804
 11
32.7996182835
 21
44.9831500384
  0
LINE
  5
236
100
AcDbEntity
  8
0
100
AcDbLine
 62
7
  6
BYLAYER
 10
33.4996182835
 20
92.2891752385
 11
33.4996182835
 21
87.112983699
  0
LINE
  5
237
100
AcDbEntity
  8
0
100
AcDbLine
 62
7
  6
BYLAYER
 10
33.4996182835
 20
57.705182721
 11
33.4996182835
 21
69.3320601674
  0
LINE
  5
238
100
AcDbEntity
  8
0
100
AcDbLine
 62
7
  6
BYLAYER
 10
36.4988485629
 20
92.435053917
 11
33.7857837663
 21
69.0177163064
  0
LINE
  5
239
100
AcDbEntity
  8
0
100
AcDbLine
 62
7
  6
BYLAYER
 10
56.9196182835
 20
49.3086214442
 11
58.7196182835
 21
49.3086214442
  0
LINE
  5
23A
100
AcDbEntity
  8
0
100
AcDbLine
 62
7
  6
BYLAYER
 10
65.9196182835
 20
50.7786214442
 11
72.1696182835
 21
50.7786214442
  0
LINE
  5
23B
100
AcDbEntity
  8
0
100
AcDbLine
 62
7
  6
BYLAYER
 10
33.7857837663
 20
58.019526582
 11
36.4988485629
 21
34.6021889714
  0
LINE
  5
23C
100
AcDbEntity
  8
0
100
AcDbLine
 62
7
  6
BYLAYER
 10
33.7845484691
 20
80.7066545143
 11
33.7857837663
 21
69.0177163064
  0
LINE
  5
23D
100
AcDbEntity
  8
0
100
AcDbLine
 62
7
  6
BYLAYER
 10
34.4890306106
 20
64.1558686326
 11
34.4890224981
 21
62.8813742581
  0
LINE
  5
23E
100
AcDbEntity
  8
0
100
AcDbLine
 62
7
  6
BYLAYER
 10
33.7857837663
 20
92.4062680836
 11
33.7845484691
 21
80.7066545143
  0
LINE
  5
23F
100
AcDbEntity
  8
0
100
AcDbLine
 62
7
  6
BYLAYER
 10
33.7857837663
 20
58.019526582
 11
33.7849816677
 21
46.3287165347
  0
LINE
  5
240
100
AcDbEntity
  8
0
100
AcDbLine
 62
7
  6
BYLAYER
 10
34.762028845
 20
68.9035225708
 11
37.4751122234
 21
92.3208580334
  0
LINE
  5
241
100
AcDbEntity
  8
0
100
AcDbLine
 62
7
  6
BYLAYER
 10
60.4196182835
 20
53.5186214442
 11
56.9196182835
 21
53.5186214442
  0
LINE
  5
242
100
AcDbEntity
  8
0
100
AcDbLine
 62
7
  6
BYLAYER
 10
37.4751122234
 20
34.716384855
 11
34.7620226458
 21
58.133719602
  0
LINE
  5
243
100
AcDbEntity
  8
0
100
AcDbLine
 62
7
  6
BYLAYER
 10
34.7620474268
 20
58.1337224669
 11
33.7857837662
 21
58.0195265833
  0
LINE
  5
244
100
AcDbEntity
  8
0
100
AcDbLine
 62
7
  6
BYLAYER
 10
33.4996182835
 20
62.8813742604
 11
34.4890088011
 21
62.8813742604
  0
LWPOLYLINE
  5
245
100
AcDbEntity
  8
0
100
AcDbPolyline
 62
7
  6
BYLAYER
 90
3
 70
0
 10
33.9049579594
 20
44.4623130018
 10
33.8791514082
 20
44.4287684814
 10
33.7919980308
 20
44.3962098596
  0
LINE
  5
246
100
AcDbEntity
  8
0
100
AcDbLine
 62
7
  6
BYLAYER
 10
34.4890088011
 20
64.1558686277
 11
33.4996182835
 21
64.1558686277
  0
LINE
  5
247
100
AcDbEntity
  8
0
100
AcDbLine
 62
7
  6
BYLAYER
 10
33.7857837663
 20
69.0177163064
 11
34.7620474269
 21
68.9035204228
  0
LINE
  5
248
100
AcDbEntity
  8
0
100
AcDbLine
 62
7
  6
BYLAYER
 10
56.1196182835
 20
33.5186214442
 11
56.1196182835
 21
93.5186214442
  0
LINE
  5
249
100
AcDbEntity
  8
0
100
AcDbLine
 62
7
  6
BYLAYER
 10
56.9196182835
 20
34.5186214442
 11
56.9196182835
 21
92.5186214442
  0
LINE
  5
24A
100
AcDbEntity
  8
0
100
AcDbLine
 62
7
  6
BYLAYER
 10
60.4196182835
 20
73.5186214442
 11
56.9196182835
 21
73.5186214442
  0
LINE
  5
24B
100
AcDbEntity
  8
0
100
AcDbLine
 62
7
  6
BYLAYER
 10
65.9196182835
 20
76.2586214442
 11
72.1696182835
 21
76.2586214442
  0
LINE
  5
24C
100
AcDbEntity
  8
0
100
AcDbLine
 62
7
  6
BYLAYER
 10
58.7196182835
 20
45.9086214442
 11
58.7196182835
 21
49.3086214442
  0
LINE
  5
24D
100
AcDbEntity
  8
0
100
AcDbLine
 62
7
  6
BYLAYER
 10
59.4196182835
 20
48.6086214442
 11
59.4196182835
 21
46.6086214442
  0
LINE
  5
24E
100
AcDbEntity
  8
0
100
AcDbLine
 62
7
  6
BYLAYER
 10
60.4196182835
 20
82.758601409
 11
60.4196182835
 21
44.2786414794
  0
LINE
  5
24F
100
AcDbEntity
  8
0
100
AcDbLine
 62
7
  6
BYLAYER
 10
61.5054047211
 20
44.2786214442
 11
61.5054047211
 21
82.7586214442
  0
LINE
  5
250
100
AcDbEntity
  8
0
100
AcDbLine
 62
7
  6
BYLAYER
 10
62.2125115023
 20
82.4657282254
 11
62.2125115023
 21
44.571514663
  0
LINE
  5
251
100
AcDbEntity
  8
0
100
AcDbLine
 62
7
  6
BYLAYER
 10
63.6067250647
 20
45.9657282254
 11
63.6067250647
 21
81.071514663
  0
LINE
  5
252
100
AcDbEntity
  8
0
100
AcDbLine
 62
7
  6
BYLAYER
 10
63.8996182835
 20
46.6731087354
 11
63.8996182835
 21
80.364134153
  0
LINE
  5
253
100
AcDbEntity
  8
0
100
AcDbLine
 62
7
  6
BYLAYER
 10
75.1760510844
 20
79.442054135
 11
78.0961729013
 21
84.5162020711
  0
LINE
  5
254
100
AcDbEntity
  8
0
100
AcDbLine
 62
7
  6
BYLAYER
 10
75.1760510844
 20
47.5951887534
 11
77.4196182835
 21
43.6966555461
  0
LINE
  5
255
100
AcDbEntity
  8
0
100
AcDbLine
 62
7
  6
BYLAYER
 10
65.9196182835
 20
50.1686395254
 11
65.9196182835
 21
76.868603363
  0
LINE
  5
256
100
AcDbEntity
  8
0
100
AcDbLine
 62
7
  6
BYLAYER
 10
60.4196182835
 20
82.7586214442
 11
61.5054047211
 21
82.7586214442
  0
LINE
  5
257
100
AcDbEntity
  8
0
100
AcDbLine
 62
7
  6
BYLAYER
 10
25.7996182825
 20
83.6693775726
 11
12.1596182696
 21
83.6693775753
  0
LINE
  5
258
100
AcDbEntity
  8
0
100
AcDbLine
 62
7
  6
BYLAYER
 10
79.8296182835
 20
85.5186214442
 11
80.9196182835
 21
85.5186214442
  0
LINE
  5
259
100
AcDbEntity
  8
0
100
AcDbLine
 62
7
  6
BYLAYER
 10
25.7996182836
 20
85.5887805048
 11
12.1596182835
 21
85.5887805048
  0
LINE
  5
25A
100
AcDbEntity
  8
0
100
AcDbLine
 62
7
  6
BYLAYER
 10
63.6067250647
 20
45.9657282254
 11
62.2125115023
 21
44.571514663
  0
LINE
  5
25B
100
AcDbEntity
  8
0
100
AcDbLine
 62
7
  6
BYLAYER
 10
56.9196182835
 20
87.3186214442
 11
56.1196182835
 21
87.3186214442
  0
LINE
  5
25C
100
AcDbEntity
  8
0
100
AcDbLine
 62
7
  6
BYLAYER
 10
12.1596182835
 20
87.8186214442
 11
33.4996182835
 21
87.8186214442
  0
LINE
  5
25D
100
AcDbEntity
  8
0
100
AcDbLine
 62
7
  6
BYLAYER
 10
63.6067250647
 20
81.071514663
 11
62.2125115023
 21
82.4657282254
  0
LINE
  5
25E
100
AcDbEntity
  8
0
100
AcDbLine
 62
7
  6
BYLAYER
 10
72.1696182835
 20
76.7986034836
 11
72.1696182835
 21
50.2386394048
  0
LINE
  5
25F
100
AcDbEntity
  8
0
100
AcDbLine
 62
7
  6
BYLAYER
 10
37.4751122234
 20
92.3208580334
 11
36.4988485629
 21
92.435053917
  0
LINE
  5
260
100
AcDbEntity
  8
0
100
AcDbLine
 62
7
  6
BYLAYER
 10
75.1760510844
 20
79.442054135
 11
75.1760510844
 21
47.5951887534
  0
LINE
  5
261
100
AcDbEntity
  8
0
100
AcDbLine
 62
7
  6
BYLAYER
 10
37.4751122234
 20
92.3208580334
 11
56.1196182835
 21
92.5186777263
  0
LINE
  5
262
100
AcDbEntity
  8
0
100
AcDbLine
 62
7
  6
BYLAYER
 10
33.7857837663
 20
92.4062680836
 11
36.4988485629
 21
92.435053917
  0
LINE
  5
263
100
AcDbEntity
  8
0
100
AcDbLine
 62
7
  6
BYLAYER
 10
56.1196182835
 20
93.5186214442
 11
34.4890224788
 21
93.2891191014
  0
LINE
  5
264
100
AcDbEntity
  8
0
100
AcDbLine
 62
7
  6
BYLAYER
 10
77.4196182835
 20
35.7413035005
 11
77.4196182835
 21
47.9350457292
  0
LINE
  5
265
100
AcDbEntity
  8
0
100
AcDbLine
 62
7
  6
BYLAYER
 10
78.0961729013
 20
46.4647100987
 11
78.0961729013
 21
84.5162020711
  0
LINE
  5
266
100
AcDbEntity
  8
0
100
AcDbLine
 62
7
  6
BYLAYER
 10
79.8296182835
 20
85.5186214442
 11
79.8296182835
 21
45.2446645656
  0
LINE
  5
267
100
AcDbEntity
  8
0
100
AcDbLine
 62
7
  6
BYLAYER
 10
79.9196182835
 20
35.7413035005
 11
79.9196182835
 21
41.5186214442
  0
LINE
  5
268
100
AcDbEntity
  8
0
100
AcDbLine
 62
7
  6
BYLAYER
 10
80.9196182835
 20
45.2446645656
 11
80.9196182835
 21
85.5186214442
  0
LINE
  5
269
100
AcDbEntity
  8
0
100
AcDbLine
 62
7
  6
BYLAYER
 10
81.2196182835
 20
41.5186214442
 11
81.2196182835
 21
85.2184274712
  0
ARC
  5
26A
100
AcDbEntity
  8
0
100
AcDbCircle
 62
7
  6
BYLAYER
 10
196.7762761375
 20
101.9645406835
 40
131.0160222991
100
AcDbArc
 50
204.3549623471
 51
205.0627770082
  0
ARC
  5
26B
100
AcDbEntity
  8
0
100
AcDbCircle
 62
7
  6
BYLAYER
 10
-26.6556400557
 20
46.3107002653
 40
60.4406244086
100
AcDbArc
 50
358.2392343279
 51
0.0170788476
  0
ARC
  5
26C
100
AcDbEntity
  8
0
100
AcDbCircle
 62
7
  6
BYLAYER
 10
74.8767887078
 20
62.8774229555
 40
41.3771664272
100
AcDbArc
 50
180.3106869138
 51
186.7423836624
  0
ARC
  5
26D
100
AcDbEntity
  8
0
100
AcDbCircle
 62
7
  6
BYLAYER
 10
75.7812108016
 20
62.8740857327
 40
41.2921889468
100
AcDbArc
 50
179.9898866649
 51
186.5921213961
  0
ARC
  5
26E
100
AcDbEntity
  8
0
100
AcDbCircle
 62
7
  6
BYLAYER
 10
75.7669859038
 20
64.163991394
 40
41.2779560924
100
AcDbArc
 50
173.4067621912
 51
180.0112747817
  0
ARC
  5
26F
100
AcDbEntity
  8
0
100
AcDbCircle
 62
7
  6
BYLAYER
 10
74.7493076281
 20
64.1672862856
 40
41.2496909249
100
AcDbArc
 50
173.2471283108
 51
180.0158597273
  0
ARC
  5
270
100
AcDbEntity
  8
0
100
AcDbCircle
 62
7
  6
BYLAYER
 10
72.1796182835
 20
79.8186048879
 40
3.02
100
AcDbArc
 50
269.8102785291
 51
352.8373954468
  0
ARC
  5
271
100
AcDbEntity
  8
0
100
AcDbCircle
 62
7
  6
BYLAYER
 10
72.1796182835
 20
47.2186380005
 40
3.02
100
AcDbArc
 50
7.1626045532
 51
90.1897214709
  0
ARC
  5
272
100
AcDbEntity
  8
0
100
AcDbCircle
 62
7
  6
BYLAYER
 10
66.3996182835
 20
79.3221087582
 40
2.5
100
AcDbArc
 50
180.0
 51
258.9304750266
  0
ARC
  5
273
100
AcDbEntity
  8
0
100
AcDbCircle
 62
7
  6
BYLAYER
 10
66.3996182835
 20
47.7151341302
 40
2.5
100
AcDbArc
 50
101.0695249734
 51
180.0
  0
ARC
  5
274
100
AcDbEntity
  8
0
100
AcDbCircle
 62
7
  6
BYLAYER
 10
79.8296182835
 20
83.5186214442
 40
2.0
100
AcDbArc
 50
90.0
 51
150.08
  0
ARC
  5
275
100
AcDbEntity
  8
0
100
AcDbCircle
 62
7
  6
BYLAYER
 10
12.1596182835
 20
85.8186214442
 40
2.0
100
AcDbArc
 50
90.0
 51
180.0
  0
ARC
  5
276
100
AcDbEntity
  8
0
100
AcDbCircle
 62
7
  6
BYLAYER
 10
12.1596182835
 20
41.2186214442
 40
2.0
100
AcDbArc
 50
180.0
 51
270.0
  0
ARC
  5
277
100
AcDbEntity
  8
0
100
AcDbCircle
 62
7
  6
BYLAYER
 10
62.8996182835
 20
80.3644078818
 40
1.0
100
AcDbArc
 50
0.0
 51
44.9999999997
  0
ARC
  5
278
100
AcDbEntity
  8
0
100
AcDbCircle
 62
7
  6
BYLAYER
 10
62.8996182835
 20
46.6728350066
 40
1.0
100
AcDbArc
 50
315.0000000003
 51
360.0
  0
ARC
  5
279
100
AcDbEntity
  8
0
100
AcDbCircle
 62
7
  6
BYLAYER
 10
61.5054047211
 20
81.7586214442
 40
1.0
100
AcDbArc
 50
45.0000000002
 51
90.0
  0
ARC
  5
27A
100
AcDbEntity
  8
0
100
AcDbCircle
 62
7
  6
BYLAYER
 10
61.5054047211
 20
45.2786214442
 40
1.0
100
AcDbArc
 50
270.0
 51
314.9999999998
  0
ARC
  5
27B
100
AcDbEntity
  8
0
100
AcDbCircle
 62
7
  6
BYLAYER
 10
32.6196182835
 20
43.3962118815
 40
1.0
100
AcDbArc
 50
90.0
 51
179.9999999998
  0
ARC
  5
27C
100
AcDbEntity
  8
0
100
AcDbCircle
 62
7
  6
BYLAYER
 10
32.6196182835
 20
34.7586214442
 40
1.0
100
AcDbArc
 50
180.0
 51
270.0
  0
ARC
  5
27D
100
AcDbEntity
  8
0
100
AcDbCircle
 62
7
  6
BYLAYER
 10
34.4996035444
 20
92.2891756972
 40
0.9999999877
100
AcDbArc
 50
90.6070458096
 51
180.0000262828
  0
ARC
  5
27E
100
AcDbEntity
  8
0
100
AcDbCircle
 62
7
  6
BYLAYER
 10
56.1196182835
 20
34.5186214442
 40
0.8
100
AcDbArc
 50
270.0
 51
360.0
  0
ARC
  5
27F
100
AcDbEntity
  8
0
100
AcDbCircle
 62
7
  6
BYLAYER
 10
56.1196182835
 20
92.5186214442
 40
0.8
100
AcDbArc
 50
0.0
 51
90.0
  0
ARC
  5
280
100
AcDbEntity
  8
0
100
AcDbCircle
 62
7
  6
BYLAYER
 10
58.7196182835
 20
48.6086214442
 40
0.7
100
AcDbArc
 50
0.0
 51
90.0
  0
ARC
  5
281
100
AcDbEntity
  8
0
100
AcDbCircle
 62
7
  6
BYLAYER
 10
58.7196182835
 20
46.6086214442
 40
0.7
100
AcDbArc
 50
270.0
 51
360.0
  0
ARC
  5
282
100
AcDbEntity
  8
0
100
AcDbCircle
 62
7
  6
BYLAYER
 10
80.9196182835
 20
85.2186214442
 40
0.3
100
AcDbArc
 50
0.0
 51
90.0
  0
SPLINE
  5
283
100
AcDbEntity
  8
0
100
AcDbSpline
 62
7
  6
BYLAYER
 70
0
 71
3
 72
11
 73
7
 74
0
 42
0.0000001
 43
0.0000001
 44
0.0000000001
 40
0.0
 40
0.0
 40
0.0
 40
0.0
 40
0.2589338532
 40
0.5126788503
 40
0.7590048343
 40
1.0
 40
1.0
 40
1.0
 40
1.0
 10
32.6196182835
 20
34.1325707688
 30
0.0
 10
32.4898998102
 20
34.1325707688
 30
0.0
 10
32.2305356052
 20
34.1794917649
 30
0.0
 10
31.8986729042
 20
34.3826837132
 30
0.0
 10
31.6731630809
 20
34.6899648152
 30
0.0
 10
31.6196182835
 20
34.9370492013
 30
0.0
 10
31.6196182835
 20
35.0577809038
 30
0.0
  0
SPLINE
  5
284
100
AcDbEntity
  8
0
100
AcDbSpline
 62
7
  6
BYLAYER
 70
0
 71
3
 72
11
 73
7
 74
0
 42
0.0000001
 43
0.0000001
 44
0.0000000001
 40
0.0
 40
0.0
 40
0.0
 40
0.0
 40
0.2094893059
 40
0.4488678943
 40
0.7162703956
 40
1.0
 40
1.0
 40
1.0
 40
1.0
 10
31.6502180175
 20
40.1690874216
 30
0.0
 10
31.6786744946
 20
40.2442935981
 30
0.0
 10
31.7799714967
 20
40.390829826
 30
0.0
 10
32.0092005007
 20
40.5497316331
 30
0.0
 10
32.2983588988
 20
40.6511320339
 30
0.0
 10
32.5107122564
 20
40.6740540304
 30
0.0
 10
32.6196182835
 20
40.6740540304
 30
0.0
  0
SPLINE
  5
285
100
AcDbEntity
  8
0
100
AcDbSpline
 62
7
  6
BYLAYER
 70
0
 71
3
 72
11
 73
7
 74
0
 42
0.0000001
 43
0.0000001
 44
0.0000000001
 40
0.0
 40
0.0
 40
0.0
 40
0.0
 40
0.2647275224
 40
0.5230037717
 40
0.769324654
 40
1.0
 40
1.0
 40
1.0
 40
1.0
 10
25.7996182836
 20
85.5887805048
 30
0.0
 10
26.1452286636
 20
85.5887883798
 30
0.0
 10
26.8283014378
 20
85.5642246261
 30
0.0
 10
27.8274873478
 20
85.4525896057
 30
0.0
 10
28.7703885108
 20
85.2663095129
 30
0.0
 10
29.3678003513
 20
85.0853225991
 30
0.0
 10
29.6501047342
 20
84.9804509533
 30
0.0
  0
SPLINE
  5
286
100
AcDbEntity
  8
0
100
AcDbSpline
 62
7
  6
BYLAYER
 70
0
 71
3
 72
15
 73
11
 74
0
 42
0.0000001
 43
0.0000001
 44
0.0000000001
 40
0.0
 40
0.0
 40
0.0
 40
0.0
 40
0.1364177011
 40
0.2781372774
 40
0.4203847486
 40
0.5574612207
 40
0.6848609137
 40
0.8007410694
 40
0.904922223
 40
1.0
 40
1.0
 40
1.0
 40
1.0
 10
32.7996182835
 20
80.3406365807
 30
0.0
 10
32.6779473624
 20
80.3406365807
 30
0.0
 10
32.4296303589
 20
80.3247864934
 30
0.0
 10
32.0604884027
 20
80.2525051033
 30
0.0
 10
31.7055296656
 20
80.1255299305
 30
0.0
 10
31.3859184182
 20
79.9497905582
 30
0.0
 10
31.1250031224
 20
79.7292863143
 30
0.0
 10
30.9343622945
 20
79.4812467242
 30
0.0
 10
30.8239425795
 20
79.2193684312
 30
0.0
 10
30.7996182835
 20
79.0409084368
 30
0.0
 10
30.7996182835
 20
78.9561085859
 30
0.0
  0
SPLINE
  5
287
100
AcDbEntity
  8
0
100
AcDbSpline
 62
7
  6
BYLAYER
 70
0
 71
3
 72
9
 73
5
 74
0
 42
0.0000001
 43
0.0000001
 44
0.0000000001
 40
0.0
 40
0.0
 40
0.0
 40
0.0
 40
0.2476370074
 40
1.0
 40
1.0
 40
1.0
 40
1.0
 10
31.6196182835
 20
40.004793731
 30
0.0
 10
31.6196182835
 20
40.018631831
 30
0.0
 10
31.6221885198
 20
40.0744962088
 30
0.0
 10
31.6353394762
 20
40.1297656811
 30
0.0
 10
31.6502180175
 20
40.1690874216
 30
0.0
  0
SPLINE
  5
288
100
AcDbEntity
  8
0
100
AcDbSpline
 62
7
  6
BYLAYER
 70
0
 71
3
 72
12
 73
8
 74
0
 42
0.0000001
 43
0.0000001
 44
0.0000000001
 40
0.0
 40
0.0
 40
0.0
 40
0.0
 40
0.2794424901
 40
0.5423563235
 40
0.7800903979
 40
0.8915541138
 40
1.0
 40
1.0
 40
1.0
 40
1.0
 10
32.6196182835
 20
39.2404019807
 30
0.0
 10
32.4905760717
 20
39.2404019807
 30
0.0
 10
32.2383228645
 20
39.2775037523
 30
0.0
 10
31.9093894677
 20
39.4390195832
 30
0.0
 10
31.712343717
 20
39.6547755565
 30
0.0
 10
31.6330361608
 20
39.8527239473
 30
0.0
 10
31.6196182835
 20
39.9547151012
 30
0.0
 10
31.6196182835
 20
40.004793731
 30
0.0
  0
SPLINE
  5
289
100
AcDbEntity
  8
0
100
AcDbSpline
 62
7
  6
BYLAYER
 70
0
 71
3
 72
13
 73
9
 74
0
 42
0.0000001
 43
0.0000001
 44
0.0000000001
 40
0.0
 40
0.0
 40
0.0
 40
0.0
 40
0.2553874833
 40
0.5264597643
 40
0.6587118823
 40
0.7836115553
 40
0.8979385086
 40
1.0
 40
1.0
 40
1.0
 40
1.0
 10
28.5499670262
 20
83.1280867421
 30
0.0
 10
28.5895761813
 20
83.3112492338
 30
0.0
 10
28.7000882505
 20
83.6829759284
 30
0.0
 10
28.90573838
 20
84.1229549595
 30
0.0
 10
29.1151729181
 20
84.449677574
 30
0.0
 10
29.2841419193
 20
84.6642558692
 30
0.0
 10
29.4610298611
 20
84.842316046
 30
0.0
 10
29.5871783103
 20
84.9398480793
 30
0.0
 10
29.6501065288
 20
84.9804502924
 30
0.0
  0
SPLINE
  5
28A
100
AcDbEntity
  8
0
100
AcDbSpline
 62
7
  6
BYLAYER
 70
0
 71
3
 72
11
 73
7
 74
0
 42
0.0000001
 43
0.0000001
 44
0.0000000001
 40
0.0
 40
0.0
 40
0.0
 40
0.0
 40
0.2407446215
 40
0.5157231808
 40
0.7828716373
 40
1.0
 40
1.0
 40
1.0
 40
1.0
 10
34.6804849418
 20
40.6740544268
 30
0.0
 10
34.708964704
 20
40.5614322744
 30
0.0
 10
34.7587707648
 20
40.3173736815
 30
0.0
 10
34.8149487872
 20
39.9436659876
 30
0.0
 10
34.8510899567
 20
39.5790051492
 30
0.0
 10
34.8607696999
 20
39.3451418303
 30
0.0
 10
34.8581862792
 20
39.2404019999
 30
0.0
  0
SPLINE
  5
28B
100
AcDbEntity
  8
0
100
AcDbSpline
 62
7
  6
BYLAYER
 70
0
 71
3
 72
11
 73
7
 74
0
 42
0.0000001
 43
0.0000001
 44
0.0000000001
 40
0.0
 40
0.0
 40
0.0
 40
0.0
 40
0.2305864748
 40
0.449733786
 40
0.7004514985
 40
1.0
 40
1.0
 40
1.0
 40
1.0
 10
35.0062053376
 20
39.1428687534
 30
0.0
 10
35.003167131
 20
39.1571406728
 30
0.0
 10
34.9901690513
 20
39.1837171863
 30
0.0
 10
34.9568234491
 20
39.2139289883
 30
0.0
 10
34.9121645267
 20
39.2348890743
 30
0.0
 10
34.8771378331
 20
39.2402330645
 30
0.0
 10
34.858182883
 20
39.2404020303
 30
0.0
  0
SPLINE
  5
28C
100
AcDbEntity
  8
0
100
AcDbSpline
 62
7
  6
BYLAYER
 70
0
 71
3
 72
11
 73
7
 74
0
 42
0.0000001
 43
0.0000001
 44
0.0000000001
 40
0.0
 40
0.0
 40
0.0
 40
0.0
 40
0.3069739954
 40
0.5583590614
 40
0.7811608344
 40
1.0
 40
1.0
 40
1.0
 40
1.0
 10
34.6804818057
 20
40.6740539758
 30
0.0
 10
34.7010958325
 20
40.6765568903
 30
0.0
 10
34.7381926948
 20
40.6862867211
 30
0.0
 10
34.7845626493
 20
40.7128005268
 30
0.0
 10
34.8176821681
 20
40.7469588466
 30
0.0
 10
34.8283295427
 20
40.7767700927
 30
0.0
 10
34.8285128393
 20
40.7915724505
 30
0.0
  0
SPLINE
  5
28D
100
AcDbEntity
  8
0
100
AcDbSpline
 62
7
  6
BYLAYER
 70
0
 71
3
 72
14
 73
10
 74
0
 42
0.0000001
 43
0.0000001
 44
0.0000000001
 40
0.0
 40
0.0
 40
0.0
 40
0.0
 40
0.1008642514
 40
0.2101126382
 40
0.329254682
 40
0.4575335322
 40
0.593056057
 40
0.7318964132
 40
1.0
 40
1.0
 40
1.0
 40
1.0
 10
30.7996182834
 20
46.508700305
 30
0.0
 10
30.7996182823
 20
46.4154068031
 30
0.0
 10
30.8236062404
 20
46.2203835769
 30
0.0
 10
30.9328667398
 20
45.9329633794
 30
0.0
 10
31.1226041806
 20
45.6595031241
 30
0.0
 10
31.3831633483
 20
45.4158286455
 30
0.0
 10
31.7034108568
 20
45.2211507236
 30
0.0
 10
32.1716700787
 20
45.036221088
 30
0.0
 10
32.5516382299
 20
44.9831463331
 30
0.0
 10
32.7996182835
 20
44.983146268
 30
0.0
  0
SPLINE
  5
28E
100
AcDbEntity
  8
0
100
AcDbSpline
 62
7
  6
BYLAYER
 70
0
 71
3
 72
11
 73
7
 74
0
 42
0.0000001
 43
0.0000001
 44
0.0000000001
 40
0.0
 40
0.0
 40
0.0
 40
0.0
 40
0.2284046779
 40
0.4744869079
 40
0.7336847067
 40
1.0
 40
1.0
 40
1.0
 40
1.0
 10
29.6501047352
 20
40.9990055508
 30
0.0
 10
29.3660966794
 20
40.9144769013
 30
0.0
 10
28.7664792868
 20
40.7705219453
 30
0.0
 10
27.8249762948
 20
40.6254612706
 30
0.0
 10
26.8270676758
 20
40.5388478643
 30
0.0
 10
26.1451217339
 20
40.5201246578
 30
0.0
 10
25.7996182835
 20
40.5201277252
 30
0.0
  0
SPLINE
  5
28F
100
AcDbEntity
  8
0
100
AcDbSpline
 62
7
  6
BYLAYER
 70
0
 71
3
 72
13
 73
9
 74
0
 42
0.0000001
 43
0.0000001
 44
0.0000000001
 40
0.0
 40
0.0
 40
0.0
 40
0.0
 40
0.2750224492
 40
0.4151294844
 40
0.5516701478
 40
0.6808458464
 40
0.7998024238
 40
1.0
 40
1.0
 40
1.0
 40
1.0
 10
28.5499675092
 20
42.7665146784
 30
0.0
 10
28.5908373225
 20
42.5747517929
 30
0.0
 10
28.675772847
 20
42.2894546964
 30
0.0
 10
28.8344718637
 20
41.9292000664
 30
0.0
 10
28.9744445674
 20
41.6755060426
 30
0.0
 10
29.1311764269
 20
41.4496405704
 30
0.0
 10
29.3414107644
 20
41.2087936325
 30
0.0
 10
29.5233181627
 20
41.0645431641
 30
0.0
 10
29.6501071883
 20
40.9990062899
 30
0.0
  0
SPLINE
  5
290
100
AcDbEntity
  8
0
100
AcDbSpline
 62
7
  6
BYLAYER
 70
0
 71
3
 72
19
 73
15
 74
0
 42
0.0000001
 43
0.0000001
 44
0.0000000001
 40
0.0
 40
0.0
 40
0.0
 40
0.0
 40
0.0069434903
 40
0.0221105745
 40
0.046335023
 40
0.0795883341
 40
0.1215859342
 40
0.1719855262
 40
0.2303112872
 40
0.2960034022
 40
0.4469724951
 40
0.6190696513
 40
0.8058899519
 40
1.0
 40
1.0
 40
1.0
 40
1.0
 10
10.1596182835
 20
42.4130078667
 30
0.0
 10
10.1596182829
 20
42.4083569377
 30
0.0
 10
10.1753951146
 20
42.3987708166
 30
0.0
 10
10.2029971469
 20
42.3913472554
 30
0.0
 10
10.251993465
 20
42.3813943622
 30
0.0
 10
10.3175093369
 20
42.3725972617
 30
0.0
 10
10.401403247
 20
42.3635833926
 30
0.0
 10
10.5019424366
 20
42.3551444486
 30
0.0
 10
10.61852467
 20
42.3471460086
 30
0.0
 10
10.8024224956
 20
42.3368211137
 30
0.0
 10
11.0626253629
 20
42.3261890078
 30
0.0
 10
11.404042813
 20
42.3170083081
 30
0.0
 10
11.7744396873
 20
42.3113518821
 30
0.0
 10
12.0295983458
 20
42.3100789312
 30
0.0
 10
12.1596182626
 20
42.3100789311
 30
0.0
  0
SPLINE
  5
291
100
AcDbEntity
  8
0
100
AcDbSpline
 62
7
  6
BYLAYER
 70
0
 71
3
 72
11
 73
7
 74
0
 42
0.0000001
 43
0.0000001
 44
0.0000000001
 40
0.0
 40
0.0
 40
0.0
 40
0.0
 40
0.2536725683
 40
0.5056260295
 40
0.7545723966
 40
1.0
 40
1.0
 40
1.0
 40
1.0
 10
12.1596183377
 20
40.5201277261
 30
0.0
 10
11.9857553439
 20
40.5201277235
 30
0.0
 10
11.6376728884
 20
40.5632415053
 30
0.0
 10
11.1510680765
 20
40.7534351734
 30
0.0
 10
10.732083729
 20
41.0562991381
 30
0.0
 10
10.5152986333
 20
41.3228112123
 30
0.0
 10
10.4276694025
 20
41.466395352
 30
0.0
  0
SPLINE
  5
292
100
AcDbEntity
  8
0
100
AcDbSpline
 62
7
  6
BYLAYER
 70
0
 71
3
 72
9
 73
5
 74
0
 42
0.0000001
 43
0.0000001
 44
0.0000000001
 40
0.0
 40
0.0
 40
0.0
 40
0.0
 40
0.5018618317
 40
1.0
 40
1.0
 40
1.0
 40
1.0
 10
10.4276694025
 20
41.466395352
 30
0.0
 10
10.3411176532
 20
41.6082139933
 30
0.0
 10
10.2058931032
 20
41.9154511147
 30
0.0
 10
10.1596182832
 20
42.2480968915
 30
0.0
 10
10.1596182835
 20
42.4130078652
 30
0.0
  0
SPLINE
  5
293
100
AcDbEntity
  8
0
100
AcDbSpline
 62
7
  6
BYLAYER
 70
0
 71
3
 72
10
 73
6
 74
0
 42
0.0000001
 43
0.0000001
 44
0.0000000001
 40
0.0
 40
0.0
 40
0.0
 40
0.0
 40
0.2113238382
 40
0.4490141667
 40
1.0
 40
1.0
 40
1.0
 40
1.0
 10
34.7106788968
 20
34.621724731
 30
0.0
 10
34.7525402943
 20
34.9382042276
 30
0.0
 10
34.8267483214
 20
35.6126254209
 30
0.0
 10
34.9436804648
 20
37.1188997112
 30
0.0
 10
34.9882988387
 20
38.3100169934
 30
0.0
 10
35.0061833121
 20
39.1421707518
 30
0.0
  0
SPLINE
  5
294
100
AcDbEntity
  8
0
100
AcDbSpline
 62
7
  6
BYLAYER
 70
0
 71
3
 72
12
 73
8
 74
0
 42
0.0000001
 43
0.0000001
 44
0.0000000001
 40
0.0
 40
0.0
 40
0.0
 40
0.0
 40
0.1000827498
 40
0.2177121796
 40
0.4853825023
 40
0.7602333804
 40
1.0
 40
1.0
 40
1.0
 40
1.0
 10
35.0062179141
 20
39.1426590984
 30
0.0
 10
35.0074078995
 20
39.1980632141
 30
0.0
 10
35.0064487951
 20
39.3186596123
 30
0.0
 10
34.994689372
 20
39.5871945599
 30
0.0
 10
34.9628499112
 20
39.9515230925
 30
0.0
 10
34.9068718992
 20
40.3811306357
 30
0.0
 10
34.8570399694
 20
40.6619122247
 30
0.0
 10
34.8285127745
 20
40.7915724572
 30
0.0
  0
SPLINE
  5
295
100
AcDbEntity
  8
0
100
AcDbSpline
 62
7
  6
BYLAYER
 70
0
 71
3
 72
19
 73
15
 74
0
 42
0.0000001
 43
0.0000001
 44
0.0000000001
 40
0.0
 40
0.0
 40
0.0
 40
0.0
 40
0.242357265
 40
0.4488376548
 40
0.6144903395
 40
0.6811265348
 40
0.7367986868
 40
0.7815631328
 40
0.8158937365
 40
0.8412325998
 40
0.8612946181
 40
0.9109485581
 40
0.9500057947
 40
1.0
 40
1.0
 40
1.0
 40
1.0
 10
34.082598991
 20
44.1829906084
 30
0.0
 10
34.0741714123
 20
44.2213160038
 30
0.0
 10
34.0576190546
 20
44.2920963632
 30
0.0
 10
34.0314193623
 20
44.3880995348
 30
0.0
 10
34.0091852847
 20
44.4556452924
 30
0.0
 10
33.9914990233
 20
44.4988139581
 30
0.0
 10
33.9796711199
 20
44.523158282
 30
0.0
 10
33.968360664
 20
44.5419028082
 30
0.0
 10
33.9575208799
 20
44.5549267114
 30
0.0
 10
33.9469014389
 20
44.5628403387
 30
0.0
 10
33.930407226
 20
44.5641904844
 30
0.0
 10
33.9183463124
 20
44.5473252382
 30
0.0
 10
33.9103382575
 20
44.5271120245
 30
0.0
 10
33.9064715495
 20
44.512994594
 30
0.0
 10
33.9046289712
 20
44.5051123275
 30
0.0
  0
SPLINE
  5
296
100
AcDbEntity
  8
0
100
AcDbSpline
 62
7
  6
BYLAYER
 70
0
 71
3
 72
9
 73
5
 74
0
 42
0.0000001
 43
0.0000001
 44
0.0000000001
 40
0.0
 40
0.0
 40
0.0
 40
0.0
 40
0.2108438873
 40
1.0
 40
1.0
 40
1.0
 40
1.0
 10
33.9046289712
 20
44.5051123275
 30
0.0
 10
33.9032024215
 20
44.4990097673
 30
0.0
 10
33.8972542865
 20
44.4698752259
 30
0.0
 10
33.8938177703
 20
44.4402866545
 30
0.0
 10
33.8916914478
 20
44.416926517
 30
0.0
  0
SPLINE
  5
297
100
AcDbEntity
  8
0
100
AcDbSpline
 62
7
  6
BYLAYER
 70
0
 71
3
 72
11
 73
7
 74
0
 42
0.0000001
 43
0.0000001
 44
0.0000000001
 40
0.0
 40
0.0
 40
0.0
 40
0.0
 40
0.255254112
 40
0.4861446673
 40
0.7238534536
 40
1.0
 40
1.0
 40
1.0
 40
1.0
 10
34.7108089245
 20
34.6210620426
 30
0.0
 10
34.7079509415
 20
34.6382338474
 30
0.0
 10
34.6955211456
 20
34.6701469702
 30
0.0
 10
34.6616013946
 20
34.7071449393
 30
0.0
 10
34.6168143727
 20
34.7326769635
 30
0.0
 10
34.5815656741
 20
34.7394172314
 30
0.0
 10
34.562737181
 20
34.7398224034
 30
0.0
  0
SPLINE
  5
298
100
AcDbEntity
  8
0
100
AcDbSpline
 62
7
  6
BYLAYER
 70
0
 71
3
 72
10
 73
6
 74
0
 42
0.0000001
 43
0.0000001
 44
0.0000000001
 40
0.0
 40
0.0
 40
0.0
 40
0.0
 40
0.5509145073
 40
0.7886213745
 40
1.0
 40
1.0
 40
1.0
 40
1.0
 10
34.8580208951
 20
39.2402989487
 30
0.0
 10
34.8401504591
 20
38.4119392788
 30
0.0
 10
34.7955598929
 20
37.2261822195
 30
0.0
 10
34.6787251506
 20
35.7266104714
 30
0.0
 10
34.6045789779
 20
35.0550964895
 30
0.0
 10
34.5627547939
 20
34.739955112
 30
0.0
  0
SPLINE
  5
299
100
AcDbEntity
  8
0
100
AcDbSpline
 62
7
  6
BYLAYER
 70
0
 71
3
 72
9
 73
5
 74
0
 42
0.0000001
 43
0.0000001
 44
0.0000000001
 40
0.0
 40
0.0
 40
0.0
 40
0.0
 40
0.4983943874
 40
1.0
 40
1.0
 40
1.0
 40
1.0
 10
34.6682685941
 20
34.1325707681
 30
0.0
 10
34.6164302741
 20
34.222515697
 30
0.0
 10
34.5484284737
 20
34.4250977111
 30
0.0
 10
34.5491060549
 20
34.6365078903
 30
0.0
 10
34.5629035201
 20
34.7400755415
 30
0.0
  0
SPLINE
  5
29A
100
AcDbEntity
  8
0
100
AcDbSpline
 62
7
  6
BYLAYER
 70
0
 71
3
 72
9
 73
5
 74
0
 42
0.0000001
 43
0.0000001
 44
0.0000000001
 40
0.0
 40
0.0
 40
0.0
 40
0.0
 40
0.5245087336
 40
1.0
 40
1.0
 40
1.0
 40
1.0
 10
34.781983012
 20
34.0907322021
 30
0.0
 10
34.7672191236
 20
34.1066831518
 30
0.0
 10
34.7303281548
 20
34.1298104948
 30
0.0
 10
34.6879187969
 20
34.1341849302
 30
0.0
 10
34.6682813978
 20
34.1325702415
 30
0.0
  0
SPLINE
  5
29B
100
AcDbEntity
  8
0
100
AcDbSpline
 62
7
  6
BYLAYER
 70
0
 71
3
 72
23
 73
19
 74
0
 42
0.0000001
 43
0.0000001
 44
0.0000000001
 40
0.0
 40
0.0
 40
0.0
 40
0.0
 40
0.1948818908
 40
0.3826393513
 40
0.555452511
 40
0.6342249825
 40
0.7069093733
 40
0.7728208375
 40
0.831278595
 40
0.8817081695
 40
0.9236732505
 40
0.9567477342
 40
0.9698333943
 40
0.9805859437
 40
0.9889879459
 40
0.9950234839
 40
0.9986821605
 40
1.0
 40
1.0
 40
1.0
 40
1.0
 10
37.4751122234
 20
34.716384855
 30
0.0
 10
37.4744230034
 20
34.6514185567
 30
0.0
 10
37.4732014461
 20
34.5238595389
 30
0.0
 10
37.4718194757
 20
34.3386871426
 30
0.0
 10
37.4710756098
 20
34.192220138
 30
0.0
 10
37.4707730654
 20
34.0841149549
 30
0.0
 10
37.4706957892
 20
34.0116485561
 30
0.0
 10
37.4707590669
 20
33.945954208
 30
0.0
 10
37.4709632425
 20
33.8876809748
 30
0.0
 10
37.4713028629
 20
33.8373873168
 30
0.0
 10
37.4717781125
 20
33.7955701841
 30
0.0
 10
37.4722929823
 20
33.7661732505
 30
0.0
 10
37.472818305
 20
33.7472400178
 30
0.0
 10
37.4731787327
 20
33.7364274258
 30
0.0
 10
37.4736423444
 20
33.7282233249
 30
0.0
 10
37.4739281105
 20
33.7217837614
 30
0.0
 10
37.4745721404
 20
33.7188842639
 30
0.0
 10
37.4746729053
 20
33.7164457984
 30
0.0
 10
37.4751122234
 20
33.7164411372
 30
0.0
  0
SPLINE
  5
29C
100
AcDbEntity
  8
0
100
AcDbSpline
 62
7
  6
BYLAYER
 70
0
 71
3
 72
19
 73
15
 74
0
 42
0.0000001
 43
0.0000001
 44
0.0000000001
 40
0.0
 40
0.0
 40
0.0
 40
0.0
 40
0.1941100481
 40
0.3809303486
 40
0.5530275049
 40
0.7039965979
 40
0.7696887128
 40
0.8280144738
 40
0.8784140659
 40
0.9204116661
 40
0.9536649771
 40
0.9778894254
 40
0.9930565095
 40
1.0
 40
1.0
 40
1.0
 40
1.0
 10
12.1596182626
 20
83.6693775726
 30
0.0
 10
12.0295983458
 20
83.6693775726
 30
0.0
 10
11.7744396873
 20
83.6706505236
 30
0.0
 10
11.404042813
 20
83.6763069496
 30
0.0
 10
11.062625363
 20
83.6854876492
 30
0.0
 10
10.8024224957
 20
83.6961197551
 30
0.0
 10
10.6185246701
 20
83.70644465
 30
0.0
 10
10.5019424366
 20
83.7144430901
 30
0.0
 10
10.4014032469
 20
83.722882034
 30
0.0
 10
10.3175093368
 20
83.7318959031
 30
0.0
 10
10.2519934649
 20
83.7406930037
 30
0.0
 10
10.2029971473
 20
83.7506458966
 30
0.0
 10
10.1753951147
 20
83.7580694585
 30
0.0
 10
10.1596182835
 20
83.767655579
 30
0.0
 10
10.1596182835
 20
83.7723065081
 30
0.0
  0
SPLINE
  5
29D
100
AcDbEntity
  8
0
100
AcDbSpline
 62
7
  6
BYLAYER
 70
0
 71
3
 72
11
 73
7
 74
0
 42
0.0000001
 43
0.0000001
 44
0.0000000001
 40
0.0
 40
0.0
 40
0.0
 40
0.0
 40
0.2493497385
 40
0.4991735892
 40
0.7495965714
 40
1.0
 40
1.0
 40
1.0
 40
1.0
 10
80.9196182835
 20
45.2446645656
 30
0.0
 10
80.9626693658
 20
45.2446645656
 30
0.0
 10
81.0501536727
 20
45.2684491281
 30
0.0
 10
81.1482575509
 20
45.3584366394
 30
0.0
 10
81.2068411409
 20
45.4766683188
 30
0.0
 10
81.2196182835
 20
45.563730224
 30
0.0
 10
81.2196182835
 20
45.6069632295
 30
0.0
  0
SPLINE
  5
29E
100
AcDbEntity
  8
0
100
AcDbSpline
 62
7
  6
BYLAYER
 70
0
 71
3
 72
11
 73
7
 74
0
 42
0.0000001
 43
0.0000001
 44
0.0000000001
 40
0.0
 40
0.0
 40
0.0
 40
0.0
 40
0.2501529997
 40
0.5002667124
 40
0.7501883169
 40
1.0
 40
1.0
 40
1.0
 40
1.0
 10
78.0961729013
 20
46.4647100987
 30
0.0
 10
78.1749671528
 20
46.2961316913
 30
0.0
 10
78.3694782914
 20
45.9744753615
 30
0.0
 10
78.770762789
 20
45.5773907902
 30
0.0
 10
79.2692639435
 20
45.3088610568
 30
0.0
 10
79.6437882939
 20
45.2446645656
 30
0.0
 10
79.8296182835
 20
45.2446645656
 30
0.0
  0
SPLINE
  5
29F
100
AcDbEntity
  8
0
100
AcDbSpline
 62
7
  6
BYLAYER
 70
0
 71
3
 72
13
 73
9
 74
0
 42
0.0000001
 43
0.0000001
 44
0.0000000001
 40
0.0
 40
0.0
 40
0.0
 40
0.0
 40
0.119266893
 40
0.2395628042
 40
0.361497763
 40
0.4856682866
 40
0.7396731483
 40
1.0
 40
1.0
 40
1.0
 40
1.0
 10
10.1596182835
 20
83.7723065081
 30
0.0
 10
10.1596182835
 20
83.8910893143
 30
0.0
 10
10.1857151783
 20
84.1304582386
 30
0.0
 10
10.3009442935
 20
84.4742826913
 30
0.0
 10
10.4880337904
 20
84.7907297541
 30
0.0
 10
10.8244862555
 20
85.1619739332
 30
0.0
 10
11.3835100644
 20
85.4974333532
 30
0.0
 10
11.9003480602
 20
85.5887805048
 30
0.0
 10
12.1596182835
 20
85.5887805048
 30
0.0
  0
SPLINE
  5
2A0
100
AcDbEntity
  8
0
100
AcDbSpline
 62
7
  6
BYLAYER
 70
0
 71
3
 72
11
 73
7
 74
0
 42
0.0000001
 43
0.0000001
 44
0.0000000001
 40
0.0
 40
0.0
 40
0.0
 40
0.0
 40
0.2610550949
 40
0.5174191937
 40
0.7646213481
 40
1.0
 40
1.0
 40
1.0
 40
1.0
 10
25.7996182829
 20
83.6693885342
 30
0.0
 10
26.0452730122
 20
83.6693891682
 30
0.0
 10
26.53246064
 20
83.6477235348
 30
0.0
 10
27.2463078157
 20
83.5489410114
 30
0.0
 10
27.9227458186
 20
83.3822743088
 30
0.0
 10
28.3490256637
 20
83.2212693615
 30
0.0
 10
28.5499688352
 20
83.1280975001
 30
0.0
  0
SPLINE
  5
2A1
100
AcDbEntity
  8
0
100
AcDbSpline
 62
7
  6
BYLAYER
 70
0
 71
3
 72
14
 73
10
 74
0
 42
0.0000001
 43
0.0000001
 44
0.0000000001
 40
0.0
 40
0.0
 40
0.0
 40
0.0
 40
0.1281345964
 40
0.250689619
 40
0.3698126177
 40
0.4884980988
 40
0.6093821851
 40
0.7343953056
 40
1.0
 40
1.0
 40
1.0
 40
1.0
 10
28.5499687897
 20
83.1280973484
 30
0.0
 10
28.745218716
 20
83.0375429316
 30
0.0
 10
29.1152473089
 20
82.8324962999
 30
0.0
 10
29.6045077563
 20
82.4448402866
 30
0.0
 10
30.0056234047
 20
81.9870644621
 30
0.0
 10
30.3184833777
 20
81.4687806053
 30
0.0
 10
30.5469049327
 20
80.8980354754
 30
0.0
 10
30.7536847564
 20
80.0620415742
 30
0.0
 10
30.7996124767
 20
79.40224926
 30
0.0
 10
30.7996182835
 20
78.9561145899
 30
0.0
  0
SPLINE
  5
2A2
100
AcDbEntity
  8
0
100
AcDbSpline
 62
7
  6
BYLAYER
 70
0
 71
3
 72
15
 73
11
 74
0
 42
0.0000001
 43
0.0000001
 44
0.0000000001
 40
0.0
 40
0.0
 40
0.0
 40
0.0
 40
0.1345646487
 40
0.2628571219
 40
0.3855904029
 40
0.5043580246
 40
0.6218182309
 40
0.7413813679
 40
0.8666285845
 40
1.0
 40
1.0
 40
1.0
 40
1.0
 10
30.7996182835
 20
46.5087025006
 30
0.0
 10
30.7996156271
 20
46.2985226451
 30
0.0
 10
30.7835556954
 20
45.8876380243
 30
0.0
 10
30.6991679724
 20
45.2900588103
 30
0.0
 10
30.5465923265
 20
44.7310556065
 30
0.0
 10
30.317087226
 20
44.2166545991
 30
0.0
 10
30.0024222633
 20
43.7547768043
 30
0.0
 10
29.5997871715
 20
43.3524215265
 30
0.0
 10
29.1102046488
 20
43.0168419701
 30
0.0
 10
28.7436540421
 20
42.8431978023
 30
0.0
 10
28.5499660792
 20
42.7665128831
 30
0.0
  0
SPLINE
  5
2A3
100
AcDbEntity
  8
0
100
AcDbSpline
 62
7
  6
BYLAYER
 70
0
 71
3
 72
11
 73
7
 74
0
 42
0.0000001
 43
0.0000001
 44
0.0000000001
 40
0.0
 40
0.0
 40
0.0
 40
0.0
 40
0.2327318322
 40
0.4794973451
 40
0.7370440517
 40
1.0
 40
1.0
 40
1.0
 40
1.0
 10
28.5499666324
 20
42.7665110239
 30
0.0
 10
28.3478086253
 20
42.6864758435
 30
0.0
 10
27.9199215353
 20
42.5496741316
 30
0.0
 10
27.2446428154
 20
42.4102077507
 30
0.0
 10
26.5317511234
 20
42.3280076289
 30
0.0
 10
26.0452791856
 20
42.3100809516
 30
0.0
 10
25.799618283
 20
42.310075805
 30
0.0
  0
SPLINE
  5
2A4
100
AcDbEntity
  8
0
100
AcDbSpline
 62
7
  6
BYLAYER
 70
0
 71
3
 72
11
 73
7
 74
0
 42
0.0000001
 43
0.0000001
 44
0.0000000001
 40
0.0
 40
0.0
 40
0.0
 40
0.0
 40
0.2493190316
 40
0.4989762186
 40
0.7492182109
 40
1.0
 40
1.0
 40
1.0
 40
1.0
 10
37.475097718
 20
33.7164412912
 30
0.0
 10
37.3560346398
 20
33.7177054352
 30
0.0
 10
37.1159677731
 20
33.7643309062
 30
0.0
 10
36.8057731081
 20
33.9575894361
 30
0.0
 10
36.5830820189
 20
34.2481834079
 30
0.0
 10
36.5124194251
 20
34.4831919345
 30
0.0
 10
36.4988485629
 20
34.6021889714
 30
0.0
  0
SPLINE
  5
2A5
100
AcDbEntity
  8
0
100
AcDbSpline
 62
7
  6
BYLAYER
 70
0
 71
3
 72
11
 73
7
 74
0
 42
0.0000001
 43
0.0000001
 44
0.0000000001
 40
0.0
 40
0.0
 40
0.0
 40
0.0
 40
0.2140537262
 40
0.4281239554
 40
0.6853724546
 40
1.0
 40
1.0
 40
1.0
 40
1.0
 10
34.0825903283
 20
44.1829896092
 30
0.0
 10
34.0823992625
 20
44.1685100757
 30
0.0
 10
34.0723300779
 20
44.139585572
 30
0.0
 10
34.040112486
 20
44.1053266007
 30
0.0
 10
33.9936879293
 20
44.0781351653
 30
0.0
 10
33.9556988666
 20
44.0680293292
 30
0.0
 10
33.9345680232
 20
44.0654752357
 30
0.0
  0
SPLINE
  5
2A6
100
AcDbEntity
  8
0
100
AcDbSpline
 62
7
  6
BYLAYER
 70
0
 71
3
 72
11
 73
7
 74
0
 42
0.0000001
 43
0.0000001
 44
0.0000000001
 40
0.0
 40
0.0
 40
0.0
 40
0.0
 40
0.276531511
 40
0.5385563863
 40
0.7812213892
 40
1.0
 40
1.0
 40
1.0
 40
1.0
 10
33.4996182835
 20
57.705182721
 30
0.0
 10
33.4996182835
 20
56.6568214568
 30
0.0
 10
33.5410411281
 20
54.6151325245
 30
0.0
 10
33.6554364161
 20
51.6556824718
 30
0.0
 10
33.7528484273
 20
48.9146711459
 30
0.0
 10
33.7857837663
 20
47.1653403517
 30
0.0
 10
33.7857837663
 20
46.3359266614
 30
0.0
  0
LINE
  5
2A7
100
AcDbEntity
  8
0
100
AcDbLine
 62
7
  6
BYLAYER
 10
33.7564464124
 20
44.4535822106
 11
33.7543966549
 21
44.3900952058
  0
SPLINE
  5
2A8
100
AcDbEntity
  8
0
100
AcDbSpline
 62
7
  6
BYLAYER
 70
0
 71
3
 72
10
 73
6
 74
0
 42
0.0000001
 43
0.0000001
 44
0.0000000001
 40
0.0
 40
0.0
 40
0.0
 40
0.0
 40
0.2778833869
 40
0.5360585472
 40
1.0
 40
1.0
 40
1.0
 40
1.0
 10
29.6501047355
 20
40.9990055508
 30
0.0
 10
29.8500313757
 20
41.0585044996
 30
0.0
 10
30.231728168
 20
41.1882175832
 30
0.0
 10
30.9171680546
 20
41.4950593383
 30
0.0
 10
31.3762015902
 20
41.7970682253
 30
0.0
 10
31.6358162505
 20
42.0291947484
 30
0.0
  0
SPLINE
  5
2A9
100
AcDbEntity
  8
0
100
AcDbSpline
 62
7
  6
BYLAYER
 70
0
 71
3
 72
9
 73
5
 74
0
 42
0.0000001
 43
0.0000001
 44
0.0000000001
 40
0.0
 40
0.0
 40
0.0
 40
0.0
 40
0.2458781936
 40
1.0
 40
1.0
 40
1.0
 40
1.0
 10
32.7689944149
 20
44.376486866
 30
0.0
 10
32.7742214389
 20
44.4260101133
 30
0.0
 10
32.7925461494
 20
44.6277295373
 30
0.0
 10
32.7996164964
 20
44.830415845
 30
0.0
 10
32.7996182835
 20
44.9831500384
 30
0.0
  0
SPLINE
  5
2AA
100
AcDbEntity
  8
0
100
AcDbSpline
 62
7
  6
BYLAYER
 70
0
 71
3
 72
15
 73
11
 74
0
 42
0.0000001
 43
0.0000001
 44
0.0000000001
 40
0.0
 40
0.0
 40
0.0
 40
0.0
 40
0.1263286399
 40
0.2477808775
 40
0.3656675055
 40
0.4821998262
 40
0.6004780127
 40
0.7241126607
 40
0.8565005254
 40
1.0
 40
1.0
 40
1.0
 40
1.0
 10
32.7996182835
 20
80.3406365804
 30
0.0
 10
32.799615067
 20
80.5947765696
 30
0.0
 10
32.7764280145
 20
81.0937710966
 30
0.0
 10
32.6563415899
 20
81.8215347379
 30
0.0
 10
32.4402413906
 20
82.5070428081
 30
0.0
 10
32.116479802
 20
83.1424868463
 30
0.0
 10
31.6756544355
 20
83.7183460177
 30
0.0
 10
31.1131642563
 20
84.225039207
 30
0.0
 10
30.4304229509
 20
84.6553768668
 30
0.0
 10
29.9207153873
 20
84.8799131028
 30
0.0
 10
29.6501047341
 20
84.9804509533
 30
0.0
  0
SPLINE
  5
2AB
100
AcDbEntity
  8
0
100
AcDbSpline
 62
7
  6
BYLAYER
 70
0
 71
3
 72
24
 73
20
 74
0
 42
0.0000001
 43
0.0000001
 44
0.0000000001
 40
0.0
 40
0.0
 40
0.0
 40
0.0
 40
0.0156380011
 40
0.0253530568
 40
0.0298115561
 40
0.0332127213
 40
0.0409965012
 40
0.0535931125
 40
0.0708561498
 40
0.0924139135
 40
0.1176922616
 40
0.1461039505
 40
0.2099942089
 40
0.2794986298
 40
0.3505710929
 40
0.4224753137
 40
0.4961502013
 40
0.6522264919
 40
1.0
 40
1.0
 40
1.0
 40
1.0
 10
35.122589112
 20
33.7597263513
 30
0.0
 10
35.1252438901
 20
33.7595739811
 30
0.0
 10
35.1298092212
 20
33.7594252347
 30
0.0
 10
35.134207111
 20
33.7594398275
 30
0.0
 10
35.1381876618
 20
33.7602762116
 30
0.0
 10
35.1365082061
 20
33.7632616329
 30
0.0
 10
35.1330348445
 20
33.7649178302
 30
0.0
 10
35.1274387768
 20
33.7682525507
 30
0.0
 10
35.1195832095
 20
33.7720008464
 30
0.0
 10
35.1097646499
 20
33.7767674101
 30
0.0
 10
35.0982221499
 20
33.7822781241
 30
0.0
 10
35.0802421408
 20
33.7910279235
 30
0.0
 10
35.0557136276
 20
33.8034989495
 30
0.0
 10
35.0253687268
 20
33.8205060202
 30
0.0
 10
34.9950524812
 20
33.840220313
 30
0.0
 10
34.9656747447
 20
33.8624990124
 30
0.0
 10
34.9269397093
 20
33.896184028
 30
0.0
 10
34.8589094433
 20
33.9671887326
 30
0.0
 10
34.8095805171
 20
34.0384301547
 30
0.0
 10
34.7819847869
 20
34.0907334408
 30
0.0
  0
SPLINE
  5
2AC
100
AcDbEntity
  8
0
100
AcDbSpline
 62
7
  6
BYLAYER
 70
0
 71
3
 72
9
 73
5
 74
0
 42
0.0000001
 43
0.0000001
 44
0.0000000001
 40
0.0
 40
0.0
 40
0.0
 40
0.0
 40
0.4955132275
 40
1.0
 40
1.0
 40
1.0
 40
1.0
 10
34.781983015
 20
34.0907321964
 30
0.0
 10
34.7399000445
 20
34.1698224745
 30
0.0
 10
34.6878261867
 20
34.3479954141
 30
0.0
 10
34.6957172893
 20
34.5312243458
 30
0.0
 10
34.7109279582
 20
34.6211588807
 30
0.0
  0
SPLINE
  5
2AD
100
AcDbEntity
  8
0
100
AcDbSpline
 62
7
  6
BYLAYER
 70
0
 71
3
 72
13
 73
9
 74
0
 42
0.0000001
 43
0.0000001
 44
0.0000000001
 40
0.0
 40
0.0
 40
0.0
 40
0.0
 40
0.2925495203
 40
0.5617737867
 40
0.6833667373
 40
0.7955494941
 40
0.9000850225
 40
1.0
 40
1.0
 40
1.0
 40
1.0
 10
32.6196182835
 20
44.065472181
 30
0.0
 10
32.4909168305
 20
44.065472181
 30
0.0
 10
32.2426691354
 20
44.0340363607
 30
0.0
 10
31.9610038647
 20
43.9141126895
 30
0.0
 10
31.7872847692
 20
43.7749167384
 30
0.0
 10
31.6924647
 20
43.6584458544
 30
0.0
 10
31.6333163235
 20
43.5305900135
 30
0.0
 10
31.6196182835
 20
43.4401675263
 30
0.0
 10
31.6196182835
 20
43.3962118816
 30
0.0
  0
SPLINE
  5
2AE
100
AcDbEntity
  8
0
100
AcDbSpline
 62
7
  6
BYLAYER
 70
0
 71
3
 72
22
 73
18
 74
0
 42
0.0000001
 43
0.0000001
 44
0.0000000001
 40
0.0
 40
0.0
 40
0.0
 40
0.0
 40
0.002889055
 40
0.005962636
 40
0.0138459448
 40
0.02620496
 40
0.042583642
 40
0.0624579792
 40
0.0852933273
 40
0.1105590507
 40
0.1664863912
 40
0.227971839
 40
0.3623409598
 40
0.5078102399
 40
0.6627041565
 40
0.8259916935
 40
1.0
 40
1.0
 40
1.0
 40
1.0
 10
35.1223600054
 20
33.758622984
 30
0.0
 10
35.1229414861
 20
33.7586145586
 30
0.0
 10
35.1250101046
 20
33.7588081334
 30
0.0
 10
35.1211429186
 20
33.7609323875
 30
0.0
 10
35.1177748014
 20
33.7621868302
 30
0.0
 10
35.1103758024
 20
33.7650923064
 30
0.0
 10
35.1014035429
 20
33.7683607977
 30
0.0
 10
35.0901793863
 20
33.7725458404
 30
0.0
 10
35.0774214871
 20
33.77741413
 30
0.0
 10
35.057956343
 20
33.7851657653
 30
0.0
 10
35.0316084371
 20
33.7966042226
 30
0.0
 10
34.9860393198
 20
33.8188254639
 30
0.0
 10
34.9266630334
 20
33.8536769407
 30
0.0
 10
34.8563976834
 20
33.9061111616
 30
0.0
 10
34.7879220157
 20
33.9698558843
 30
0.0
 10
34.724403533
 20
34.0462047975
 30
0.0
 10
34.6866916672
 20
34.1027808907
 30
0.0
 10
34.6682685944
 20
34.1325707688
 30
0.0
  0
SPLINE
  5
2AF
100
AcDbEntity
  8
0
100
AcDbSpline
 62
7
  6
BYLAYER
 70
0
 71
3
 72
10
 73
6
 74
0
 42
0.0000001
 43
0.0000001
 44
0.0000000001
 40
0.0
 40
0.0
 40
0.0
 40
0.0
 40
0.5383075445
 40
0.7808855903
 40
1.0
 40
1.0
 40
1.0
 40
1.0
 10
33.4996182835
 20
69.3320602497
 30
0.0
 10
33.4996182835
 20
71.3737507399
 30
0.0
 10
33.6177083116
 20
74.3343580468
 30
0.0
 10
33.7535839761
 20
78.1244789031
 30
0.0
 10
33.7845497934
 20
79.8755981934
 30
0.0
 10
33.7845497934
 20
80.7066543639
 30
0.0
  0
SPLINE
  5
2B0
100
AcDbEntity
  8
0
100
AcDbSpline
 62
7
  6
BYLAYER
 70
0
 71
3
 72
11
 73
7
 74
0
 42
0.0000001
 43
0.0000001
 44
0.0000000001
 40
0.0
 40
0.0
 40
0.0
 40
0.0
 40
0.2493087662
 40
0.4989223476
 40
0.7491689075
 40
1.0
 40
1.0
 40
1.0
 40
1.0
 10
34.7620474268
 20
93.2920159179
 30
0.0
 10
34.6429879223
 20
93.2907526871
 30
0.0
 10
34.4029420101
 20
93.2441428041
 30
0.0
 10
34.0927598876
 20
93.0509069965
 30
0.0
 10
33.8700346796
 20
92.7603278468
 30
0.0
 10
33.7993574469
 20
92.525289834
 30
0.0
 10
33.7857837662
 20
92.4062680836
 30
0.0
  0
SPLINE
  5
2B1
100
AcDbEntity
  8
0
100
AcDbSpline
 62
7
  6
BYLAYER
 70
0
 71
3
 72
13
 73
9
 74
0
 42
0.0000001
 43
0.0000001
 44
0.0000000001
 40
0.0
 40
0.0
 40
0.0
 40
0.0
 40
0.1064604334
 40
0.1901935468
 40
0.2986530428
 40
0.4332645307
 40
0.5948236947
 40
1.0
 40
1.0
 40
1.0
 40
1.0
 10
33.4996182835
 20
92.2891755109
 30
0.0
 10
33.4995796338
 20
92.3004597894
 30
0.0
 10
33.5151997287
 20
92.3182341083
 30
0.0
 10
33.5416298492
 20
92.3340961875
 30
0.0
 10
33.5734394862
 20
92.3486915255
 30
0.0
 10
33.6137745182
 20
92.3630518025
 30
0.0
 10
33.6851278874
 20
92.3841690508
 30
0.0
 10
33.7437396177
 20
92.3975027045
 30
0.0
 10
33.7857837657
 20
92.4062621941
 30
0.0
  0
SPLINE
  5
2B2
100
AcDbEntity
  8
0
100
AcDbSpline
 62
7
  6
BYLAYER
 70
0
 71
3
 72
23
 73
19
 74
0
 42
0.0000001
 43
0.0000001
 44
0.0000000001
 40
0.0
 40
0.0
 40
0.0
 40
0.0
 40
0.0013178395
 40
0.0049765161
 40
0.0110120541
 40
0.0194140563
 40
0.0301666057
 40
0.0432522658
 40
0.0763267495
 40
0.1182918305
 40
0.168721405
 40
0.2271791625
 40
0.2930906267
 40
0.3657750175
 40
0.444547489
 40
0.6173606487
 40
0.8051181092
 40
1.0
 40
1.0
 40
1.0
 40
1.0
 10
37.4751122234
 20
93.3208017513
 30
0.0
 10
37.4746729053
 20
93.3207970901
 30
0.0
 10
37.4745721404
 20
93.3183586246
 30
0.0
 10
37.4739281105
 20
93.3154591271
 30
0.0
 10
37.4736423444
 20
93.3090195635
 30
0.0
 10
37.4731787327
 20
93.3008154626
 30
0.0
 10
37.472818305
 20
93.2900028706
 30
0.0
 10
37.4722929823
 20
93.2710696379
 30
0.0
 10
37.4717781125
 20
93.2416727043
 30
0.0
 10
37.4713028629
 20
93.1998555716
 30
0.0
 10
37.4709632425
 20
93.1495619136
 30
0.0
 10
37.4707590669
 20
93.0912886804
 30
0.0
 10
37.4706957892
 20
93.0255943323
 30
0.0
 10
37.4707730654
 20
92.9531279335
 30
0.0
 10
37.4710756098
 20
92.8450227505
 30
0.0
 10
37.4718194757
 20
92.6985557458
 30
0.0
 10
37.4732014461
 20
92.5133833495
 30
0.0
 10
37.4744230034
 20
92.3858243317
 30
0.0
 10
37.4751122234
 20
92.3208580334
 30
0.0
  0
SPLINE
  5
2B3
100
AcDbEntity
  8
0
100
AcDbSpline
 62
7
  6
BYLAYER
 70
0
 71
3
 72
11
 73
7
 74
0
 42
0.0000001
 43
0.0000001
 44
0.0000000001
 40
0.0
 40
0.0
 40
0.0
 40
0.0
 40
0.2507817766
 40
0.5010237333
 40
0.7506809257
 40
1.0
 40
1.0
 40
1.0
 40
1.0
 10
36.4988485629
 20
92.435053917
 30
0.0
 10
36.5124195598
 20
92.554052135
 30
0.0
 10
36.583083289
 20
92.7890630266
 30
0.0
 10
36.8057783224
 20
93.0796585722
 30
0.0
 10
37.1159778556
 20
93.2729170312
 30
0.0
 10
37.3560479279
 20
93.3195384696
 30
0.0
 10
37.4751122234
 20
93.3208017513
 30
0.0
  0
SPLINE
  5
2B4
100
AcDbEntity
  8
0
100
AcDbSpline
 62
7
  6
BYLAYER
 70
0
 71
3
 72
13
 73
9
 74
0
 42
0.0000001
 43
0.0000001
 44
0.0000000001
 40
0.0
 40
0.0
 40
0.0
 40
0.0
 40
0.3376215656
 40
0.6205863089
 40
0.7396715893
 40
0.8429471818
 40
0.9298917903
 40
1.0
 40
1.0
 40
1.0
 40
1.0
 10
33.7845497934
 20
80.7066543639
 30
0.0
 10
33.7845497934
 20
81.4285218883
 30
0.0
 10
33.7634219044
 20
82.7555500081
 30
0.0
 10
33.6836401132
 20
84.3353041044
 30
0.0
 10
33.6057157791
 20
85.4129308299
 30
0.0
 10
33.5541340818
 20
86.0722589276
 30
0.0
 10
33.5141317196
 20
86.6273820618
 30
0.0
 10
33.4996182835
 20
86.9630786231
 30
0.0
 10
33.4996182835
 20
87.1129767486
 30
0.0
  0
SPLINE
  5
2B5
100
AcDbEntity
  8
0
100
AcDbSpline
 62
7
  6
BYLAYER
 70
0
 71
3
 72
13
 73
9
 74
0
 42
0.0000001
 43
0.0000001
 44
0.0000000001
 40
0.0
 40
0.0
 40
0.0
 40
0.0
 40
0.042731365
 40
0.1051803384
 40
0.192443124
 40
0.3055253878
 40
0.6069524392
 40
1.0
 40
1.0
 40
1.0
 40
1.0
 10
33.7918600854
 20
44.3962098848
 30
0.0
 10
33.797105972
 20
44.3961618489
 30
0.0
 10
33.8095556358
 20
44.390038172
 30
0.0
 10
33.8249167159
 20
44.3719887015
 30
0.0
 10
33.8416875168
 20
44.3442828818
 30
0.0
 10
33.8676521373
 20
44.2883590962
 30
0.0
 10
33.9001128399
 20
44.194475591
 30
0.0
 10
33.9227345906
 20
44.1122560765
 30
0.0
 10
33.9345674679
 20
44.0654751587
 30
0.0
  0
ENDSEC
  0
SECTION
  2
OBJECTS
  0
DICTIONARY
  5
C
100
AcDbDictionary
280
0
281
1
  3
ACAD_GROUP
350
D
  3
ACAD_MLINESTYLE
350
17
  3
ACAD_LAYOUT
350
1A
  3
ACAD_PLOTSETTINGS
350
19
  3
ACAD_PLOTSTYLENAME
350
E
  0
DICTIONARY
  5
D
102
{ACAD_REACTORS
330
C
102
}
100
AcDbDictionary
280
0
281
1
  0
ACDBDICTIONARYWDFLT
  5
E
102
{ACAD_REACTORS
330
C
102
}
100
AcDbDictionary
281
1
  3
Normal
350
F
100
AcDbDictionaryWithDefault
340
F
  0
DICTIONARY
  5
17
102
{ACAD_REACTORS
330
C
102
}
100
AcDbDictionary
280
0
281
1
  3
Standard
350
18
  0
DICTIONARY
  5
19
102
{ACAD_REACTORS
330
C
102
}
100
AcDbDictionary
281
1
  0
DICTIONARY
  5
1A
102
{ACAD_REACTORS
330
C
102
}
100
AcDbDictionary
281
1
  3
Model
350
2B6
  3
Layout1
350
2B7
  0
ACDBPLACEHOLDER
  5
F
102
{ACAD_REACTORS
330
E
102
}
  0
MLINESTYLE
  5
18
102
{ACAD_REACTORS
330
17
102
}
100
AcDbMlineStyle
  2
STANDARD
 70
0
  3

 62
256
 51
90.0
 52
90.0
 71
2
 49
0.5
 62
256
  6
BYLAYER
 49
-0.5
 62
256
  6
BYLAYER
  0
LAYOUT
  5
2B6
102
{ACAD_REACTORS
330
1A
102
}
100
AcDbPlotSettings
  1

  2
none_device
  4

  6

 40
0.0
 41
0.0
 42
0.0
 43
0.0
 44
210.0
 45
297.0
 46
0.0
 47
0.0
 48
0.0
 49
0.0
140
0.0
141
0.0
142
1.0
143
1.0
 70
1024
 72
1
 73
0
 74
0
  7

 75
0
147
1.0
148
0.0
149
0.0
100
AcDbLayout
  1
Model
 70
0
 71
0
 10
0.0
 20
0.0
 11
210.0
 21
297.0
 12
0.0
 22
0.0
 32
0.0
 14
0.0
 24
0.0
 34
0.0
 15
0.0
 25
0.0
 35
0.0
146
0.0
 13
0.0
 23
0.0
 33
0.0
 16
1.0
 26
0.0
 36
0.0
 17
0.0
 27
1.0
 37
0.0
 76
0
330
210
345
0
346
0
  0
LAYOUT
  5
2B7
102
{ACAD_REACTORS
330
1A
102
}
100
AcDbPlotSettings
  1

  2
none_device
  4

  6

 40
0.0
 41
0.0
 42
0.0
 43
0.0
 44
210.0
 45
297.0
 46
0.0
 47
0.0
 48
0.0
 49
0.0
140
0.0
141
0.0
142
1.0
143
1.0
 70
0
 72
1
 73
0
 74
0
  7

 75
0
147
1.0
148
0.0
149
0.0
100
AcDbLayout
  1
Layout1
 70
0
 71
1
 10
0.0
 20
0.0
 11
210.0
 21
297.0
 12
0.0
 22
0.0
 32
0.0
 14
0.0
 24
0.0
 34
0.0
 15
0.0
 25
0.0
 35
0.0
146
0.0
 13
0.0
 23
0.0
 33
0.0
 16
1.0
 26
0.0
 36
0.0
 17
0.0
 27
1.0
 37
0.0
 76
0
330
211
345
0
346
0
  0
ENDSEC
  0
EOF
