999
DXF file: C:\Users\sesa63760\Dev\_Creo\CAD\MCADPD0004093_3D-CAD\drw0001_1.dxf
999
Pro/ENGINEER 2019471 by Parametric Technology Corporation
  0
SECTION
  2
HEADER
  9
$ACADVER
  1
AC1024
  9
$DWGCODEPAGE
  3
ANSI_1252
  9
$EXTMAX
 10
92.9959659962
 20
131.5228661947
 30
0.0
  9
$EXTMIN
 10
-0.0
 20
0.0
 30
0.0
  9
$LIMMIN
 10
-0.0
 20
0.0
  9
$LIMMAX
 10
92.9959659962
 20
131.5228661947
  9
$VIEWCTR
 10
46.4979829981
 20
65.7614330973
  9
$VIEWSIZE
 40
131.5228661947
  9
$CLAYER
  8
0
  9
$LTSCALE
 40
8.573342389
  9
$CELTYPE
  6
BYLAYER
  9
$DIMSCALE
 40
1.0
  9
$DIMASZ
 40
1.1070948333
  9
$DIMEXO
 40
1.0
  9
$DIMDLI
 40
5.923400196
  9
$DIMEXE
 40
1.0
  9
$DIMCEN
 40
1.4029105727
  9
$DIMLFAC
 40
1.0
  9
$DIMBLK
  1
_FILLED
  9
$DIMALT
 70
0
  9
$DIMALTF
 40
0.0393700787
  9
$DIMTXT
 40
1.5499327666
  9
$DIMTOL
 70
1
  9
$DIMLIM
 70
0
  9
$DIMTFAC
 40
1.0
  9
$DIMTP
 40
0.01
  9
$DIMTM
 40
0.01
  9
$DIMGAP
 40
0.625
  9
$DIMDSEP
 70
46
  9
$AUNITS
 70
0
  9
$PDMODE
 70
3
  9
$PDSIZE
 40
0.3125
  9
$HANDSEED
  5
32A
  9
$TILEMODE
 70
1
  9
$MEASUREMENT
 70
1
  9
$INSUNITS
 70
4
  0
ENDSEC
  0
SECTION
  2
CLASSES
  0
CLASS
  1
ACDBDICTIONARYWDFLT
  2
AcDbDictionaryWithDefault
  3
AutoCAD 2000
 90
0
 91
1
280
0
281
0
  0
CLASS
  1
ACDBPLACEHOLDER
  2
AcDbPlaceHolder
  3
AutoCAD 2000
 90
0
 91
1
280
0
281
0
  0
CLASS
  1
LAYOUT
  2
AcDbLayout
  3
AutoCAD 2000
 90
0
 91
0
280
0
281
0
  0
ENDSEC
  0
SECTION
  2
TABLES
  0
TABLE
  2
VPORT
  5
8
100
AcDbSymbolTable
 70
2
  0
VPORT
  5
1F4
100
AcDbSymbolTableRecord
100
AcDbViewportTableRecord
  2
*ACTIVE
 70
0
 10
0.0
 20
0.0
 11
1.0
 21
1.0
 12
46.4979829981
 22
65.7614330973
 13
0.0
 23
0.0
 14
1.0
 24
1.0
 15
0.0
 25
0.0
 16
0.0
 26
0.0
 36
1.0
 17
0.0
 27
0.0
 37
0.0
 40
131.5228661947
 41
0.7070707071
 42
50.0
 43
0.0
 44
0.0
 50
0.0
 51
0.0
 71
0
 72
100
 73
1
 74
1
 75
0
 76
0
 77
0
 78
0
  0
ENDTAB
  0
TABLE
  2
LTYPE
  5
5
100
AcDbSymbolTable
 70
6
  0
LTYPE
  5
14
100
AcDbSymbolTableRecord
100
AcDbLinetypeTableRecord
  2
BYBLOCK
 70
0
  3

 72
65
 73
0
 40
0.0
  0
LTYPE
  5
15
100
AcDbSymbolTableRecord
100
AcDbLinetypeTableRecord
  2
BYLAYER
 70
0
  3

 72
65
 73
0
 40
0.0
  0
LTYPE
  5
16
100
AcDbSymbolTableRecord
100
AcDbLinetypeTableRecord
  2
CONTINUOUS
 70
64
  3
Solid line
 72
65
 73
0
 40
0.0
  0
LTYPE
  5
1F5
100
AcDbSymbolTableRecord
100
AcDbLinetypeTableRecord
  2
CENTER
 70
64
  3
____ _ ____ _ ____ _ ____ _ ____ _ ____ _ ____
 72
65
 73
4
 40
0.6
 49
0.375
 74
0
 49
-0.075
 74
0
 49
0.075
 74
0
 49
-0.075
 74
0
  0
LTYPE
  5
1F6
100
AcDbSymbolTableRecord
100
AcDbLinetypeTableRecord
  2
HIDDEN
 70
64
  3
- - - - - - - - - - - - - - - - - - - -
 72
65
 73
2
 40
0.2
 49
0.1
 74
0
 49
-0.1
 74
0
  0
LTYPE
  5
1F7
100
AcDbSymbolTableRecord
100
AcDbLinetypeTableRecord
  2
PHANTOM
 70
64
  3
_____ _ _ _____ _ _ _____ _ _ _____
 72
65
 73
6
 40
0.8
 49
0.45
 74
0
 49
-0.05
 74
0
 49
0.1
 74
0
 49
-0.05
 74
0
 49
0.1
 74
0
 49
-0.05
 74
0
  0
LTYPE
  5
1F8
100
AcDbSymbolTableRecord
100
AcDbLinetypeTableRecord
  2
DOT
 70
64
  3
. . . . . . . . . . . . . . . . . . . .
 72
65
 73
2
 40
0.2
 49
0.1
 74
0
 49
-0.1
 74
0
  0
LTYPE
  5
1F9
100
AcDbSymbolTableRecord
100
AcDbLinetypeTableRecord
  2
DASHED
 70
64
  3
- - - - - - - - - - - - - - - - - - - -
 72
65
 73
2
 40
0.2
 49
0.1
 74
0
 49
-0.1
 74
0
  0
ENDTAB
  0
TABLE
  2
LAYER
  5
2
100
AcDbSymbolTable
 70
36
  0
LAYER
  5
10
100
AcDbSymbolTableRecord
100
AcDbLayerTableRecord
  2
0
 70
0
 62
7
  6
CONTINUOUS
370
-3
390
F
  0
LAYER
  5
1FA
100
AcDbSymbolTableRecord
100
AcDbLayerTableRecord
  2
DEFAULT_1
 70
0
 62
7
  6
CENTER
370
-3
390
F
  0
LAYER
  5
1FB
100
AcDbSymbolTableRecord
100
AcDbLayerTableRecord
  2
DEFAULT_2
 70
0
 62
7
  6
HIDDEN
370
-3
390
F
  0
LAYER
  5
1FC
100
AcDbSymbolTableRecord
100
AcDbLayerTableRecord
  2
DEFAULT_3
 70
0
 62
7
  6
PHANTOM
370
-3
390
F
  0
LAYER
  5
1FD
100
AcDbSymbolTableRecord
100
AcDbLayerTableRecord
  2
00_COMPONENTS
 70
0
 62
7
  6
CONTINUOUS
370
-3
390
F
  0
LAYER
  5
1FE
100
AcDbSymbolTableRecord
100
AcDbLayerTableRecord
  2
01_1_DEFAULT_DATUMS
 70
0
 62
7
  6
CONTINUOUS
370
-3
390
F
  0
LAYER
  5
1FF
100
AcDbSymbolTableRecord
100
AcDbLayerTableRecord
  2
01_PLANES
 70
0
 62
7
  6
CONTINUOUS
370
-3
390
F
  0
LAYER
  5
200
100
AcDbSymbolTableRecord
100
AcDbLayerTableRecord
  2
02_COORD_SYS
 70
0
 62
7
  6
CONTINUOUS
370
-3
390
F
  0
LAYER
  5
201
100
AcDbSymbolTableRecord
100
AcDbLayerTableRecord
  2
03_AXES
 70
0
 62
7
  6
CONTINUOUS
370
-3
390
F
  0
LAYER
  5
202
100
AcDbSymbolTableRecord
100
AcDbLayerTableRecord
  2
04_POINTS
 70
0
 62
7
  6
CONTINUOUS
370
-3
390
F
  0
LAYER
  5
203
100
AcDbSymbolTableRecord
100
AcDbLayerTableRecord
  2
05_CURVES
 70
0
 62
7
  6
CONTINUOUS
370
-3
390
F
  0
LAYER
  5
204
100
AcDbSymbolTableRecord
100
AcDbLayerTableRecord
  2
06_SURFS
 70
0
 62
7
  6
CONTINUOUS
370
-3
390
F
  0
LAYER
  5
205
100
AcDbSymbolTableRecord
100
AcDbLayerTableRecord
  2
07_COSMETICS
 70
0
 62
7
  6
CONTINUOUS
370
-3
390
F
  0
LAYER
  5
206
100
AcDbSymbolTableRecord
100
AcDbLayerTableRecord
  2
10_NOTES
 70
0
 62
7
  6
CONTINUOUS
370
-3
390
F
  0
LAYER
  5
207
100
AcDbSymbolTableRecord
100
AcDbLayerTableRecord
  2
11_NOTES_PUB
 70
0
 62
7
  6
CONTINUOUS
370
-3
390
F
  0
LAYER
  5
208
100
AcDbSymbolTableRecord
100
AcDbLayerTableRecord
  2
13_REF_GTOL
 70
0
 62
7
  6
CONTINUOUS
370
-3
390
F
  0
LAYER
  5
209
100
AcDbSymbolTableRecord
100
AcDbLayerTableRecord
  2
16_MISC
 70
0
 62
7
  6
CONTINUOUS
370
-3
390
F
  0
LAYER
  5
20A
100
AcDbSymbolTableRecord
100
AcDbLayerTableRecord
  2
17_NO_PRINT
 70
0
 62
7
  6
CONTINUOUS
370
-3
390
F
  0
LAYER
  5
20B
100
AcDbSymbolTableRecord
100
AcDbLayerTableRecord
  2
18_DATUM_CAMS_JOINTS
 70
0
 62
7
  6
CONTINUOUS
370
-3
390
F
  0
LAYER
  5
20C
100
AcDbSymbolTableRecord
100
AcDbLayerTableRecord
  2
19_DATUM_FUNCTIONAL
 70
0
 62
7
  6
CONTINUOUS
370
-3
390
F
  0
LAYER
  5
20D
100
AcDbSymbolTableRecord
100
AcDbLayerTableRecord
  2
20_DATUM_KINEMATIC_SCHEME
 70
0
 62
7
  6
CONTINUOUS
370
-3
390
F
  0
ENDTAB
  0
TABLE
  2
STYLE
  5
3
100
AcDbSymbolTable
 70
1
  0
STYLE
  5
11
100
AcDbSymbolTableRecord
100
AcDbTextStyleTableRecord
  2
STANDARD
 70
0
 40
0.0
 41
1.0
 50
0.0
 71
0
 42
0.2
  3
ARIAL.TTF
  4

  0
STYLE
  5
20E
100
AcDbSymbolTableRecord
100
AcDbTextStyleTableRecord
  2
TEXTSTYLE_1
 70
0
 40
0.0
 41
0.8
 50
0.0
 71
0
 42
0.2
  3
gdt
  4

  0
ENDTAB
  0
TABLE
  2
VIEW
  5
6
100
AcDbSymbolTable
 70
0
  0
ENDTAB
  0
TABLE
  2
UCS
  5
7
100
AcDbSymbolTable
 70
0
  0
ENDTAB
  0
TABLE
  2
APPID
  5
9
100
AcDbSymbolTable
 70
1
  0
APPID
  5
20F
100
AcDbSymbolTableRecord
100
AcDbRegAppTableRecord
  2
ACAD
 70
0
  0
ENDTAB
  0
TABLE
  2
BLOCK_RECORD
  5
1
100
AcDbSymbolTable
 70
0
  0
BLOCK_RECORD
  5
210
100
AcDbSymbolTableRecord
100
AcDbBlockTableRecord
  2
*Model_Space
  0
BLOCK_RECORD
  5
211
100
AcDbSymbolTableRecord
100
AcDbBlockTableRecord
  2
*Paper_Space
  0
BLOCK_RECORD
  5
212
100
AcDbSymbolTableRecord
100
AcDbBlockTableRecord
  2
_FILLED
  0
ENDTAB
  0
TABLE
  2
DIMSTYLE
  5
A
100
AcDbSymbolTable
 70
1
100
AcDbDimStyleTable
 71
0
  0
DIMSTYLE
105
213
100
AcDbSymbolTableRecord
100
AcDbDimStyleTableRecord
  2
STANDARD
 70
0
  3

  4

 40
1.0
 41
1.1070948333
 42
1.0
 43
0.38
 44
1.0
 45
0.0
 46
0.0
 47
0.01
 48
0.01
140
1.5499327666
141
0.09
142
0.0
143
25.4
144
1.0
145
0.0
146
1.0
147
0.625
 71
1
 72
0
 73
0
 74
0
 75
0
 76
0
 77
1
 78
8
 79
2
170
0
171
1
172
0
173
0
174
0
175
0
176
0
177
0
178
0
270
2
179
2
271
2
272
2
273
2
274
2
275
0
280
0
281
0
282
0
283
1
284
8
285
0
286
0
287
3
288
0
340
11
278
46
341
212
342
212
343
212
344
212
  0
ENDTAB
  0
ENDSEC
  0
SECTION
  2
BLOCKS
  0
BLOCK
  5
20
100
AcDbEntity
  8
0
100
AcDbBlockBegin
  2
*Model_Space
 70
0
 10
0.0
 20
0.0
 30
0.0
  3
*Model_Space
  1

  0
ENDBLK
  5
21
100
AcDbEntity
  8
0
100
AcDbBlockEnd
  0
BLOCK
  5
1C
100
AcDbEntity
  8
0
100
AcDbBlockBegin
  2
*Paper_Space
 70
0
 10
0.0
 20
0.0
 30
0.0
  3
*Paper_Space
  1

  0
ENDBLK
  5
1D
100
AcDbEntity
  8
0
100
AcDbBlockEnd
  0
BLOCK
  5
214
100
AcDbEntity
  8
0
100
AcDbBlockBegin
  2
_FILLED
 70
64
 10
0.0
 20
0.0
  3
_FILLED
  1

  0
SOLID
  5
215
100
AcDbEntity
  8
0
  6
BYBLOCK
 62
0
100
AcDbTrace
 10
0.0
 20
0.0
 11
-1.0
 21
0.25
 12
-1.0
 22
-0.25
 13
-1.0
 23
-0.25
  0
ENDBLK
  5
216
100
AcDbEntity
  8
0
  6
BYBLOCK
 62
0
100
AcDbBlockEnd
  0
ENDSEC
  0
SECTION
  2
ENTITIES
  0
LINE
  5
217
100
AcDbEntity
  8
0
100
AcDbLine
 62
7
  6
BYLAYER
 10
16.4130649277
 20
98.177838592
 11
29.4598597588
 21
106.0334779726
  0
LINE
  5
218
100
AcDbEntity
  8
0
100
AcDbLine
 62
7
  6
BYLAYER
 10
16.9213888218
 20
98.1332703607
 11
29.9651103711
 21
105.9870592797
  0
LINE
  5
219
100
AcDbEntity
  8
0
100
AcDbLine
 62
7
  6
BYLAYER
 10
12.9021430809
 20
35.9786385766
 11
12.9022587621
 21
35.9785261488
  0
LINE
  5
21A
100
AcDbEntity
  8
0
100
AcDbLine
 62
7
  6
BYLAYER
 10
24.1176621278
 20
29.5671636285
 11
24.117554664
 21
29.5671833439
  0
LINE
  5
21B
100
AcDbEntity
  8
0
100
AcDbLine
 62
7
  6
BYLAYER
 10
10.7904922226
 20
71.9663469823
 11
12.2975966956
 21
37.3262721821
  0
LINE
  5
21C
100
AcDbEntity
  8
0
100
AcDbLine
 62
7
  6
BYLAYER
 10
12.8814987987
 20
36.5967167168
 11
11.3743943254
 21
71.2367915175
  0
LINE
  5
21D
100
AcDbEntity
  8
0
100
AcDbLine
 62
7
  6
BYLAYER
 10
12.5179163283
 20
78.7648869878
 11
12.5179163283
 21
74.2063979434
  0
LINE
  5
21E
100
AcDbEntity
  8
0
100
AcDbLine
 62
7
  6
BYLAYER
 10
12.810812491
 20
78.3566428339
 11
12.810812491
 21
74.3755006125
  0
LINE
  5
21F
100
AcDbEntity
  8
0
100
AcDbLine
 62
7
  6
BYLAYER
 10
15.9332593262
 20
97.4145149254
 11
14.3438108277
 21
80.4657206224
  0
LINE
  5
220
100
AcDbEntity
  8
0
100
AcDbLine
 62
7
  6
BYLAYER
 10
14.5889399055
 20
80.408628373
 11
16.1503200214
 21
97.0581205946
  0
LWPOLYLINE
  5
221
100
AcDbEntity
  8
0
100
AcDbPolyline
 62
7
  6
BYLAYER
 90
3
 70
0
 10
14.3437885666
 20
80.4654914814
 10
14.3311751458
 20
80.4191345763
 10
14.2730777147
 20
80.3555784634
  0
LINE
  5
222
100
AcDbEntity
  8
0
100
AcDbLine
 62
7
  6
BYLAYER
 10
17.5650121657
 20
86.1144892774
 11
17.5707252066
 21
86.1178187395
  0
LINE
  5
223
100
AcDbEntity
  8
0
100
AcDbLine
 62
7
  6
BYLAYER
 10
45.6662844079
 20
31.1727665755
 11
57.2446275919
 21
25.861528915
  0
LINE
  5
224
100
AcDbEntity
  8
0
100
AcDbLine
 62
7
  6
BYLAYER
 10
34.533165422
 20
35.0300596288
 11
40.5349472416
 21
31.5650076695
  0
LINE
  5
225
100
AcDbEntity
  8
0
100
AcDbLine
 62
7
  6
BYLAYER
 10
34.8260702251
 20
35.1991672863
 11
40.3278349209
 21
32.0227938173
  0
LINE
  5
226
100
AcDbEntity
  8
0
100
AcDbLine
 62
7
  6
BYLAYER
 10
13.0179185667
 20
79.6309136839
 11
14.2731308498
 21
80.3556065076
  0
LWPOLYLINE
  5
227
100
AcDbEntity
  8
0
100
AcDbPolyline
 62
7
  6
BYLAYER
 90
3
 70
0
 10
37.8387169601
 20
36.4925097555
 10
40.2632018962
 20
35.7913206622
 10
45.0117516509
 20
36.3712076371
  0
LINE
  5
228
100
AcDbEntity
  8
0
100
AcDbLine
 62
7
  6
BYLAYER
 10
57.0445012575
 20
26.2277141557
 11
46.1363754042
 21
31.2315085588
  0
LWPOLYLINE
  5
229
100
AcDbEntity
  8
0
100
AcDbPolyline
 62
7
  6
BYLAYER
 90
4
 70
0
 10
22.6557805122
 20
80.2421537554
 10
22.6632236035
 20
80.2635219418
 10
22.2653168483
 20
79.9019677839
 10
21.4337237191
 20
79.3539109578
  0
LINE
  5
22A
100
AcDbEntity
  8
0
100
AcDbLine
 62
7
  6
BYLAYER
 10
21.5395151982
 20
81.0013531264
 11
21.5407198974
 21
81.0021086125
  0
LINE
  5
22B
100
AcDbEntity
  8
0
100
AcDbLine
 62
7
  6
BYLAYER
 10
21.8264304597
 20
81.1740696183
 11
21.5400704146
 21
81.0017015334
  0
LINE
  5
22C
100
AcDbEntity
  8
0
100
AcDbLine
 62
7
  6
BYLAYER
 10
16.9112594411
 20
77.3177808663
 11
16.2911255963
 21
76.9573498136
  0
LINE
  5
22D
100
AcDbEntity
  8
0
100
AcDbLine
 62
7
  6
BYLAYER
 10
19.2764511069
 20
81.5023382217
 11
19.2727092692
 21
81.5001645768
  0
LINE
  5
22E
100
AcDbEntity
  8
0
100
AcDbLine
 62
7
  6
BYLAYER
 10
22.5232760083
 20
81.58821574
 11
30.7905286547
 21
86.3671124748
  0
LINE
  5
22F
100
AcDbEntity
  8
0
100
AcDbLine
 62
7
  6
BYLAYER
 10
14.7556503807
 20
79.9959839464
 11
13.7414661149
 21
79.4104478828
  0
LINE
  5
230
100
AcDbEntity
  8
0
100
AcDbLine
 62
7
  6
BYLAYER
 10
22.5272994382
 20
81.5787645855
 11
21.8258656168
 21
81.1737939973
  0
LWPOLYLINE
  5
231
100
AcDbEntity
  8
0
100
AcDbPolyline
 62
7
  6
BYLAYER
 90
4
 70
0
 10
38.2557010527
 20
36.6374176062
 10
40.7413990269
 20
37.3002947084
 10
42.1574760659
 20
37.6510247907
 10
44.925824278
 20
38.5018604486
  0
LINE
  5
232
100
AcDbEntity
  8
0
100
AcDbLine
 62
7
  6
BYLAYER
 10
24.5712853536
 20
63.6177352961
 11
23.0641808809
 21
30.7178754729
  0
LINE
  5
233
100
AcDbEntity
  8
0
100
AcDbLine
 62
7
  6
BYLAYER
 10
21.433502816
 20
79.3537834764
 11
11.7886064764
 21
73.7853332176
  0
LINE
  5
234
100
AcDbEntity
  8
0
100
AcDbLine
 62
7
  6
BYLAYER
 10
12.1968131642
 20
73.8780969483
 11
21.8417095038
 21
79.4465472071
  0
LINE
  5
235
100
AcDbEntity
  8
0
100
AcDbLine
 62
7
  6
BYLAYER
 10
56.236813424
 20
98.3850381115
 11
57.0075566066
 21
98.8300242392
  0
LINE
  5
236
100
AcDbEntity
  8
0
100
AcDbLine
 62
7
  6
BYLAYER
 10
30.3659043425
 20
82.0566355699
 11
34.0260397193
 21
84.1698761338
  0
LINE
  5
237
100
AcDbEntity
  8
0
100
AcDbLine
 62
7
  6
BYLAYER
 10
27.3978383827
 20
63.534782346
 11
25.8907338995
 21
30.634922511
  0
LINE
  5
238
100
AcDbEntity
  8
0
100
AcDbLine
 62
7
  6
BYLAYER
 10
12.810812491
 20
78.3566428339
 11
15.3604720569
 21
75.9035446835
  0
LINE
  5
239
100
AcDbEntity
  8
0
100
AcDbLine
 62
7
  6
BYLAYER
 10
14.7556503807
 20
79.9959839464
 11
16.9112594411
 21
77.3177808663
  0
LINE
  5
23A
100
AcDbEntity
  8
0
100
AcDbLine
 62
7
  6
BYLAYER
 10
17.0623771055
 20
77.4519576614
 11
14.9059343165
 21
80.1323142159
  0
LINE
  5
23B
100
AcDbEntity
  8
0
100
AcDbLine
 62
7
  6
BYLAYER
 10
47.1740636482
 20
37.5593910144
 11
49.8615233714
 21
33.8477442093
  0
LINE
  5
23C
100
AcDbEntity
  8
0
100
AcDbLine
 62
7
  6
BYLAYER
 10
50.032894631
 20
33.9656238411
 11
47.3454349149
 21
37.6772706367
  0
LINE
  5
23D
100
AcDbEntity
  8
0
100
AcDbLine
 62
7
  6
BYLAYER
 10
45.0117516509
 20
36.3712076371
 11
47.1717725515
 21
32.3550464894
  0
LINE
  5
23E
100
AcDbEntity
  8
0
100
AcDbLine
 62
7
  6
BYLAYER
 10
46.2442576441
 20
37.022570472
 11
48.4042788612
 21
33.0064087357
  0
LINE
  5
23F
100
AcDbEntity
  8
0
100
AcDbLine
 62
7
  6
BYLAYER
 10
13.7414661149
 20
79.4104478828
 11
16.2911255963
 21
76.9573498136
  0
LINE
  5
240
100
AcDbEntity
  8
0
100
AcDbLine
 62
7
  6
BYLAYER
 10
35.5356302589
 20
36.2033727855
 11
37.0427347313
 21
69.1032326079
  0
LINE
  5
241
100
AcDbEntity
  8
0
100
AcDbLine
 62
7
  6
BYLAYER
 10
36.2221782037
 20
71.1441675571
 11
26.577281864
 21
65.5757172983
  0
LINE
  5
242
100
AcDbEntity
  8
0
100
AcDbLine
 62
7
  6
BYLAYER
 10
37.0427347313
 20
69.1032326079
 11
27.3978383827
 21
63.534782346
  0
LINE
  5
243
100
AcDbEntity
  8
0
100
AcDbLine
 62
7
  6
BYLAYER
 10
71.6846239524
 20
60.4159197919
 11
74.1947380637
 21
60.6236059038
  0
LWPOLYLINE
  5
244
100
AcDbEntity
  8
0
100
AcDbPolyline
 62
7
  6
BYLAYER
 90
6
 70
0
 10
18.2653280733
 20
85.942336122
 10
18.950318433
 20
85.1854133338
 10
19.5065365332
 20
83.9631967254
 10
19.6919829104
 20
82.696070512
 10
19.5191849184
 20
81.8071703969
 10
19.2761360734
 20
81.5021818905
  0
LINE
  5
245
100
AcDbEntity
  8
0
100
AcDbLine
 62
7
  6
BYLAYER
 10
42.7643844939
 20
39.5405384403
 11
43.9467456881
 21
65.3513022233
  0
LWPOLYLINE
  5
246
100
AcDbEntity
  8
0
100
AcDbPolyline
 62
7
  6
BYLAYER
 90
3
 70
0
 10
52.2793834571
 20
93.104199156
 10
53.3484434394
 20
95.7119845023
 10
56.2337868157
 20
98.383289747
  0
LINE
  5
247
100
AcDbEntity
  8
0
100
AcDbLine
 62
7
  6
BYLAYER
 10
70.9775540249
 20
82.3090495642
 11
57.6540720182
 21
74.6167767666
  0
LINE
  5
248
100
AcDbEntity
  8
0
100
AcDbLine
 62
7
  6
BYLAYER
 10
58.3611419457
 20
73.3921025261
 11
71.6846239524
 21
81.0843753237
  0
LINE
  5
249
100
AcDbEntity
  8
0
100
AcDbLine
 62
7
  6
BYLAYER
 10
18.2653280733
 20
85.942336122
 11
18.2649338748
 21
85.9426236126
  0
LINE
  5
24A
100
AcDbEntity
  8
0
100
AcDbLine
 62
7
  6
BYLAYER
 10
46.8319439721
 20
67.5520351857
 11
55.1057279865
 21
53.2322341195
  0
LINE
  5
24B
100
AcDbEntity
  8
0
100
AcDbLine
 62
7
  6
BYLAYER
 10
34.9272470812
 20
83.6495755915
 11
38.587382458
 21
77.3100703484
  0
LINE
  5
24C
100
AcDbEntity
  8
0
100
AcDbLine
 62
7
  6
BYLAYER
 10
51.1604464092
 20
55.5330056675
 11
54.820581786
 21
49.1935004244
  0
LINE
  5
24D
100
AcDbEntity
  8
0
100
AcDbLine
 62
7
  6
BYLAYER
 10
38.5674555678
 20
81.8772032034
 11
46.8319439721
 21
67.5520351857
  0
LINE
  5
24E
100
AcDbEntity
  8
0
100
AcDbLine
 62
7
  6
BYLAYER
 10
55.1057279865
 20
44.2521856255
 11
57.0445012575
 21
26.2277141557
  0
LINE
  5
24F
100
AcDbEntity
  8
0
100
AcDbLine
 62
7
  6
BYLAYER
 10
58.3611419457
 20
26.3579109385
 11
56.422350966
 21
44.3823700608
  0
LINE
  5
250
100
AcDbEntity
  8
0
100
AcDbLine
 62
7
  6
BYLAYER
 10
54.820581786
 20
48.1528726927
 11
54.820581786
 21
49.1935004244
  0
LINE
  5
251
100
AcDbEntity
  8
0
100
AcDbLine
 62
7
  6
BYLAYER
 10
16.1503200214
 20
97.0581205946
 11
30.7905286547
 21
86.3671124748
  0
LINE
  5
252
100
AcDbEntity
  8
0
100
AcDbLine
 62
7
  6
BYLAYER
 10
56.2272691302
 20
49.1892043542
 11
56.227263333
 21
48.14857334
  0
LINE
  5
253
100
AcDbEntity
  8
0
100
AcDbLine
 62
7
  6
BYLAYER
 10
57.0445012575
 20
73.4483881732
 11
55.1057279865
 21
53.2322341195
  0
LINE
  5
254
100
AcDbEntity
  8
0
100
AcDbLine
 62
7
  6
BYLAYER
 10
56.422355396
 20
53.1759427208
 11
58.3611419457
 21
73.3921025261
  0
LINE
  5
255
100
AcDbEntity
  8
0
100
AcDbLine
 62
7
  6
BYLAYER
 10
38.5674555678
 20
81.8772032034
 11
57.0445012575
 21
73.4483881732
  0
LINE
  5
256
100
AcDbEntity
  8
0
100
AcDbLine
 62
7
  6
BYLAYER
 10
34.9272470812
 20
83.6495755915
 11
34.0260397193
 21
84.1698761338
  0
LINE
  5
257
100
AcDbEntity
  8
0
100
AcDbLine
 62
7
  6
BYLAYER
 10
34.7256569691
 20
85.3902545856
 11
35.6268585859
 21
84.8699506503
  0
LINE
  5
258
100
AcDbEntity
  8
0
100
AcDbLine
 62
7
  6
BYLAYER
 10
31.5615827969
 20
87.4422553709
 11
16.9213888218
 21
98.1332703607
  0
LINE
  5
259
100
AcDbEntity
  8
0
100
AcDbLine
 62
7
  6
BYLAYER
 10
57.6540720182
 20
74.6167767666
 11
39.1770108439
 21
83.0455803062
  0
LINE
  5
25A
100
AcDbEntity
  8
0
100
AcDbLine
 62
7
  6
BYLAYER
 10
78.2392807483
 20
60.2813455379
 11
75.5292738632
 21
59.2657640146
  0
LINE
  5
25B
100
AcDbEntity
  8
0
100
AcDbLine
 62
7
  6
BYLAYER
 10
11.7886064764
 20
73.7853332176
 11
12.1968131642
 21
73.8780969483
  0
LINE
  5
25C
100
AcDbEntity
  8
0
100
AcDbLine
 62
7
  6
BYLAYER
 10
54.820581786
 20
48.1528726927
 11
51.1604464092
 21
46.0396321288
  0
LINE
  5
25D
100
AcDbEntity
  8
0
100
AcDbLine
 62
7
  6
BYLAYER
 10
25.8907338995
 20
30.634922511
 11
35.5356302589
 21
36.2033727855
  0
LINE
  5
25E
100
AcDbEntity
  8
0
100
AcDbLine
 62
7
  6
BYLAYER
 10
78.2367149327
 20
60.2798634812
 11
79.0074581152
 21
60.7248496089
  0
LINE
  5
25F
100
AcDbEntity
  8
0
100
AcDbLine
 62
7
  6
BYLAYER
 10
35.123609286
 20
35.3709506427
 11
25.4783840787
 21
29.8023103882
  0
LINE
  5
260
100
AcDbEntity
  8
0
100
AcDbLine
 62
7
  6
BYLAYER
 10
21.8417095038
 20
79.4465472071
 11
21.4337267737
 21
79.3539127197
  0
LINE
  5
261
100
AcDbEntity
  8
0
100
AcDbLine
 62
7
  6
BYLAYER
 10
71.6846239524
 20
81.0843753237
 11
71.6846239524
 21
33.7271432212
  0
LINE
  5
262
100
AcDbEntity
  8
0
100
AcDbLine
 62
7
  6
BYLAYER
 10
71.7775142273
 20
77.2467575546
 11
71.7775142273
 21
38.3812424993
  0
LINE
  5
263
100
AcDbEntity
  8
0
100
AcDbLine
 62
7
  6
BYLAYER
 10
75.9624976567
 20
56.4051903505
 11
76.8817326451
 21
56.9359077505
  0
LINE
  5
264
100
AcDbEntity
  8
0
100
AcDbLine
 62
7
  6
BYLAYER
 10
46.82719065
 20
39.4898671529
 11
46.1316163201
 21
39.0882795235
  0
LINE
  5
265
100
AcDbEntity
  8
0
100
AcDbLine
 62
7
  6
BYLAYER
 10
46.0563493544
 20
38.1242919016
 11
45.2660131917
 21
37.6679938291
  0
LINE
  5
266
100
AcDbEntity
  8
0
100
AcDbLine
 62
7
  6
BYLAYER
 10
47.1740636482
 20
37.5593910144
 11
46.2442576441
 21
37.022570472
  0
LINE
  5
267
100
AcDbEntity
  8
0
100
AcDbLine
 62
7
  6
BYLAYER
 10
74.1947380637
 20
52.8525218299
 11
75.9624976567
 21
53.8731322145
  0
LINE
  5
268
100
AcDbEntity
  8
0
100
AcDbLine
 62
7
  6
BYLAYER
 10
73.7805141365
 20
51.9369499466
 11
75.5482737296
 21
52.9575603313
  0
LINE
  5
269
100
AcDbEntity
  8
0
100
AcDbLine
 62
7
  6
BYLAYER
 10
55.1057279865
 20
44.2521856255
 11
46.8335738801
 21
39.4817784216
  0
LINE
  5
26A
100
AcDbEntity
  8
0
100
AcDbLine
 62
7
  6
BYLAYER
 10
46.8335738801
 20
39.4817784216
 11
46.833439036
 21
39.4817022765
  0
LWPOLYLINE
  5
26B
100
AcDbEntity
  8
0
100
AcDbPolyline
 62
7
  6
BYLAYER
 90
3
 70
0
 10
35.1235574258
 20
35.3709206651
 10
36.4630741701
 20
36.014450556
 10
38.2556746254
 20
36.6374096154
  0
LINE
  5
26C
100
AcDbEntity
  8
0
100
AcDbLine
 62
7
  6
BYLAYER
 10
44.9239145219
 20
38.5010917843
 11
44.9245684268
 21
38.5013545882
  0
LINE
  5
26D
100
AcDbEntity
  8
0
100
AcDbLine
 62
7
  6
BYLAYER
 10
38.2557019935
 20
36.6374179027
 11
38.2556746254
 21
36.6374096154
  0
LWPOLYLINE
  5
26E
100
AcDbEntity
  8
0
100
AcDbPolyline
 62
7
  6
BYLAYER
 90
3
 70
0
 10
17.5653313386
 20
86.1146472965
 10
17.8068567799
 20
86.1550984276
 10
18.26493085
 20
85.9426258226
  0
LINE
  5
26F
100
AcDbEntity
  8
0
100
AcDbLine
 62
7
  6
BYLAYER
 10
74.1947380637
 20
52.8525218299
 11
74.1947380637
 21
60.6236059038
  0
LINE
  5
270
100
AcDbEntity
  8
0
100
AcDbLine
 62
7
  6
BYLAYER
 10
75.9624976567
 20
56.4051903505
 11
75.9624976567
 21
53.8731322145
  0
LINE
  5
271
100
AcDbEntity
  8
0
100
AcDbLine
 62
7
  6
BYLAYER
 10
49.8615233714
 20
33.8477442093
 11
48.4042788612
 21
33.0064087357
  0
LINE
  5
272
100
AcDbEntity
  8
0
100
AcDbLine
 62
7
  6
BYLAYER
 10
70.9775540249
 20
82.3090495642
 11
29.9651103711
 21
105.9870592797
  0
LINE
  5
273
100
AcDbEntity
  8
0
100
AcDbLine
 62
7
  6
BYLAYER
 10
34.0421139527
 20
103.7405062037
 11
67.7005368697
 21
84.3082462886
  0
LINE
  5
274
100
AcDbEntity
  8
0
100
AcDbLine
 62
7
  6
BYLAYER
 10
76.8817326451
 20
56.9359077505
 11
76.8817326451
 21
59.7726011586
  0
LINE
  5
275
100
AcDbEntity
  8
0
100
AcDbLine
 62
7
  6
BYLAYER
 10
48.3788742775
 20
31.8972637105
 11
49.9622498516
 21
32.8114205676
  0
LINE
  5
276
100
AcDbEntity
  8
0
100
AcDbLine
 62
7
  6
BYLAYER
 10
49.96632125
 20
32.6931930011
 11
49.9980204444
 21
32.7055337662
  0
LINE
  5
277
100
AcDbEntity
  8
0
100
AcDbLine
 62
7
  6
BYLAYER
 10
49.9613536194
 20
32.7006069142
 11
49.9942937748
 21
32.7111322538
  0
LINE
  5
278
100
AcDbEntity
  8
0
100
AcDbLine
 62
7
  6
BYLAYER
 10
63.2003110778
 20
99.6366889812
 11
58.8886023177
 21
99.5892004303
  0
LWPOLYLINE
  5
279
100
AcDbEntity
  8
0
100
AcDbPolyline
 62
7
  6
BYLAYER
 90
10
 70
0
 10
80.8586317628
 20
70.0527136948
 10
80.131938814
 20
75.7702257131
 10
78.0229937364
 20
81.7671615752
 10
74.7382347683
 20
87.4564994159
 10
70.5991970035
 20
92.2813272073
 10
66.011038297
 20
95.7693571887
 10
61.4228795905
 20
97.579156683
 10
57.2838418258
 20
97.533569906
 10
53.9990828576
 20
95.6370592091
 10
52.4906536941
 20
93.0894777764
  0
LINE
  5
27A
100
AcDbEntity
  8
0
100
AcDbLine
 62
7
  6
BYLAYER
 10
71.6846239524
 20
33.7271432212
 11
58.3611419457
 21
26.3579109385
  0
LINE
  5
27B
100
AcDbEntity
  8
0
100
AcDbLine
 62
7
  6
BYLAYER
 10
63.2993084807
 20
99.5976394493
 11
63.2003110778
 21
99.6366889812
  0
LINE
  5
27C
100
AcDbEntity
  8
0
100
AcDbLine
 62
7
  6
BYLAYER
 10
58.1455748311
 20
25.8953924246
 11
71.472196033
 21
33.2663609996
  0
ARC
  5
27D
100
AcDbEntity
  8
0
100
AcDbCircle
 62
7
  6
BYLAYER
 10
97.2142973509
 20
109.0871218702
 40
62.0759888903
100
AcDbArc
 50
245.8112302372
 51
247.0070775477
  0
ARC
  5
27E
100
AcDbEntity
  8
0
100
AcDbCircle
 62
7
  6
BYLAYER
 10
128.78112979
 20
88.289168278
 40
61.1968749462
100
AcDbArc
 50
206.8768763273
 51
207.851335285
  0
ARC
  5
27F
100
AcDbEntity
  8
0
100
AcDbCircle
 62
7
  6
BYLAYER
 10
-4.2459132041
 20
46.6751481982
 40
38.4378185689
100
AcDbArc
 50
60.8347838164
 51
61.064585312
  0
ARC
  5
280
100
AcDbEntity
  8
0
100
AcDbCircle
 62
7
  6
BYLAYER
 10
62.8428800613
 20
70.7961053829
 40
20.7210412529
100
AcDbArc
 50
0.0000966174
 51
0.1871684435
  0
ARC
  5
281
100
AcDbEntity
  8
0
100
AcDbCircle
 62
7
  6
BYLAYER
 10
57.8807192589
 20
80.2008060071
 40
20.2532110555
100
AcDbArc
 50
59.7824540845
 51
62.111415298
  0
ARC
  5
282
100
AcDbEntity
  8
0
100
AcDbCircle
 62
7
  6
BYLAYER
 10
30.1674250323
 20
71.5308069659
 40
15.4391285882
100
AcDbArc
 50
163.5472592011
 51
163.7523979393
  0
ARC
  5
283
100
AcDbEntity
  8
0
100
AcDbCircle
 62
7
  6
BYLAYER
 10
42.4673201543
 20
49.1904074203
 40
11.776724571
100
AcDbArc
 50
265.3276646407
 51
267.3592839565
  0
ARC
  5
284
100
AcDbEntity
  8
0
100
AcDbCircle
 62
7
  6
BYLAYER
 10
45.7119710657
 20
43.6732023012
 40
11.7754023167
100
AcDbArc
 50
289.0173981848
 51
291.1795191874
  0
ARC
  5
285
100
AcDbEntity
  8
0
100
AcDbCircle
 62
7
  6
BYLAYER
 10
45.7999461982
 20
43.4423299613
 40
11.5283398593
100
AcDbArc
 50
291.3554378995
 51
291.7870144246
  0
ARC
  5
286
100
AcDbEntity
  8
0
100
AcDbCircle
 62
7
  6
BYLAYER
 10
41.3879599434
 20
47.3092546519
 40
9.491401787
100
AcDbArc
 50
291.8725317477
 51
299.9857497937
  0
ARC
  5
287
100
AcDbEntity
  8
0
100
AcDbCircle
 62
7
  6
BYLAYER
 10
42.0383414661
 20
46.1691407827
 40
8.1789552166
100
AcDbArc
 50
305.6498148418
 51
306.5463705687
  0
ARC
  5
288
100
AcDbEntity
  8
0
100
AcDbCircle
 62
7
  6
BYLAYER
 10
42.0632832344
 20
46.1338797392
 40
8.1357654943
100
AcDbArc
 50
300.0033782368
 51
305.6518123866
  0
ARC
  5
289
100
AcDbEntity
  8
0
100
AcDbCircle
 62
7
  6
BYLAYER
 10
74.548850163
 20
66.6647621602
 40
7.3734198158
100
AcDbArc
 50
300.033400513
 51
306.721775617
  0
ARC
  5
28A
100
AcDbEntity
  8
0
100
AcDbCircle
 62
7
  6
BYLAYER
 10
59.9133911245
 20
92.0160618792
 40
7.3539840793
100
AcDbArc
 50
113.1518122057
 51
119.9962725054
  0
ARC
  5
28B
100
AcDbEntity
  8
0
100
AcDbCircle
 62
7
  6
BYLAYER
 10
42.248973139
 20
44.670680197
 40
7.2517437842
100
AcDbArc
 50
263.4061728269
 51
267.4373322903
  0
ARC
  5
28C
100
AcDbEntity
  8
0
100
AcDbCircle
 62
7
  6
BYLAYER
 10
18.6295797078
 20
85.4977415506
 40
6.8375680504
100
AcDbArc
 50
306.0128910013
 51
307.6744765237
  0
ARC
  5
28D
100
AcDbEntity
  8
0
100
AcDbCircle
 62
7
  6
BYLAYER
 10
66.3770150953
 20
38.3789225654
 40
5.4004996302
100
AcDbArc
 50
355.0375437397
 51
0.0246129864
  0
ARC
  5
28E
100
AcDbEntity
  8
0
100
AcDbCircle
 62
7
  6
BYLAYER
 10
58.6427856175
 20
86.6193720239
 40
5.3157766181
100
AcDbArc
 50
120.923865855
 51
121.961710419
  0
ARC
  5
28F
100
AcDbEntity
  8
0
100
AcDbCircle
 62
7
  6
BYLAYER
 10
31.3900444869
 20
99.1608447675
 40
5.2921424132
100
AcDbArc
 50
59.9249846742
 51
65.010824886
  0
ARC
  5
290
100
AcDbEntity
  8
0
100
AcDbCircle
 62
7
  6
BYLAYER
 10
24.0297677636
 20
77.8050693002
 40
4.0087862725
100
AcDbArc
 50
111.3159875181
 51
111.6149274064
  0
ARC
  5
291
100
AcDbEntity
  8
0
100
AcDbCircle
 62
7
  6
BYLAYER
 10
12.7886019996
 20
72.0532798253
 40
2.0
100
AcDbArc
 50
119.9998519054
 51
182.4912271778
  0
ARC
  5
292
100
AcDbEntity
  8
0
100
AcDbCircle
 62
7
  6
BYLAYER
 10
14.2957064726
 20
37.4132050251
 40
2.0
100
AcDbArc
 50
182.4912273799
 51
225.8304548972
  0
ARC
  5
293
100
AcDbEntity
  8
0
100
AcDbCircle
 62
7
  6
BYLAYER
 10
24.4783885556
 20
31.5343637805
 40
2.0
100
AcDbArc
 50
259.6038656387
 51
299.9998518889
  0
ARC
  5
294
100
AcDbEntity
  8
0
100
AcDbCircle
 62
7
  6
BYLAYER
 10
46.1075101869
 20
36.9292857616
 40
1.2296901985
100
AcDbArc
 50
195.4439726768
 51
206.9900701898
  0
ARC
  5
295
100
AcDbEntity
  8
0
100
AcDbCircle
 62
7
  6
BYLAYER
 10
16.1029573351
 20
76.7164998237
 40
1.1009906637
100
AcDbArc
 50
227.5940286914
 51
230.3079670867
  0
ARC
  5
296
100
AcDbEntity
  8
0
100
AcDbCircle
 62
7
  6
BYLAYER
 10
47.878876516
 20
32.7632904066
 40
1.0
100
AcDbArc
 50
291.6350899252
 51
299.9998519061
  0
ARC
  5
297
100
AcDbEntity
  8
0
100
AcDbCircle
 62
7
  6
BYLAYER
 10
16.9288908275
 20
97.3211451573
 40
1.0
100
AcDbArc
 50
121.0526752682
 51
174.6425026687
  0
ARC
  5
298
100
AcDbEntity
  8
0
100
AcDbCircle
 62
7
  6
BYLAYER
 10
57.6615740239
 20
26.7704599755
 40
1.0
100
AcDbArc
 50
245.2770021316
 51
298.947028737
  0
ARC
  5
299
100
AcDbEntity
  8
0
100
AcDbCircle
 62
7
  6
BYLAYER
 10
13.5179163283
 20
78.7648869878
 40
1.0
100
AcDbArc
 50
119.9998519061
 51
180.0568634974
  0
SPLINE
  5
29A
100
AcDbEntity
  8
0
100
AcDbSpline
 62
7
  6
BYLAYER
 70
0
 71
3
 72
9
 73
5
 74
0
 42
0.0000001
 43
0.0000001
 44
0.0000000001
 40
0.0
 40
0.0
 40
0.0
 40
0.0
 40
0.4880726759
 40
1.0
 40
1.0
 40
1.0
 40
1.0
 10
42.0049984535
 20
31.0610061731
 30
0.0
 10
41.7521328988
 20
31.0872435212
 30
0.0
 10
41.2398867664
 20
31.2080698248
 30
0.0
 10
40.7658727574
 20
31.4316857769
 30
0.0
 10
40.5349472416
 20
31.5650076695
 30
0.0
  0
SPLINE
  5
29B
100
AcDbEntity
  8
0
100
AcDbSpline
 62
7
  6
BYLAYER
 70
0
 71
3
 72
11
 73
7
 74
0
 42
0.0000001
 43
0.0000001
 44
0.0000000001
 40
0.0
 40
0.0
 40
0.0
 40
0.0
 40
0.2604809723
 40
0.5128152239
 40
0.7586537742
 40
1.0
 40
1.0
 40
1.0
 40
1.0
 10
42.0049984535
 20
31.0610061731
 30
0.0
 10
42.5532279301
 20
31.0041218432
 30
0.0
 10
43.6393315394
 20
30.947308927
 30
0.0
 10
45.2452547918
 20
31.045093
 30
0.0
 10
46.7880123117
 20
31.3292546412
 30
0.0
 10
47.7728640013
 20
31.6454534441
 30
0.0
 10
48.2475706826
 20
31.8337396487
 30
0.0
  0
SPLINE
  5
29C
100
AcDbEntity
  8
0
100
AcDbSpline
 62
7
  6
BYLAYER
 70
0
 71
3
 72
11
 73
7
 74
0
 42
0.0000001
 43
0.0000001
 44
0.0000000001
 40
0.0
 40
0.0
 40
0.0
 40
0.0
 40
0.2177743891
 40
0.4508984781
 40
0.7103703825
 40
1.0
 40
1.0
 40
1.0
 40
1.0
 10
75.5482442595
 20
52.9576111114
 30
0.0
 10
75.6141953118
 20
52.9957312669
 30
0.0
 10
75.7377066303
 20
53.0993809198
 30
0.0
 10
75.869102015
 20
53.3143109706
 30
0.0
 10
75.9470898839
 20
53.5791039155
 30
0.0
 10
75.9624976567
 20
53.7718225773
 30
0.0
 10
75.9624976567
 20
53.8731322145
 30
0.0
  0
SPLINE
  5
29D
100
AcDbEntity
  8
0
100
AcDbSpline
 62
7
  6
BYLAYER
 70
0
 71
3
 72
11
 73
7
 74
0
 42
0.0000001
 43
0.0000001
 44
0.0000000001
 40
0.0
 40
0.0
 40
0.0
 40
0.0
 40
0.2251434414
 40
0.4616516618
 40
0.7185487984
 40
1.0
 40
1.0
 40
1.0
 40
1.0
 10
73.7804846554
 20
51.9370007455
 30
0.0
 10
73.7257435564
 20
51.9053600311
 30
0.0
 10
73.6034264731
 20
51.8566018444
 30
0.0
 10
73.4006619098
 20
51.8351025056
 30
0.0
 10
73.1832784497
 20
51.8636185733
 30
0.0
 10
73.0390968211
 20
51.9120047486
 30
0.0
 10
72.9663348038
 20
51.9428771116
 30
0.0
  0
SPLINE
  5
29E
100
AcDbEntity
  8
0
100
AcDbSpline
 62
7
  6
BYLAYER
 70
0
 71
3
 72
35
 73
31
 74
0
 42
0.0000001
 43
0.0000001
 44
0.0000000001
 40
0.0
 40
0.0
 40
0.0
 40
0.0
 40
0.0229741055
 40
0.0463370796
 40
0.0704425898
 40
0.0955945177
 40
0.1220266036
 40
0.14989793
 40
0.1792936443
 40
0.210233626
 40
0.2426781962
 40
0.2765379687
 40
0.3116828312
 40
0.3479468624
 40
0.423009359
 40
0.5000006832
 40
0.5769919611
 40
0.652054327
 40
0.6883182686
 40
0.7234630258
 40
0.7573226656
 40
0.7897671156
 40
0.8207069493
 40
0.8501025362
 40
0.8779737305
 40
0.9044057057
 40
0.9295575346
 40
0.9536629722
 40
0.9770259237
 40
1.0
 40
1.0
 40
1.0
 40
1.0
 10
57.0075566066
 20
98.8300242392
 30
0.0
 10
57.3766195119
 20
99.0431015351
 30
0.0
 10
58.1593485345
 20
99.4098320504
 30
0.0
 10
59.4236899038
 20
99.7609763309
 30
0.0
 10
60.7675026643
 20
99.9127547949
 30
0.0
 10
62.175184433
 20
99.8661108057
 30
0.0
 10
63.6328931672
 20
99.6241771238
 30
0.0
 10
65.127160461
 20
99.1911297352
 30
0.0
 10
66.6448687278
 20
98.572705131
 30
0.0
 10
68.172648933
 20
97.7754244085
 30
0.0
 10
69.6969836777
 20
96.8072868329
 30
0.0
 10
71.2042144798
 20
95.677701601
 30
0.0
 10
72.6805387947
 20
94.3972385225
 30
0.0
 10
74.6114539659
 20
92.4835068897
 30
0.0
 10
76.8545602833
 20
89.7935647654
 30
0.0
 10
79.1870849563
 20
86.2318874934
 30
0.0
 10
81.1052969432
 20
82.4310114337
 30
0.0
 10
82.3132760996
 20
79.1434491614
 30
0.0
 10
83.005139703
 20
76.5143630165
 30
0.0
 10
83.3758762522
 20
74.5956003717
 30
0.0
 10
83.6004946462
 20
72.7255124824
 30
0.0
 10
83.6767480031
 20
70.9213380181
 30
0.0
 10
83.6033088439
 20
69.1996091712
 30
0.0
 10
83.3800177201
 20
67.5760318064
 30
0.0
 10
83.0079046584
 20
66.0654440262
 30
0.0
 10
82.4885641799
 20
64.6820738394
 30
0.0
 10
81.8251136134
 20
63.4396720667
 30
0.0
 10
81.0217587527
 20
62.3517931088
 30
0.0
 10
80.0854847661
 20
61.4324203639
 30
0.0
 10
79.3765205515
 20
60.9379266339
 30
0.0
 10
79.0074581152
 20
60.7248496089
 30
0.0
  0
SPLINE
  5
29F
100
AcDbEntity
  8
0
100
AcDbSpline
 62
7
  6
BYLAYER
 70
0
 71
3
 72
9
 73
5
 74
0
 42
0.0000001
 43
0.0000001
 44
0.0000000001
 40
0.0
 40
0.0
 40
0.0
 40
0.0
 40
0.2434485522
 40
1.0
 40
1.0
 40
1.0
 40
1.0
 10
67.7005368697
 20
84.3082462886
 30
0.0
 10
67.7714651284
 20
84.2672967657
 30
0.0
 10
68.0591466389
 20
84.0927749021
 30
0.0
 10
68.3322174112
 20
83.8945207241
 30
0.0
 10
68.5300264996
 20
83.7343624519
 30
0.0
  0
SPLINE
  5
2A0
100
AcDbEntity
  8
0
100
AcDbSpline
 62
7
  6
BYLAYER
 70
0
 71
3
 72
9
 73
5
 74
0
 42
0.0000001
 43
0.0000001
 44
0.0000000001
 40
0.0
 40
0.0
 40
0.0
 40
0.0
 40
0.2564935821
 40
1.0
 40
1.0
 40
1.0
 40
1.0
 10
71.694595018
 20
78.2562109939
 30
0.0
 10
71.7081937347
 20
78.1706389606
 30
0.0
 10
71.7551756972
 20
77.836111133
 30
0.0
 10
71.7775142273
 20
77.4979206525
 30
0.0
 10
71.7775142273
 20
77.2467575546
 30
0.0
  0
SPLINE
  5
2A1
100
AcDbEntity
  8
0
100
AcDbSpline
 62
7
  6
BYLAYER
 70
0
 71
3
 72
11
 73
7
 74
0
 42
0.0000001
 43
0.0000001
 44
0.0000000001
 40
0.0
 40
0.0
 40
0.0
 40
0.0
 40
0.2464317157
 40
0.4940741745
 40
0.7448135597
 40
1.0
 40
1.0
 40
1.0
 40
1.0
 10
21.5407198974
 20
81.0021086125
 30
0.0
 10
21.2001703178
 20
80.7887975696
 30
0.0
 10
20.5440746982
 20
80.3168367115
 30
0.0
 10
19.6526774705
 20
79.4875377051
 30
0.0
 10
18.8594570041
 20
78.5453969302
 30
0.0
 10
18.4027701049
 20
77.8559685135
 30
0.0
 10
18.1918463247
 20
77.4972712485
 30
0.0
  0
SPLINE
  5
2A2
100
AcDbEntity
  8
0
100
AcDbSpline
 62
7
  6
BYLAYER
 70
0
 71
3
 72
11
 73
7
 74
0
 42
0.0000001
 43
0.0000001
 44
0.0000000001
 40
0.0
 40
0.0
 40
0.0
 40
0.0
 40
0.2740533465
 40
0.4055930463
 40
0.5330560617
 40
1.0
 40
1.0
 40
1.0
 40
1.0
 10
12.9022548817
 20
35.9785299177
 30
0.0
 10
13.7586529395
 20
35.1467393401
 30
0.0
 10
15.0935349859
 20
33.9816458763
 30
0.0
 10
16.9796617171
 20
32.6232511737
 30
0.0
 10
19.6593444803
 20
30.9493806337
 30
0.0
 10
22.1168194606
 20
29.9341343992
 30
0.0
 10
24.117590501
 20
29.5671767625
 30
0.0
  0
SPLINE
  5
2A3
100
AcDbEntity
  8
0
100
AcDbSpline
 62
7
  6
BYLAYER
 70
0
 71
3
 72
9
 73
5
 74
0
 42
0.0000001
 43
0.0000001
 44
0.0000000001
 40
0.0
 40
0.0
 40
0.0
 40
0.0
 40
0.2556478402
 40
1.0
 40
1.0
 40
1.0
 40
1.0
 10
34.7256569691
 20
85.3902545856
 30
0.0
 10
34.4472403238
 20
85.5509281793
 30
0.0
 10
33.3661229309
 20
86.1930305843
 30
0.0
 10
32.3175862612
 20
86.8904726657
 30
0.0
 10
31.5615827969
 20
87.4422553709
 30
0.0
  0
SPLINE
  5
2A4
100
AcDbEntity
  8
0
100
AcDbSpline
 62
7
  6
BYLAYER
 70
0
 71
3
 72
11
 73
7
 74
0
 42
0.0000001
 43
0.0000001
 44
0.0000000001
 40
0.0
 40
0.0
 40
0.0
 40
0.0
 40
0.2369408154
 40
0.499998893
 40
0.7630575717
 40
1.0
 40
1.0
 40
1.0
 40
1.0
 10
57.6540720182
 20
74.6167767666
 30
0.0
 10
57.7536403366
 20
74.5580464205
 30
0.0
 10
57.9420589368
 20
74.3970888109
 30
0.0
 10
58.1626842399
 20
74.0939756666
 30
0.0
 10
58.3148771454
 20
73.751351943
 30
0.0
 10
58.3600629939
 20
73.5076971687
 30
0.0
 10
58.3611419457
 20
73.3921025261
 30
0.0
  0
SPLINE
  5
2A5
100
AcDbEntity
  8
0
100
AcDbSpline
 62
7
  6
BYLAYER
 70
0
 71
3
 72
11
 73
7
 74
0
 42
0.0000001
 43
0.0000001
 44
0.0000000001
 40
0.0
 40
0.0
 40
0.0
 40
0.0
 40
0.2277844238
 40
0.4862443443
 40
0.7520259787
 40
1.0
 40
1.0
 40
1.0
 40
1.0
 10
58.3611419457
 20
73.3921025261
 30
0.0
 10
58.2671096628
 20
73.3514023516
 30
0.0
 10
58.0524218147
 20
73.2968274428
 30
0.0
 10
57.7128243208
 20
73.2817291289
 30
0.0
 10
57.3668163328
 20
73.3278782841
 30
0.0
 10
57.1452917049
 20
73.4006030977
 30
0.0
 10
57.0445012575
 20
73.4483881732
 30
0.0
  0
SPLINE
  5
2A6
100
AcDbEntity
  8
0
100
AcDbSpline
 62
7
  6
BYLAYER
 70
0
 71
3
 72
11
 73
7
 74
0
 42
0.0000001
 43
0.0000001
 44
0.0000000001
 40
0.0
 40
0.0
 40
0.0
 40
0.0
 40
0.2479748454
 40
0.5137565723
 40
0.772216081
 40
1.0
 40
1.0
 40
1.0
 40
1.0
 10
57.0445012575
 20
73.4483881732
 30
0.0
 10
57.0535123754
 20
73.559568285
 30
0.0
 10
57.1012912467
 20
73.7877775809
 30
0.0
 10
57.2343271685
 20
74.110505013
 30
0.0
 10
57.4172007338
 20
74.3970561279
 30
0.0
 10
57.5718082426
 20
74.5556931756
 30
0.0
 10
57.6540720182
 20
74.6167767666
 30
0.0
  0
SPLINE
  5
2A7
100
AcDbEntity
  8
0
100
AcDbSpline
 62
7
  6
BYLAYER
 70
0
 71
3
 72
9
 73
5
 74
0
 42
0.0000001
 43
0.0000001
 44
0.0000000001
 40
0.0
 40
0.0
 40
0.0
 40
0.0
 40
0.2444118479
 40
1.0
 40
1.0
 40
1.0
 40
1.0
 10
56.422350966
 20
44.3823700608
 30
0.0
 10
56.3895712655
 20
44.6879468008
 30
0.0
 10
56.2733505844
 20
45.9400848364
 30
0.0
 10
56.2271265516
 20
47.1984769643
 30
0.0
 10
56.227263333
 20
48.14857334
 30
0.0
  0
SPLINE
  5
2A8
100
AcDbEntity
  8
0
100
AcDbSpline
 62
7
  6
BYLAYER
 70
0
 71
3
 72
9
 73
5
 74
0
 42
0.0000001
 43
0.0000001
 44
0.0000000001
 40
0.0
 40
0.0
 40
0.0
 40
0.0
 40
0.2449723976
 40
1.0
 40
1.0
 40
1.0
 40
1.0
 10
56.2272691302
 20
49.1892043542
 30
0.0
 10
56.2272105401
 20
49.5152114442
 30
0.0
 10
56.243895305
 20
50.8459737007
 30
0.0
 10
56.3266330872
 20
52.1757286397
 30
0.0
 10
56.422355396
 20
53.1759427208
 30
0.0
  0
SPLINE
  5
2A9
100
AcDbEntity
  8
0
100
AcDbSpline
 62
7
  6
BYLAYER
 70
0
 71
3
 72
9
 73
5
 74
0
 42
0.0000001
 43
0.0000001
 44
0.0000000001
 40
0.0
 40
0.0
 40
0.0
 40
0.0
 40
0.2599513855
 40
1.0
 40
1.0
 40
1.0
 40
1.0
 10
71.7183787426
 20
38.2069573353
 30
0.0
 10
71.7236060648
 20
38.2143655194
 30
0.0
 10
71.7427112196
 20
38.2435454513
 30
0.0
 10
71.7575352676
 20
38.2756310789
 30
0.0
 10
71.7651358433
 20
38.3002985847
 30
0.0
  0
SPLINE
  5
2AA
100
AcDbEntity
  8
0
100
AcDbSpline
 62
7
  6
BYLAYER
 70
0
 71
3
 72
9
 73
5
 74
0
 42
0.0000001
 43
0.0000001
 44
0.0000000001
 40
0.0
 40
0.0
 40
0.0
 40
0.0
 40
0.2535914784
 40
1.0
 40
1.0
 40
1.0
 40
1.0
 10
71.7651358433
 20
38.3002985847
 30
0.0
 10
71.7671781708
 20
38.3069269148
 30
0.0
 10
71.7742958347
 20
38.3333429325
 30
0.0
 10
71.7774770617
 20
38.3608278967
 30
0.0
 10
71.7774770608
 20
38.3812424993
 30
0.0
  0
SPLINE
  5
2AB
100
AcDbEntity
  8
0
100
AcDbSpline
 62
7
  6
BYLAYER
 70
0
 71
3
 72
9
 73
5
 74
0
 42
0.0000001
 43
0.0000001
 44
0.0000000001
 40
0.0
 40
0.0
 40
0.0
 40
0.0
 40
0.5289054185
 40
1.0
 40
1.0
 40
1.0
 40
1.0
 10
14.9059343165
 20
80.1323142159
 30
0.0
 10
14.859244487
 20
80.1903663518
 30
0.0
 10
14.7625605342
 20
80.2937512765
 30
0.0
 10
14.6473858201
 20
80.3772100167
 30
0.0
 10
14.5889399055
 20
80.408628373
 30
0.0
  0
SPLINE
  5
2AC
100
AcDbEntity
  8
0
100
AcDbSpline
 62
7
  6
BYLAYER
 70
0
 71
3
 72
11
 73
7
 74
0
 42
0.0000001
 43
0.0000001
 44
0.0000000001
 40
0.0
 40
0.0
 40
0.0
 40
0.0
 40
0.2392106706
 40
0.4841425644
 40
0.7371051569
 40
1.0
 40
1.0
 40
1.0
 40
1.0
 10
47.1717725515
 20
32.3550464894
 30
0.0
 10
46.7368956328
 20
32.1825582398
 30
0.0
 10
45.8322179189
 20
31.8923816522
 30
0.0
 10
44.4108339595
 20
31.6311442789
 30
0.0
 10
42.922298562
 20
31.5412625639
 30
0.0
 10
41.9125108524
 20
31.5943580593
 30
0.0
 10
41.4011006098
 20
31.6474220229
 30
0.0
  0
SPLINE
  5
2AD
100
AcDbEntity
  8
0
100
AcDbSpline
 62
7
  6
BYLAYER
 70
0
 71
3
 72
9
 73
5
 74
0
 42
0.0000001
 43
0.0000001
 44
0.0000000001
 40
0.0
 40
0.0
 40
0.0
 40
0.0
 40
0.5166236356
 40
1.0
 40
1.0
 40
1.0
 40
1.0
 10
67.5200407179
 20
84.3441766816
 30
0.0
 10
67.5519862733
 20
84.3470873117
 30
0.0
 10
67.6150144483
 20
84.3450987648
 30
0.0
 10
67.6745256805
 20
84.3232206047
 30
0.0
 10
67.7005182868
 20
84.3082141013
 30
0.0
  0
SPLINE
  5
2AE
100
AcDbEntity
  8
0
100
AcDbSpline
 62
7
  6
BYLAYER
 70
0
 71
3
 72
9
 73
5
 74
0
 42
0.0000001
 43
0.0000001
 44
0.0000000001
 40
0.0
 40
0.0
 40
0.0
 40
0.0
 40
0.2302503105
 40
1.0
 40
1.0
 40
1.0
 40
1.0
 10
41.4011006098
 20
31.6474220229
 30
0.0
 10
41.3139259687
 20
31.6564672699
 30
0.0
 10
40.9379084793
 20
31.7210832068
 30
0.0
 10
40.5815801581
 20
31.8762972505
 30
0.0
 10
40.3278349209
 20
32.0227938173
 30
0.0
  0
SPLINE
  5
2AF
100
AcDbEntity
  8
0
100
AcDbSpline
 62
7
  6
BYLAYER
 70
0
 71
3
 72
10
 73
6
 74
0
 42
0.0000001
 43
0.0000001
 44
0.0000000001
 40
0.0
 40
0.0
 40
0.0
 40
0.0
 40
0.2156423769
 40
0.4494578133
 40
1.0
 40
1.0
 40
1.0
 40
1.0
 10
47.3454295008
 20
37.6772658737
 30
0.0
 10
47.3318571663
 20
37.670926647
 30
0.0
 10
47.304668333
 20
37.6554182143
 30
0.0
 10
47.2464791651
 20
37.6175213174
 30
0.0
 10
47.2028208738
 20
37.5846063256
 30
0.0
 10
47.1740660483
 20
37.5593921259
 30
0.0
  0
SPLINE
  5
2B0
100
AcDbEntity
  8
0
100
AcDbSpline
 62
7
  6
BYLAYER
 70
0
 71
3
 72
12
 73
8
 74
0
 42
0.0000001
 43
0.0000001
 44
0.0000000001
 40
0.0
 40
0.0
 40
0.0
 40
0.0
 40
0.1915830705
 40
0.3057488836
 40
0.4315081291
 40
0.7085961002
 40
1.0
 40
1.0
 40
1.0
 40
1.0
 10
46.0563468934
 20
38.124295729
 30
0.0
 10
46.1349463415
 20
38.1549038821
 30
0.0
 10
46.2771236755
 20
38.1596899322
 30
0.0
 10
46.4610290422
 20
38.1127798833
 30
0.0
 10
46.6711402384
 20
38.022421981
 30
0.0
 10
46.9242011766
 20
37.8458579134
 30
0.0
 10
47.0967794437
 20
37.6617980115
 30
0.0
 10
47.1740657051
 20
37.5593918077
 30
0.0
  0
SPLINE
  5
2B1
100
AcDbEntity
  8
0
100
AcDbSpline
 62
7
  6
BYLAYER
 70
0
 71
3
 72
13
 73
9
 74
0
 42
0.0000001
 43
0.0000001
 44
0.0000000001
 40
0.0
 40
0.0
 40
0.0
 40
0.0
 40
0.0906852283
 40
0.1897784384
 40
0.3001571137
 40
0.4227899315
 40
0.6991928669
 40
1.0
 40
1.0
 40
1.0
 40
1.0
 10
45.2660131891
 20
37.6679938281
 30
0.0
 10
45.3014937775
 20
37.6816715242
 30
0.0
 10
45.3810333216
 20
37.6975722306
 30
0.0
 10
45.5076807918
 20
37.6858883656
 30
0.0
 10
45.6406316696
 20
37.6411218741
 30
0.0
 10
45.8277475494
 20
37.5361536183
 30
0.0
 10
46.0466252403
 20
37.335070278
 30
0.0
 10
46.1845122506
 20
37.1336560304
 30
0.0
 10
46.2442576441
 20
37.022570472
 30
0.0
  0
SPLINE
  5
2B2
100
AcDbEntity
  8
0
100
AcDbSpline
 62
7
  6
BYLAYER
 70
0
 71
3
 72
11
 73
7
 74
0
 42
0.0000001
 43
0.0000001
 44
0.0000000001
 40
0.0
 40
0.0
 40
0.0
 40
0.0
 40
0.2556118239
 40
0.5353041806
 40
0.7966546993
 40
1.0
 40
1.0
 40
1.0
 40
1.0
 10
46.2442576441
 20
37.022570472
 30
0.0
 10
46.1413704499
 20
36.9631688774
 30
0.0
 10
45.9243032686
 20
36.841543801
 30
0.0
 10
45.5983990598
 20
36.6657607675
 30
0.0
 10
45.2912167155
 20
36.5065680492
 30
0.0
 10
45.0975249264
 20
36.4108977652
 30
0.0
 10
45.0117514616
 20
36.3712079891
 30
0.0
  0
SPLINE
  5
2B3
100
AcDbEntity
  8
0
100
AcDbSpline
 62
7
  6
BYLAYER
 70
0
 71
3
 72
11
 73
7
 74
0
 42
0.0000001
 43
0.0000001
 44
0.0000000001
 40
0.0
 40
0.0
 40
0.0
 40
0.0
 40
0.2710262266
 40
0.5297375603
 40
0.7718680482
 40
1.0
 40
1.0
 40
1.0
 40
1.0
 10
44.9222224851
 20
36.6018242401
 30
0.0
 10
44.8934252801
 20
36.7061587719
 30
0.0
 10
44.8639752155
 20
36.9188040061
 30
0.0
 10
44.9096822877
 20
37.2282138098
 30
0.0
 10
45.0429792161
 20
37.4933035559
 30
0.0
 10
45.1871132381
 20
37.622441192
 30
0.0
 10
45.2660131891
 20
37.6679938281
 30
0.0
  0
SPLINE
  5
2B4
100
AcDbEntity
  8
0
100
AcDbSpline
 62
7
  6
BYLAYER
 70
0
 71
3
 72
11
 73
7
 74
0
 42
0.0000001
 43
0.0000001
 44
0.0000000001
 40
0.0
 40
0.0
 40
0.0
 40
0.0
 40
0.263672107
 40
0.5168390902
 40
0.7615278537
 40
1.0
 40
1.0
 40
1.0
 40
1.0
 10
40.3605402549
 20
37.1477284389
 30
0.0
 10
40.7949089969
 20
37.0936488804
 30
0.0
 10
41.6526761589
 20
37.0314521623
 30
0.0
 10
42.9186975736
 20
37.0853533498
 30
0.0
 10
44.1272731088
 20
37.2887738252
 30
0.0
 10
44.8966223878
 20
37.52559441
 30
0.0
 10
45.2660131917
 20
37.6679938291
 30
0.0
  0
SPLINE
  5
2B5
100
AcDbEntity
  8
0
100
AcDbSpline
 62
7
  6
BYLAYER
 70
0
 71
3
 72
9
 73
5
 74
0
 42
0.0000001
 43
0.0000001
 44
0.0000000001
 40
0.0
 40
0.0
 40
0.0
 40
0.0
 40
0.2322533523
 40
1.0
 40
1.0
 40
1.0
 40
1.0
 10
15.3604719724
 20
75.9035447648
 30
0.0
 10
15.3652199815
 20
75.9172559341
 30
0.0
 10
15.3871386104
 20
75.9757795499
 30
0.0
 10
15.4142763041
 20
76.0322654814
 30
0.0
 10
15.4369873901
 20
76.0745127581
 30
0.0
  0
SPLINE
  5
2B6
100
AcDbEntity
  8
0
100
AcDbSpline
 62
7
  6
BYLAYER
 70
0
 71
3
 72
11
 73
7
 74
0
 42
0.0000001
 43
0.0000001
 44
0.0000000001
 40
0.0
 40
0.0
 40
0.0
 40
0.0
 40
0.2386524302
 40
0.5011040211
 40
0.7629809027
 40
1.0
 40
1.0
 40
1.0
 40
1.0
 10
15.4369873901
 20
76.0745127581
 30
0.0
 10
15.4837245005
 20
76.1614533665
 30
0.0
 10
15.5986897143
 20
76.3350121896
 30
0.0
 10
15.8049688511
 20
76.5747013415
 30
0.0
 10
16.0371850616
 20
76.7883572895
 30
0.0
 10
16.2062279386
 20
76.9083344206
 30
0.0
 10
16.2911255963
 20
76.9573498136
 30
0.0
  0
SPLINE
  5
2B7
100
AcDbEntity
  8
0
100
AcDbSpline
 62
7
  6
BYLAYER
 70
0
 71
3
 72
9
 73
5
 74
0
 42
0.0000001
 43
0.0000001
 44
0.0000000001
 40
0.0
 40
0.0
 40
0.0
 40
0.0
 40
0.2420394698
 40
1.0
 40
1.0
 40
1.0
 40
1.0
 10
16.2911255963
 20
76.9573498136
 30
0.0
 10
16.3203026253
 20
76.9292777852
 30
0.0
 10
16.435716954
 20
76.8080377749
 30
0.0
 10
16.5316432348
 20
76.6685747409
 30
0.0
 10
16.5918567327
 20
76.5569918071
 30
0.0
  0
SPLINE
  5
2B8
100
AcDbEntity
  8
0
100
AcDbSpline
 62
7
  6
BYLAYER
 70
0
 71
3
 72
12
 73
8
 74
0
 42
0.0000001
 43
0.0000001
 44
0.0000000001
 40
0.0
 40
0.0
 40
0.0
 40
0.0
 40
0.2475271757
 40
0.5199874181
 40
0.7817652639
 40
0.8981707352
 40
1.0
 40
1.0
 40
1.0
 40
1.0
 10
13.741466115
 20
79.4104478828
 30
0.0
 10
13.6394334887
 20
79.3515396702
 30
0.0
 10
13.4387927218
 20
79.2039658993
 30
0.0
 10
13.1730068921
 20
78.942372453
 30
0.0
 10
12.9828576457
 20
78.696043017
 30
0.0
 10
12.8686173051
 20
78.4978653663
 30
0.0
 10
12.8266724475
 20
78.4024427778
 30
0.0
 10
12.810812491
 20
78.3566428339
 30
0.0
  0
SPLINE
  5
2B9
100
AcDbEntity
  8
0
100
AcDbSpline
 62
7
  6
BYLAYER
 70
0
 71
3
 72
11
 73
7
 74
0
 42
0.0000001
 43
0.0000001
 44
0.0000000001
 40
0.0
 40
0.0
 40
0.0
 40
0.0
 40
0.2894794152
 40
0.5490682088
 40
0.7822575397
 40
1.0
 40
1.0
 40
1.0
 40
1.0
 10
12.810812491
 20
78.3566428339
 30
0.0
 10
12.7670496282
 20
78.381908763
 30
0.0
 10
12.6876169181
 20
78.4366576063
 30
0.0
 10
12.5925336583
 20
78.53633549
 30
0.0
 10
12.5322436581
 20
78.6466742984
 30
0.0
 10
12.5180766826
 20
78.7258847276
 30
0.0
 10
12.5179642753
 20
78.7638945795
 30
0.0
  0
SPLINE
  5
2BA
100
AcDbEntity
  8
0
100
AcDbSpline
 62
7
  6
BYLAYER
 70
0
 71
3
 72
25
 73
21
 74
0
 42
0.0000001
 43
0.0000001
 44
0.0000000001
 40
0.0
 40
0.0
 40
0.0
 40
0.0
 40
0.0566183419
 40
0.107080191
 40
0.1529698914
 40
0.1973946746
 40
0.2438973365
 40
0.2953270002
 40
0.3234403039
 40
0.3532127569
 40
0.3846278238
 40
0.4176149441
 40
0.4877250226
 40
0.5622203606
 40
0.6393868919
 40
0.717320499
 40
0.7940693225
 40
0.867796639
 40
0.9368788382
 40
1.0
 40
1.0
 40
1.0
 40
1.0
 10
18.1324127323
 20
86.3240692471
 30
0.0
 10
18.0117108816
 20
86.4119745793
 30
0.0
 10
17.7677174105
 20
86.5587825152
 30
0.0
 10
17.3783900566
 20
86.6814402104
 30
0.0
 10
17.0000771473
 20
86.6812921776
 30
0.0
 10
16.6547549912
 20
86.5521411291
 30
0.0
 10
16.3646031495
 20
86.30360742
 30
0.0
 10
16.1836830217
 20
86.0200546657
 30
0.0
 10
16.0709544322
 20
85.7543570063
 30
0.0
 10
16.0014476576
 20
85.5288992965
 30
0.0
 10
15.9501265014
 20
85.2855859794
 30
0.0
 10
15.9056631419
 20
84.933298719
 30
0.0
 10
15.8997738224
 20
84.4633266251
 30
0.0
 10
15.9664073536
 20
83.8809213298
 30
0.0
 10
16.103914409
 20
83.289940372
 30
0.0
 10
16.3064804734
 20
82.7117343934
 30
0.0
 10
16.5676736639
 20
82.1675255551
 30
0.0
 10
16.8773319483
 20
81.6765324495
 30
0.0
 10
17.2244993081
 20
81.2568244696
 30
0.0
 10
17.4864780875
 20
81.0237092129
 30
0.0
 10
17.6210226149
 20
80.9256796816
 30
0.0
  0
SPLINE
  5
2BB
100
AcDbEntity
  8
0
100
AcDbSpline
 62
7
  6
BYLAYER
 70
0
 71
3
 72
15
 73
11
 74
0
 42
0.0000001
 43
0.0000001
 44
0.0000000001
 40
0.0
 40
0.0
 40
0.0
 40
0.0
 40
0.1454403416
 40
0.2788151925
 40
0.4013636644
 40
0.516517624
 40
0.6290730937
 40
0.7442673758
 40
0.8667870099
 40
1.0
 40
1.0
 40
1.0
 40
1.0
 10
17.6210226149
 20
80.9256796816
 30
0.0
 10
17.7138620731
 20
80.85806234
 30
0.0
 10
17.9011536396
 20
80.7403803738
 30
0.0
 10
18.1957162659
 20
80.6186231519
 30
0.0
 10
18.4861773046
 20
80.5641044249
 30
0.0
 10
18.7653706248
 20
80.5803378439
 30
0.0
 10
19.0250542383
 20
80.6680527978
 30
0.0
 10
19.2569607017
 20
80.8243861143
 30
0.0
 10
19.4549037908
 20
81.0435683304
 30
0.0
 10
19.5571662772
 20
81.2193235653
 30
0.0
 10
19.6024843519
 20
81.3142591457
 30
0.0
  0
SPLINE
  5
2BC
100
AcDbEntity
  8
0
100
AcDbSpline
 62
7
  6
BYLAYER
 70
0
 71
3
 72
15
 73
11
 74
0
 42
0.0000001
 43
0.0000001
 44
0.0000000001
 40
0.0
 40
0.0
 40
0.0
 40
0.0
 40
0.1031556509
 40
0.2193355323
 40
0.3462422118
 40
0.4802474701
 40
0.6170399129
 40
0.7520518349
 40
0.8809532881
 40
1.0
 40
1.0
 40
1.0
 40
1.0
 10
19.6024843519
 20
81.3142591457
 30
0.0
 10
19.6795591972
 20
81.4757211055
 30
0.0
 10
19.7959962975
 20
81.8421213634
 30
0.0
 10
19.8622740963
 20
82.4416647721
 30
0.0
 10
19.8307615088
 20
83.0973813831
 30
0.0
 10
19.7031018256
 20
83.7772177159
 30
0.0
 10
19.4867944325
 20
84.4489259156
 30
0.0
 10
19.1911939009
 20
85.0801035307
 30
0.0
 10
18.8315083148
 20
85.6408095265
 30
0.0
 10
18.5457284858
 20
85.965489141
 30
0.0
 10
18.3947863344
 20
86.106375631
 30
0.0
  0
SPLINE
  5
2BD
100
AcDbEntity
  8
0
100
AcDbSpline
 62
7
  6
BYLAYER
 70
0
 71
3
 72
9
 73
5
 74
0
 42
0.0000001
 43
0.0000001
 44
0.0000000001
 40
0.0
 40
0.0
 40
0.0
 40
0.0
 40
0.256988724
 40
1.0
 40
1.0
 40
1.0
 40
1.0
 10
18.3947863344
 20
86.106375631
 30
0.0
 10
18.3734293955
 20
86.1263097854
 30
0.0
 10
18.2892470452
 20
86.2027083214
 30
0.0
 10
18.2006787963
 20
86.2743279247
 30
0.0
 10
18.1324127323
 20
86.3240692471
 30
0.0
  0
SPLINE
  5
2BE
100
AcDbEntity
  8
0
100
AcDbSpline
 62
7
  6
BYLAYER
 70
0
 71
3
 72
10
 73
6
 74
0
 42
0.0000001
 43
0.0000001
 44
0.0000000001
 40
0.0
 40
0.0
 40
0.0
 40
0.0
 40
0.5303427196
 40
0.7658646452
 40
1.0
 40
1.0
 40
1.0
 40
1.0
 10
16.9126489044
 20
77.3160575394
 30
0.0
 10
16.9465142507
 20
77.3293773453
 30
0.0
 10
16.9913370408
 20
77.3598161836
 30
0.0
 10
17.038345499
 20
77.4097600822
 30
0.0
 10
17.0560352717
 20
77.4372699846
 30
0.0
 10
17.0622753742
 20
77.4520743214
 30
0.0
  0
SPLINE
  5
2BF
100
AcDbEntity
  8
0
100
AcDbSpline
 62
7
  6
BYLAYER
 70
0
 71
3
 72
9
 73
5
 74
0
 42
0.0000001
 43
0.0000001
 44
0.0000000001
 40
0.0
 40
0.0
 40
0.0
 40
0.0
 40
0.2428822417
 40
1.0
 40
1.0
 40
1.0
 40
1.0
 10
16.9118162753
 20
77.3180964893
 30
0.0
 10
16.9412913808
 20
77.2897795842
 30
0.0
 10
17.0589118604
 20
77.1692756162
 30
0.0
 10
17.1601926496
 20
77.0335563295
 30
0.0
 10
17.2298949597
 20
76.9269017146
 30
0.0
  0
SPLINE
  5
2C0
100
AcDbEntity
  8
0
100
AcDbSpline
 62
7
  6
BYLAYER
 70
0
 71
3
 72
9
 73
5
 74
0
 42
0.0000001
 43
0.0000001
 44
0.0000000001
 40
0.0
 40
0.0
 40
0.0
 40
0.0
 40
0.2419704436
 40
1.0
 40
1.0
 40
1.0
 40
1.0
 10
16.9118162753
 20
77.3180964893
 30
0.0
 10
16.9411496348
 20
77.2899613929
 30
0.0
 10
17.0572055025
 20
77.1683711573
 30
0.0
 10
17.1536051187
 20
77.0283575744
 30
0.0
 10
17.2140781866
 20
76.916303632
 30
0.0
  0
SPLINE
  5
2C1
100
AcDbEntity
  8
0
100
AcDbSpline
 62
7
  6
BYLAYER
 70
0
 71
3
 72
9
 73
5
 74
0
 42
0.0000001
 43
0.0000001
 44
0.0000000001
 40
0.0
 40
0.0
 40
0.0
 40
0.0
 40
0.5175355542
 40
1.0
 40
1.0
 40
1.0
 40
1.0
 10
41.9247252722
 20
37.4261898261
 30
0.0
 10
42.6508377587
 20
37.4192226125
 30
0.0
 10
44.0584985075
 20
37.5154974868
 30
0.0
 10
45.4254507644
 20
37.878909972
 30
0.0
 10
46.0563493544
 20
38.1242919016
 30
0.0
  0
SPLINE
  5
2C2
100
AcDbEntity
  8
0
100
AcDbSpline
 62
7
  6
BYLAYER
 70
0
 71
3
 72
11
 73
7
 74
0
 42
0.0000001
 43
0.0000001
 44
0.0000000001
 40
0.0
 40
0.0
 40
0.0
 40
0.0
 40
0.2908293616
 40
0.5327869229
 40
0.7582231043
 40
1.0
 40
1.0
 40
1.0
 40
1.0
 10
46.0808453355
 20
38.339179067
 30
0.0
 10
46.0940613424
 20
38.3200814675
 30
0.0
 10
46.1116334263
 20
38.2799807424
 30
0.0
 10
46.1157112032
 20
38.2185403418
 30
0.0
 10
46.0997206331
 20
38.1628974486
 30
0.0
 10
46.0728910379
 20
38.1338111666
 30
0.0
 10
46.0561545503
 20
38.1241848086
 30
0.0
  0
SPLINE
  5
2C3
100
AcDbEntity
  8
0
100
AcDbSpline
 62
7
  6
BYLAYER
 70
0
 71
3
 72
14
 73
10
 74
0
 42
0.0000001
 43
0.0000001
 44
0.0000000001
 40
0.0
 40
0.0
 40
0.0
 40
0.0
 40
0.0954701988
 40
0.1912672534
 40
0.2945936444
 40
0.4105290755
 40
0.5405810993
 40
0.6839320774
 40
1.0
 40
1.0
 40
1.0
 40
1.0
 10
50.0785075657
 20
32.7380410142
 30
0.0
 10
50.119720757
 20
32.7545294025
 30
0.0
 10
50.1976588852
 20
32.8017481265
 30
0.0
 10
50.2831687741
 20
32.9124027307
 30
0.0
 10
50.3297503519
 20
33.0536972187
 30
0.0
 10
50.3386032473
 20
33.2172598435
 30
0.0
 10
50.3117032374
 20
33.3973032655
 30
0.0
 10
50.2270290508
 20
33.6588602204
 30
0.0
 10
50.1190949428
 20
33.846603871
 30
0.0
 10
50.032894631
 20
33.9656238411
 30
0.0
  0
SPLINE
  5
2C4
100
AcDbEntity
  8
0
100
AcDbSpline
 62
7
  6
BYLAYER
 70
0
 71
3
 72
25
 73
21
 74
0
 42
0.0000001
 43
0.0000001
 44
0.0000000001
 40
0.0
 40
0.0
 40
0.0
 40
0.0
 40
0.0213296777
 40
0.043068985
 40
0.0654017302
 40
0.0884864195
 40
0.1373444508
 40
0.1903761028
 40
0.2478049187
 40
0.3094880823
 40
0.3749971847
 40
0.4436881944
 40
0.514759918
 40
0.5873039468
 40
0.6603494693
 40
0.7329045603
 40
0.803998846
 40
0.8727202188
 40
0.9382723133
 40
1.0
 40
1.0
 40
1.0
 40
1.0
 10
57.0220344352
 20
98.7778026561
 30
0.0
 10
57.3032096301
 20
98.8981277063
 30
0.0
 10
57.8865610444
 20
99.1062147668
 30
0.0
 10
58.8031025709
 20
99.313966497
 30
0.0
 10
59.7623395014
 20
99.4189880697
 30
0.0
 10
61.1163238537
 20
99.4214542388
 30
0.0
 10
62.8993605604
 20
99.1512464234
 30
0.0
 10
65.0762022052
 20
98.4303132537
 30
0.0
 10
67.2912649607
 20
97.3247857985
 30
0.0
 10
69.5017636364
 20
95.8578147415
 30
0.0
 10
71.6651584436
 20
94.058967181
 30
0.0
 10
73.7387690125
 20
91.9641858702
 30
0.0
 10
75.6813268123
 20
89.6153939812
 30
0.0
 10
77.4539062495
 20
87.059723372
 30
0.0
 10
79.0208671638
 20
84.3485590154
 30
0.0
 10
80.3507145815
 20
81.5364362428
 30
0.0
 10
81.4166354441
 20
78.6799427218
 30
0.0
 10
82.1973425109
 20
75.8361463489
 30
0.0
 10
82.6769222319
 20
73.0624382724
 30
0.0
 10
82.7931781316
 20
71.2362470599
 30
0.0
 10
82.7931781316
 20
70.3511541969
 30
0.0
  0
SPLINE
  5
2C5
100
AcDbEntity
  8
0
100
AcDbSpline
 62
7
  6
BYLAYER
 70
0
 71
3
 72
11
 73
7
 74
0
 42
0.0000001
 43
0.0000001
 44
0.0000000001
 40
0.0
 40
0.0
 40
0.0
 40
0.0
 40
0.2901542878
 40
0.5499449661
 40
0.7828364149
 40
1.0
 40
1.0
 40
1.0
 40
1.0
 10
58.3611419457
 20
26.3579109385
 30
0.0
 10
58.3606656088
 20
26.3063396121
 30
0.0
 10
58.3518793238
 20
26.2083378941
 30
0.0
 10
58.3108864238
 20
26.0740681688
 30
0.0
 10
58.2428516571
 20
25.9657033043
 30
0.0
 10
58.1793278559
 20
25.9141188436
 30
0.0
 10
58.1455525152
 20
25.895432768
 30
0.0
  0
SPLINE
  5
2C6
100
AcDbEntity
  8
0
100
AcDbSpline
 62
7
  6
BYLAYER
 70
0
 71
3
 72
11
 73
7
 74
0
 42
0.0000001
 43
0.0000001
 44
0.0000000001
 40
0.0
 40
0.0
 40
0.0
 40
0.0
 40
0.2395266368
 40
0.498626559
 40
0.7584689713
 40
1.0
 40
1.0
 40
1.0
 40
1.0
 10
57.0445012575
 20
26.2277141557
 30
0.0
 10
57.1446108592
 20
26.183248981
 30
0.0
 10
57.3685986976
 20
26.1247073936
 30
0.0
 10
57.7182269593
 20
26.1203432994
 30
0.0
 10
58.0610934293
 20
26.1934124745
 30
0.0
 10
58.2705507238
 20
26.2947130362
 30
0.0
 10
58.3611419457
 20
26.3579109385
 30
0.0
  0
SPLINE
  5
2C7
100
AcDbEntity
  8
0
100
AcDbSpline
 62
7
  6
BYLAYER
 70
0
 71
3
 72
11
 73
7
 74
0
 42
0.0000001
 43
0.0000001
 44
0.0000000001
 40
0.0
 40
0.0
 40
0.0
 40
0.0
 40
0.2369125895
 40
0.4992524878
 40
0.7620306512
 40
1.0
 40
1.0
 40
1.0
 40
1.0
 10
54.820581786
 20
48.1528726927
 30
0.0
 10
54.9202452267
 20
48.0953332801
 30
0.0
 10
55.151836924
 20
48.0110961598
 30
0.0
 10
55.5224366103
 20
47.9700544718
 30
0.0
 10
55.8937917782
 20
48.0089049455
 30
0.0
 10
56.1266219038
 20
48.0916883851
 30
0.0
 10
56.227253545
 20
48.1485678095
 30
0.0
  0
SPLINE
  5
2C8
100
AcDbEntity
  8
0
100
AcDbSpline
 62
7
  6
BYLAYER
 70
0
 71
3
 72
11
 73
7
 74
0
 42
0.0000001
 43
0.0000001
 44
0.0000000001
 40
0.0
 40
0.0
 40
0.0
 40
0.0
 40
0.2415201642
 40
0.5013164694
 40
0.760423863
 40
1.0
 40
1.0
 40
1.0
 40
1.0
 10
56.4223686746
 20
44.3823824094
 30
0.0
 10
56.3317814843
 20
44.3191873196
 30
0.0
 10
56.1223500506
 20
44.2178936857
 30
0.0
 10
55.7795079615
 20
44.1448237755
 30
0.0
 10
55.4298745411
 20
44.1491672768
 30
0.0
 10
55.2058583245
 20
44.2077112414
 30
0.0
 10
55.1057279864
 20
44.2521856265
 30
0.0
  0
SPLINE
  5
2C9
100
AcDbEntity
  8
0
100
AcDbSpline
 62
7
  6
BYLAYER
 70
0
 71
3
 72
9
 73
5
 74
0
 42
0.0000001
 43
0.0000001
 44
0.0000000001
 40
0.0
 40
0.0
 40
0.0
 40
0.0
 40
0.2555096222
 40
1.0
 40
1.0
 40
1.0
 40
1.0
 10
54.820581979
 20
48.152872804
 30
0.0
 10
54.8272532902
 20
47.8197404564
 30
0.0
 10
54.8700356256
 20
46.5163678807
 30
0.0
 10
54.9805461244
 20
45.2149374741
 30
0.0
 10
55.105723818
 20
44.2521832216
 30
0.0
  0
SPLINE
  5
2CA
100
AcDbEntity
  8
0
100
AcDbSpline
 62
7
  6
BYLAYER
 70
0
 71
3
 72
14
 73
10
 74
0
 42
0.0000001
 43
0.0000001
 44
0.0000000001
 40
0.0
 40
0.0
 40
0.0
 40
0.0
 40
0.1423335887
 40
0.2773912992
 40
0.5292042223
 40
0.6489236052
 40
0.7663145165
 40
0.8828548149
 40
1.0
 40
1.0
 40
1.0
 40
1.0
 10
51.1604464092
 20
46.0396321288
 30
0.0
 10
51.0698143978
 20
45.6672131908
 30
0.0
 10
50.8717938201
 20
44.9461500399
 30
0.0
 10
50.3965134844
 20
43.6020622054
 30
0.0
 10
49.7794764351
 20
42.3737285604
 30
0.0
 10
49.0007048496
 20
41.3090090907
 30
0.0
 10
48.352042266
 20
40.6085974217
 30
0.0
 10
47.6292732473
 20
39.9957619329
 30
0.0
 10
47.1022361511
 20
39.6486692513
 30
0.0
 10
46.8290426964
 20
39.4909364271
 30
0.0
  0
SPLINE
  5
2CB
100
AcDbEntity
  8
0
100
AcDbSpline
 62
7
  6
BYLAYER
 70
0
 71
3
 72
15
 73
11
 74
0
 42
0.0000001
 43
0.0000001
 44
0.0000000001
 40
0.0
 40
0.0
 40
0.0
 40
0.0
 40
0.1080073834
 40
0.2180575121
 40
0.33199645
 40
0.4513556956
 40
0.5772764905
 40
0.7104918447
 40
0.8514123782
 40
1.0
 40
1.0
 40
1.0
 40
1.0
 10
79.0074592904
 20
60.7248475734
 30
0.0
 10
79.3681415832
 20
60.933092522
 30
0.0
 10
80.0616297037
 20
61.4169992196
 30
0.0
 10
80.9779505273
 20
62.3188104881
 30
0.0
 10
81.7660520049
 20
63.3891445553
 30
0.0
 10
82.4185896477
 20
64.6159842231
 30
0.0
 10
82.9304718079
 20
65.9867783123
 30
0.0
 10
83.2978307745
 20
67.4883134463
 30
0.0
 10
83.5177228395
 20
69.1060490959
 30
0.0
 10
83.5639213141
 20
70.2231781564
 30
0.0
 10
83.5639213141
 20
70.7961403246
 30
0.0
  0
SPLINE
  5
2CC
100
AcDbEntity
  8
0
100
AcDbSpline
 62
7
  6
BYLAYER
 70
0
 71
3
 72
11
 73
7
 74
0
 42
0.0000001
 43
0.0000001
 44
0.0000000001
 40
0.0
 40
0.0
 40
0.0
 40
0.0
 40
0.2525982696
 40
0.5047191409
 40
0.7550618403
 40
1.0
 40
1.0
 40
1.0
 40
1.0
 10
46.3815168287
 20
66.7090517231
 30
0.0
 10
46.0297878123
 20
67.3354797199
 30
0.0
 10
45.2225450662
 20
68.5329814874
 30
0.0
 10
43.6899777153
 20
70.059661741
 30
0.0
 10
41.8691616507
 20
71.1941540577
 30
0.0
 10
40.5020894607
 20
71.6144870503
 30
0.0
 10
39.8132030908
 20
71.7180837132
 30
0.0
  0
SPLINE
  5
2CD
100
AcDbEntity
  8
0
100
AcDbSpline
 62
7
  6
BYLAYER
 70
0
 71
3
 72
11
 73
7
 74
0
 42
0.0000001
 43
0.0000001
 44
0.0000000001
 40
0.0
 40
0.0
 40
0.0
 40
0.0
 40
0.227267578
 40
0.4701567185
 40
0.7281475273
 40
1.0
 40
1.0
 40
1.0
 40
1.0
 10
51.1604464092
 20
46.0396321288
 30
0.0
 10
51.3316844186
 20
46.7432717874
 30
0.0
 10
51.5838574496
 20
48.2249318554
 30
0.0
 10
51.7008806484
 20
50.5465791096
 30
0.0
 10
51.5688942163
 20
53.0092159677
 30
0.0
 10
51.3221207746
 20
54.6819830484
 30
0.0
 10
51.1604464092
 20
55.5330056675
 30
0.0
  0
SPLINE
  5
2CE
100
AcDbEntity
  8
0
100
AcDbSpline
 62
7
  6
BYLAYER
 70
0
 71
3
 72
11
 73
7
 74
0
 42
0.0000001
 43
0.0000001
 44
0.0000000001
 40
0.0
 40
0.0
 40
0.0
 40
0.0
 40
0.2479565964
 40
0.5136934291
 40
0.7721673787
 40
1.0
 40
1.0
 40
1.0
 40
1.0
 10
55.1057279865
 20
53.2322341195
 30
0.0
 10
55.2065113751
 20
53.1844523906
 30
0.0
 10
55.4280077732
 20
53.1117321994
 30
0.0
 10
55.7739928942
 20
53.0655803262
 30
0.0
 10
56.1135988419
 20
53.0806622936
 30
0.0
 10
56.3283164732
 20
53.1352396764
 30
0.0
 10
56.4223686747
 20
53.1759484724
 30
0.0
  0
SPLINE
  5
2CF
100
AcDbEntity
  8
0
100
AcDbSpline
 62
7
  6
BYLAYER
 70
0
 71
3
 72
11
 73
7
 74
0
 42
0.0000001
 43
0.0000001
 44
0.0000000001
 40
0.0
 40
0.0
 40
0.0
 40
0.0
 40
0.237882259
 40
0.5005837954
 40
0.7630005614
 40
1.0
 40
1.0
 40
1.0
 40
1.0
 10
56.227253545
 20
49.189195541
 30
0.0
 10
56.126658733
 20
49.1323369334
 30
0.0
 10
55.893912172
 20
49.0495664923
 30
0.0
 10
55.522604174
 20
49.010681729
 30
0.0
 10
55.1519570182
 20
49.0516893138
 30
0.0
 10
54.9202817611
 20
49.1359399189
 30
0.0
 10
54.820581786
 20
49.1935004242
 30
0.0
  0
SPLINE
  5
2D0
100
AcDbEntity
  8
0
100
AcDbSpline
 62
7
  6
BYLAYER
 70
0
 71
3
 72
9
 73
5
 74
0
 42
0.0000001
 43
0.0000001
 44
0.0000000001
 40
0.0
 40
0.0
 40
0.0
 40
0.0
 40
0.255393597
 40
1.0
 40
1.0
 40
1.0
 40
1.0
 10
55.1057248635
 20
53.2322395246
 30
0.0
 10
55.0651907807
 20
52.8898765241
 30
0.0
 10
54.9218254114
 20
51.5475978616
 30
0.0
 10
54.841169255
 20
50.1984284061
 30
0.0
 10
54.8205820977
 20
49.1934998847
 30
0.0
  0
SPLINE
  5
2D1
100
AcDbEntity
  8
0
100
AcDbSpline
 62
7
  6
BYLAYER
 70
0
 71
3
 72
11
 73
7
 74
0
 42
0.0000001
 43
0.0000001
 44
0.0000000001
 40
0.0
 40
0.0
 40
0.0
 40
0.0
 40
0.2396087845
 40
0.4885332944
 40
0.742988739
 40
1.0
 40
1.0
 40
1.0
 40
1.0
 10
51.1604463511
 20
55.5330057682
 30
0.0
 10
50.9691669139
 20
56.5398637649
 30
0.0
 10
50.5142331737
 20
58.581187962
 30
0.0
 10
49.5910834158
 20
61.6258801561
 30
0.0
 10
48.3776330211
 20
64.6477324542
 30
0.0
 10
47.3815975721
 20
66.6000144209
 30
0.0
 10
46.8319447979
 20
67.5520356674
 30
0.0
  0
SPLINE
  5
2D2
100
AcDbEntity
  8
0
100
AcDbSpline
 62
7
  6
BYLAYER
 70
0
 71
3
 72
11
 73
7
 74
0
 42
0.0000001
 43
0.0000001
 44
0.0000000001
 40
0.0
 40
0.0
 40
0.0
 40
0.0
 40
0.2369136361
 40
0.4992535863
 40
0.7620312053
 40
1.0
 40
1.0
 40
1.0
 40
1.0
 10
34.9272470812
 20
83.6495755915
 30
0.0
 10
34.9272470812
 20
83.7646570145
 30
0.0
 10
34.9700891853
 20
84.0073411578
 30
0.0
 10
35.1198438599
 20
84.3488125269
 30
0.0
 10
35.3391660245
 20
84.6509910116
 30
0.0
 10
35.5272738849
 20
84.8112356692
 30
0.0
 10
35.6268489127
 20
84.8699449489
 30
0.0
  0
SPLINE
  5
2D3
100
AcDbEntity
  8
0
100
AcDbSpline
 62
7
  6
BYLAYER
 70
0
 71
3
 72
11
 73
7
 74
0
 42
0.0000001
 43
0.0000001
 44
0.0000000001
 40
0.0
 40
0.0
 40
0.0
 40
0.0
 40
0.227773026
 40
0.486185472
 40
0.7519736471
 40
1.0
 40
1.0
 40
1.0
 40
1.0
 10
39.1770263274
 20
83.0455917973
 30
0.0
 10
39.094766456
 20
82.9845111052
 30
0.0
 10
38.9401741835
 20
82.8258960294
 30
0.0
 10
38.7573092325
 20
82.5393675412
 30
0.0
 10
38.6242566278
 20
82.2166417021
 30
0.0
 10
38.5764685596
 20
81.9884064494
 30
0.0
 10
38.5674555667
 20
81.8772032039
 30
0.0
  0
SPLINE
  5
2D4
100
AcDbEntity
  8
0
100
AcDbSpline
 62
7
  6
BYLAYER
 70
0
 71
3
 72
9
 73
5
 74
0
 42
0.0000001
 43
0.0000001
 44
0.0000000001
 40
0.0
 40
0.0
 40
0.0
 40
0.0
 40
0.2446254981
 40
1.0
 40
1.0
 40
1.0
 40
1.0
 10
34.9272468886
 20
83.6495759252
 30
0.0
 10
35.2165497913
 20
83.4903670312
 30
0.0
 10
36.4076045413
 20
82.8549090179
 30
0.0
 10
37.6305819876
 20
82.2796788039
 30
0.0
 10
38.567459728
 20
81.8771959922
 30
0.0
  0
SPLINE
  5
2D5
100
AcDbEntity
  8
0
100
AcDbSpline
 62
7
  6
BYLAYER
 70
0
 71
3
 72
9
 73
5
 74
0
 42
0.0000001
 43
0.0000001
 44
0.0000000001
 40
0.0
 40
0.0
 40
0.0
 40
0.0
 40
0.7464074208
 40
1.0
 40
1.0
 40
1.0
 40
1.0
 10
34.0420953698
 20
103.7404740165
 30
0.0
 10
34.0244121814
 20
103.7506831823
 30
0.0
 10
33.9990133766
 20
103.761672153
 30
0.0
 10
33.9725719207
 20
103.7687161126
 30
0.0
 10
33.9658089785
 20
103.7702614996
 30
0.0
  0
SPLINE
  5
2D6
100
AcDbEntity
  8
0
100
AcDbSpline
 62
7
  6
BYLAYER
 70
0
 71
3
 72
9
 73
5
 74
0
 42
0.0000001
 43
0.0000001
 44
0.0000000001
 40
0.0
 40
0.0
 40
0.0
 40
0.0
 40
0.2417196453
 40
1.0
 40
1.0
 40
1.0
 40
1.0
 10
33.9658089785
 20
103.7702614996
 30
0.0
 10
33.95759087
 20
103.7721394039
 30
0.0
 10
33.9232584275
 20
103.7784291333
 30
0.0
 10
33.887953629
 20
103.7788361122
 30
0.0
 10
33.8616178009
 20
103.7764365968
 30
0.0
  0
SPLINE
  5
2D7
100
AcDbEntity
  8
0
100
AcDbSpline
 62
7
  6
BYLAYER
 70
0
 71
3
 72
11
 73
7
 74
0
 42
0.0000001
 43
0.0000001
 44
0.0000000001
 40
0.0
 40
0.0
 40
0.0
 40
0.0
 40
0.2570118385
 40
0.5114675042
 40
0.7603918595
 40
1.0
 40
1.0
 40
1.0
 40
1.0
 10
46.8319447979
 20
67.5520356674
 30
0.0
 10
46.2822927707
 20
68.5040556202
 30
0.0
 10
45.0895784772
 20
70.3427792567
 30
0.0
 10
43.0792953573
 20
72.9045669307
 30
0.0
 10
40.9040875978
 20
75.2263636032
 30
0.0
 10
39.3637118773
 20
76.6409894248
 30
0.0
 10
38.5873873727
 20
77.3100618359
 30
0.0
  0
SPLINE
  5
2D8
100
AcDbEntity
  8
0
100
AcDbSpline
 62
7
  6
BYLAYER
 70
0
 71
3
 72
9
 73
5
 74
0
 42
0.0000001
 43
0.0000001
 44
0.0000000001
 40
0.0
 40
0.0
 40
0.0
 40
0.0
 40
0.5130813678
 40
1.0
 40
1.0
 40
1.0
 40
1.0
 10
38.587382458
 20
77.3100703484
 30
0.0
 10
37.9312126257
 20
77.8755878984
 30
0.0
 10
36.6060882741
 20
78.9255787731
 30
0.0
 10
35.1885789251
 20
79.8484810155
 30
0.0
 10
34.4766434002
 20
80.2595078837
 30
0.0
  0
SPLINE
  5
2D9
100
AcDbEntity
  8
0
100
AcDbSpline
 62
7
  6
BYLAYER
 70
0
 71
3
 72
9
 73
5
 74
0
 42
0.0000001
 43
0.0000001
 44
0.0000000001
 40
0.0
 40
0.0
 40
0.0
 40
0.0
 40
0.5166135133
 40
1.0
 40
1.0
 40
1.0
 40
1.0
 10
34.4766434002
 20
80.2595078837
 30
0.0
 10
33.8063822544
 20
80.6464745823
 30
0.0
 10
32.4700051882
 20
81.3307864485
 30
0.0
 10
31.060888767
 20
81.8531243037
 30
0.0
 10
30.3659043425
 20
82.0566355699
 30
0.0
  0
SPLINE
  5
2DA
100
AcDbEntity
  8
0
100
AcDbSpline
 62
7
  6
BYLAYER
 70
0
 71
3
 72
9
 73
5
 74
0
 42
0.0000001
 43
0.0000001
 44
0.0000000001
 40
0.0
 40
0.0
 40
0.0
 40
0.0
 40
0.483374112
 40
1.0
 40
1.0
 40
1.0
 40
1.0
 10
71.7774770608
 20
77.2467575546
 30
0.0
 10
71.7774770622
 20
77.2167430504
 30
0.0
 10
71.7666679015
 20
77.1542632276
 30
0.0
 10
71.7368736101
 20
77.0986833989
 30
0.0
 10
71.7183787426
 20
77.0724723906
 30
0.0
  0
SPLINE
  5
2DB
100
AcDbEntity
  8
0
100
AcDbSpline
 62
7
  6
BYLAYER
 70
0
 71
3
 72
11
 73
7
 74
0
 42
0.0000001
 43
0.0000001
 44
0.0000000001
 40
0.0
 40
0.0
 40
0.0
 40
0.0
 40
0.2395106111
 40
0.498566095
 40
0.7584196666
 40
1.0
 40
1.0
 40
1.0
 40
1.0
 10
30.7905286547
 20
86.3671124748
 30
0.0
 10
30.802073661
 20
86.4760355156
 30
0.0
 10
30.8633541159
 20
86.6992607185
 30
0.0
 10
31.0343686234
 20
87.0042146364
 30
0.0
 10
31.2690704641
 20
87.2646318007
 30
0.0
 10
31.4615501244
 20
87.3953975878
 30
0.0
 10
31.5615974551
 20
87.4422622409
 30
0.0
  0
SPLINE
  5
2DC
100
AcDbEntity
  8
0
100
AcDbSpline
 62
7
  6
BYLAYER
 70
0
 71
3
 72
11
 73
7
 74
0
 42
0.0000001
 43
0.0000001
 44
0.0000000001
 40
0.0
 40
0.0
 40
0.0
 40
0.0
 40
0.2378817051
 40
0.5005826971
 40
0.7629995147
 40
1.0
 40
1.0
 40
1.0
 40
1.0
 10
34.7256415509
 20
85.390245491
 30
0.0
 10
34.6261029656
 20
85.3315576977
 30
0.0
 10
34.4380481446
 20
85.1713789102
 30
0.0
 10
34.2187198685
 20
84.8692584212
 30
0.0
 10
34.0689119246
 20
84.5277629937
 30
0.0
 10
34.0260397194
 20
84.2849997429
 30
0.0
 10
34.0260397194
 20
84.1698761337
 30
0.0
  0
SPLINE
  5
2DD
100
AcDbEntity
  8
0
100
AcDbSpline
 62
7
  6
BYLAYER
 70
0
 71
3
 72
11
 73
7
 74
0
 42
0.0000001
 43
0.0000001
 44
0.0000000001
 40
0.0
 40
0.0
 40
0.0
 40
0.0
 40
0.2171645569
 40
0.4500564203
 40
0.7098467339
 40
1.0
 40
1.0
 40
1.0
 40
1.0
 10
16.4130887085
 20
98.1777990931
 30
0.0
 10
16.4461583757
 20
98.1977057609
 30
0.0
 10
16.5225919216
 20
98.2269259715
 30
0.0
 10
16.6504527826
 20
98.2316639451
 30
0.0
 10
16.7872267145
 20
98.2000319762
 30
0.0
 10
16.8764896607
 20
98.15864231
 30
0.0
 10
16.9213888218
 20
98.1332703607
 30
0.0
  0
SPLINE
  5
2DE
100
AcDbEntity
  8
0
100
AcDbSpline
 62
7
  6
BYLAYER
 70
0
 71
3
 72
9
 73
5
 74
0
 42
0.0000001
 43
0.0000001
 44
0.0000000001
 40
0.0
 40
0.0
 40
0.0
 40
0.0
 40
0.2445307202
 40
1.0
 40
1.0
 40
1.0
 40
1.0
 10
30.7905255336
 20
86.3671106707
 30
0.0
 10
31.0438204302
 20
86.1733904554
 30
0.0
 10
32.0912291466
 20
85.3963634408
 30
0.0
 10
33.1828730867
 20
84.6794253564
 30
0.0
 10
34.0260400309
 20
84.1698763137
 30
0.0
  0
SPLINE
  5
2DF
100
AcDbEntity
  8
0
100
AcDbSpline
 62
7
  6
BYLAYER
 70
0
 71
3
 72
12
 73
8
 74
0
 42
0.0000001
 43
0.0000001
 44
0.0000000001
 40
0.0
 40
0.0
 40
0.0
 40
0.0
 40
0.2926620854
 40
0.5696915591
 40
0.6951697369
 40
0.8088509366
 40
1.0
 40
1.0
 40
1.0
 40
1.0
 10
47.3454349149
 20
37.6772706367
 30
0.0
 10
47.2591600769
 20
37.796444839
 30
0.0
 10
47.0658631451
 20
38.0109664178
 30
0.0
 10
46.7796481212
 20
38.2174365773
 30
0.0
 10
46.5414510561
 20
38.3235552631
 30
0.0
 10
46.3325009519
 20
38.3789300785
 30
0.0
 10
46.1704287038
 20
38.3737989292
 30
0.0
 10
46.0808698515
 20
38.3389689697
 30
0.0
  0
SPLINE
  5
2E0
100
AcDbEntity
  8
0
100
AcDbSpline
 62
7
  6
BYLAYER
 70
0
 71
3
 72
9
 73
5
 74
0
 42
0.0000001
 43
0.0000001
 44
0.0000000001
 40
0.0
 40
0.0
 40
0.0
 40
0.0
 40
0.2658296068
 40
1.0
 40
1.0
 40
1.0
 40
1.0
 10
21.8417095038
 20
79.4465472071
 30
0.0
 10
21.9154868597
 20
79.4891452638
 30
0.0
 10
22.1911884454
 20
79.6525057371
 30
0.0
 10
22.459546995
 20
79.8285716801
 30
0.0
 10
22.6498458491
 20
79.966937179
 30
0.0
  0
SPLINE
  5
2E1
100
AcDbEntity
  8
0
100
AcDbSpline
 62
7
  6
BYLAYER
 70
0
 71
3
 72
21
 73
17
 74
0
 42
0.0000001
 43
0.0000001
 44
0.0000000001
 40
0.0
 40
0.0
 40
0.0
 40
0.0
 40
0.2137796317
 40
0.3022592809
 40
0.3784692117
 40
0.4427961214
 40
0.4961612908
 40
0.540161928
 40
0.57742471
 40
0.6117896605
 40
0.6475377419
 40
0.688049904
 40
0.7352324359
 40
0.7899390763
 40
0.852413661
 40
1.0
 40
1.0
 40
1.0
 40
1.0
 10
22.8085270393
 20
80.0858346738
 30
0.0
 10
22.9839554739
 20
80.2214169568
 30
0.0
 10
23.2233766558
 20
80.4258771647
 30
0.0
 10
23.4882156443
 20
80.7161764146
 30
0.0
 10
23.6309471018
 20
80.9066028836
 30
0.0
 10
23.7313727583
 20
81.0815709449
 30
0.0
 10
23.7908834641
 20
81.2393534113
 30
0.0
 10
23.810896732
 20
81.3790853318
 30
0.0
 10
23.7908175372
 20
81.4998553217
 30
0.0
 10
23.7305069234
 20
81.5970152687
 30
0.0
 10
23.6354033221
 20
81.6653862757
 30
0.0
 10
23.5125093764
 20
81.7059049
 30
0.0
 10
23.3647856591
 20
81.7210072677
 30
0.0
 10
23.1940587118
 20
81.7115261657
 30
0.0
 10
22.9231919226
 20
81.6638006845
 30
0.0
 10
22.7151233016
 20
81.5952533022
 30
0.0
 10
22.5725290927
 20
81.5396138286
 30
0.0
  0
SPLINE
  5
2E2
100
AcDbEntity
  8
0
100
AcDbSpline
 62
7
  6
BYLAYER
 70
0
 71
3
 72
9
 73
5
 74
0
 42
0.0000001
 43
0.0000001
 44
0.0000000001
 40
0.0
 40
0.0
 40
0.0
 40
0.0
 40
0.230906245
 40
1.0
 40
1.0
 40
1.0
 40
1.0
 10
22.5530640844
 20
81.5319599106
 30
0.0
 10
22.4951489631
 20
81.5090128584
 30
0.0
 10
22.2466300037
 20
81.4038426426
 30
0.0
 10
22.007038397
 20
81.2783280799
 30
0.0
 10
21.8273216064
 20
81.1746237753
 30
0.0
  0
SPLINE
  5
2E3
100
AcDbEntity
  8
0
100
AcDbSpline
 62
7
  6
BYLAYER
 70
0
 71
3
 72
9
 73
5
 74
0
 42
0.0000001
 43
0.0000001
 44
0.0000000001
 40
0.0
 40
0.0
 40
0.0
 40
0.0
 40
0.4834477376
 40
1.0
 40
1.0
 40
1.0
 40
1.0
 10
46.0808698515
 20
38.3389689697
 30
0.0
 10
45.4848294717
 20
38.1072300884
 30
0.0
 10
44.1989705693
 20
37.7577808646
 30
0.0
 10
42.8737877204
 20
37.648503127
 30
0.0
 10
42.1905063589
 20
37.6440272774
 30
0.0
  0
SPLINE
  5
2E4
100
AcDbEntity
  8
0
100
AcDbSpline
 62
7
  6
BYLAYER
 70
0
 71
3
 72
11
 73
7
 74
0
 42
0.0000001
 43
0.0000001
 44
0.0000000001
 40
0.0
 40
0.0
 40
0.0
 40
0.0
 40
0.2345913166
 40
0.4800696176
 40
0.7357563463
 40
1.0
 40
1.0
 40
1.0
 40
1.0
 10
36.2221782037
 20
71.1441675571
 30
0.0
 10
36.4727905394
 20
71.2888659917
 30
0.0
 10
37.0171440081
 20
71.532882005
 30
0.0
 10
37.9033043631
 20
71.7481120961
 30
0.0
 10
38.8488141038
 20
71.8176162151
 30
0.0
 10
39.4908603413
 20
71.7665381593
 30
0.0
 10
39.8132030909
 20
71.7180837132
 30
0.0
  0
SPLINE
  5
2E5
100
AcDbEntity
  8
0
100
AcDbSpline
 62
7
  6
BYLAYER
 70
0
 71
3
 72
11
 73
7
 74
0
 42
0.0000001
 43
0.0000001
 44
0.0000000001
 40
0.0
 40
0.0
 40
0.0
 40
0.0
 40
0.2197435519
 40
0.4757671804
 40
0.7451128876
 40
1.0
 40
1.0
 40
1.0
 40
1.0
 10
37.0427345897
 20
69.1032325272
 30
0.0
 10
37.0502664779
 20
69.2676525464
 30
0.0
 10
37.0171683529
 20
69.6262475504
 30
0.0
 10
36.853766278
 20
70.1630719704
 30
0.0
 10
36.586313135
 20
70.6859196565
 30
0.0
 10
36.3500058218
 20
71.002361763
 30
0.0
 10
36.2221780043
 20
71.144167442
 30
0.0
  0
SPLINE
  5
2E6
100
AcDbEntity
  8
0
100
AcDbSpline
 62
7
  6
BYLAYER
 70
0
 71
3
 72
11
 73
7
 74
0
 42
0.0000001
 43
0.0000001
 44
0.0000000001
 40
0.0
 40
0.0
 40
0.0
 40
0.0
 40
0.2151514406
 40
0.4469341946
 40
0.7070870524
 40
1.0
 40
1.0
 40
1.0
 40
1.0
 10
12.2975999961
 20
37.3262723259
 30
0.0
 10
12.3006574862
 20
37.2563569082
 30
0.0
 10
12.3336010226
 20
37.111285046
 30
0.0
 10
12.455869389
 20
36.9127129905
 30
0.0
 10
12.6429899488
 20
36.7358146037
 30
0.0
 10
12.796893645
 20
36.6405279838
 30
0.0
 10
12.8814987982
 20
36.5967167173
 30
0.0
  0
SPLINE
  5
2E7
100
AcDbEntity
  8
0
100
AcDbSpline
 62
7
  6
BYLAYER
 70
0
 71
3
 72
10
 73
6
 74
0
 42
0.0000001
 43
0.0000001
 44
0.0000000001
 40
0.0
 40
0.0
 40
0.0
 40
0.0
 40
0.5354938414
 40
0.8063645018
 40
1.0
 40
1.0
 40
1.0
 40
1.0
 10
46.3815168285
 20
66.7090517235
 30
0.0
 10
45.9505604957
 20
66.4602404539
 30
0.0
 10
45.2981089583
 20
66.0916281486
 30
0.0
 10
44.4850823419
 20
65.6415753607
 30
0.0
 10
44.1057141677
 20
65.4356119914
 30
0.0
 10
43.9467456879
 20
65.3513022236
 30
0.0
  0
SPLINE
  5
2E8
100
AcDbEntity
  8
0
100
AcDbSpline
 62
7
  6
BYLAYER
 70
0
 71
3
 72
11
 73
7
 74
0
 42
0.0000001
 43
0.0000001
 44
0.0000000001
 40
0.0
 40
0.0
 40
0.0
 40
0.0
 40
0.2224303679
 40
0.4838187643
 40
0.7548266671
 40
1.0
 40
1.0
 40
1.0
 40
1.0
 10
39.5515119376
 20
69.4584658011
 30
0.0
 10
39.6078174236
 20
69.6186331694
 30
0.0
 10
39.7067686728
 20
69.9753812138
 30
0.0
 10
39.8037989479
 20
70.5441889279
 30
0.0
 10
39.8461787327
 20
71.1370851199
 30
0.0
 10
39.832980504
 20
71.5319959989
 30
0.0
 10
39.8132052401
 20
71.7180833981
 30
0.0
  0
SPLINE
  5
2E9
100
AcDbEntity
  8
0
100
AcDbSpline
 62
7
  6
BYLAYER
 70
0
 71
3
 72
19
 73
15
 74
0
 42
0.0000001
 43
0.0000001
 44
0.0000000001
 40
0.0
 40
0.0
 40
0.0
 40
0.0
 40
0.153517405
 40
0.3031598831
 40
0.4457527558
 40
0.5135860557
 40
0.578728874
 40
0.6409880556
 40
0.7002518762
 40
0.8096661373
 40
0.8602743302
 40
0.9085182575
 40
0.9548846586
 40
1.0
 40
1.0
 40
1.0
 40
1.0
 10
46.3815168287
 20
66.7090517231
 30
0.0
 10
47.1128685158
 20
65.4064793122
 30
0.0
 10
48.4219440864
 20
62.7552621643
 30
0.0
 10
49.9101871682
 20
58.6722053827
 30
0.0
 10
50.7193676743
 20
55.2526370999
 30
0.0
 10
51.0706923543
 20
52.5923054938
 30
0.0
 10
51.1837395664
 20
50.6941610834
 30
0.0
 10
51.1494751228
 20
48.8756939227
 30
0.0
 10
50.9142830181
 20
46.6394278212
 30
0.0
 10
50.3953880182
 20
44.54958375
 30
0.0
 10
49.5593267094
 20
42.6983237174
 30
0.0
 10
48.8120431726
 20
41.493584957
 30
0.0
 10
47.9347760798
 20
40.4486459121
 30
0.0
 10
47.2613783125
 20
39.8597871676
 30
0.0
 10
46.9086898446
 20
39.5983710328
 30
0.0
  0
SPLINE
  5
2EA
100
AcDbEntity
  8
0
100
AcDbSpline
 62
7
  6
BYLAYER
 70
0
 71
3
 72
11
 73
7
 74
0
 42
0.0000001
 43
0.0000001
 44
0.0000000001
 40
0.0
 40
0.0
 40
0.0
 40
0.0
 40
0.2269082873
 40
0.4652504894
 40
0.7223936282
 40
1.0
 40
1.0
 40
1.0
 40
1.0
 10
24.1174888635
 20
29.567205498
 30
0.0
 10
23.9952656762
 20
29.5896659363
 30
0.0
 10
23.7510319858
 20
29.6809570845
 30
0.0
 10
23.4416437238
 20
29.937293464
 30
0.0
 10
23.2025254842
 20
30.2925352915
 30
0.0
 10
23.1013868884
 20
30.5704629239
 30
0.0
 10
23.0641808614
 20
30.717875483
 30
0.0
  0
SPLINE
  5
2EB
100
AcDbEntity
  8
0
100
AcDbSpline
 62
7
  6
BYLAYER
 70
0
 71
3
 72
14
 73
10
 74
0
 42
0.0000001
 43
0.0000001
 44
0.0000000001
 40
0.0
 40
0.0
 40
0.0
 40
0.0
 40
0.2587772023
 40
0.3928562658
 40
0.5255528363
 40
0.653773206
 40
0.776088159
 40
0.8914024387
 40
1.0
 40
1.0
 40
1.0
 40
1.0
 10
42.7643820454
 20
39.5405374569
 30
0.0
 10
42.8679451458
 20
39.3396892198
 30
0.0
 10
43.0688719845
 20
39.0536873261
 30
0.0
 10
43.4143135019
 20
38.749170487
 30
0.0
 10
43.7089916639
 20
38.5661440615
 30
0.0
 10
44.0240095233
 20
38.4467383172
 30
0.0
 10
44.3417537819
 20
38.3958195581
 30
0.0
 10
44.646011585
 20
38.4121093054
 30
0.0
 10
44.8358537646
 20
38.4658984572
 30
0.0
 10
44.923870412
 20
38.5012010067
 30
0.0
  0
SPLINE
  5
2EC
100
AcDbEntity
  8
0
100
AcDbSpline
 62
7
  6
BYLAYER
 70
0
 71
3
 72
11
 73
7
 74
0
 42
0.0000001
 43
0.0000001
 44
0.0000000001
 40
0.0
 40
0.0
 40
0.0
 40
0.0
 40
0.2262566582
 40
0.4660369086
 40
0.7244432677
 40
1.0
 40
1.0
 40
1.0
 40
1.0
 10
35.1235293866
 20
35.3710890203
 30
0.0
 10
35.186645021
 20
35.4075389938
 30
0.0
 10
35.304765519
 20
35.5051479196
 30
0.0
 10
35.4320185002
 20
35.7043163231
 30
0.0
 10
35.5106163957
 20
35.9429676694
 30
0.0
 10
35.531568255
 20
36.1146998629
 30
0.0
 10
35.5356302589
 20
36.2033727833
 30
0.0
  0
SPLINE
  5
2ED
100
AcDbEntity
  8
0
100
AcDbSpline
 62
7
  6
BYLAYER
 70
0
 71
3
 72
18
 73
14
 74
0
 42
0.0000001
 43
0.0000001
 44
0.0000000001
 40
0.0
 40
0.0
 40
0.0
 40
0.0
 40
0.2105394522
 40
0.4048310723
 40
0.5778738018
 40
0.7251876297
 40
0.8433124867
 40
0.8903915108
 40
0.9290057348
 40
0.9591237893
 40
0.9808132545
 40
0.9942175209
 40
1.0
 40
1.0
 40
1.0
 40
1.0
 10
38.0807645034
 20
37.3522622638
 30
0.0
 10
38.0946713356
 20
37.3024146284
 30
0.0
 10
38.1212118548
 20
37.2065098742
 30
0.0
 10
38.1583862431
 20
37.0694182518
 30
0.0
 10
38.190672838
 20
36.9471000778
 30
0.0
 10
38.2171873058
 20
36.8426428178
 30
0.0
 10
38.2351038285
 20
36.7679101986
 30
0.0
 10
38.2458656579
 20
36.7190225069
 30
0.0
 10
38.2514844103
 20
36.6910213172
 30
0.0
 10
38.255297133
 20
36.6693604855
 30
0.0
 10
38.2573579306
 20
36.6529067403
 30
0.0
 10
38.2578173222
 20
36.6438692865
 30
0.0
 10
38.2570339632
 20
36.6379193466
 30
0.0
 10
38.2556922648
 20
36.6374502187
 30
0.0
  0
SPLINE
  5
2EE
100
AcDbEntity
  8
0
100
AcDbSpline
 62
7
  6
BYLAYER
 70
0
 71
3
 72
13
 73
9
 74
0
 42
0.0000001
 43
0.0000001
 44
0.0000000001
 40
0.0
 40
0.0
 40
0.0
 40
0.0
 40
0.1161848108
 40
0.2406482945
 40
0.5031982966
 40
0.7639894806
 40
0.8864055826
 40
1.0
 40
1.0
 40
1.0
 40
1.0
 10
23.0641808812
 20
30.7178754728
 30
0.0
 10
23.1603914661
 20
30.6566045028
 30
0.0
 10
23.3710411645
 20
30.5470687838
 30
0.0
 10
23.8385654967
 20
30.3836671768
 30
0.0
 10
24.4744051957
 20
30.2915176758
 30
0.0
 10
25.1128446173
 20
30.3455172565
 30
0.0
 10
25.5825335091
 20
30.4817641355
 30
0.0
 10
25.7941537895
 20
30.5791622968
 30
0.0
 10
25.8907339046
 20
30.6349225182
 30
0.0
  0
SPLINE
  5
2EF
100
AcDbEntity
  8
0
100
AcDbSpline
 62
7
  6
BYLAYER
 70
0
 71
3
 72
11
 73
7
 74
0
 42
0.0000001
 43
0.0000001
 44
0.0000000001
 40
0.0
 40
0.0
 40
0.0
 40
0.0
 40
0.286691212
 40
0.5449667737
 40
0.7793505587
 40
1.0
 40
1.0
 40
1.0
 40
1.0
 10
25.8907339193
 20
30.6349225245
 30
0.0
 10
25.8865057058
 20
30.5426212751
 30
0.0
 10
25.8645795012
 20
30.3672284396
 30
0.0
 10
25.7831414848
 20
30.1273786652
 30
0.0
 10
25.6555788515
 20
29.9327036132
 30
0.0
 10
25.5399691509
 20
29.8378686419
 30
0.0
 10
25.4783854458
 20
29.8023080192
 30
0.0
  0
SPLINE
  5
2F0
100
AcDbEntity
  8
0
100
AcDbSpline
 62
7
  6
BYLAYER
 70
0
 71
3
 72
14
 73
10
 74
0
 42
0.0000001
 43
0.0000001
 44
0.0000000001
 40
0.0
 40
0.0
 40
0.0
 40
0.0
 40
0.1171192977
 40
0.233630472
 40
0.351041858
 40
0.4708022867
 40
0.7226367445
 40
0.8576773169
 40
1.0
 40
1.0
 40
1.0
 40
1.0
 10
22.528941526
 20
81.5797126387
 30
0.0
 10
22.8020725308
 20
81.7374094065
 30
0.0
 10
23.3660327738
 20
82.0202508394
 30
0.0
 10
24.2580718064
 20
82.3396861472
 30
0.0
 10
25.1890363367
 20
82.5513105675
 30
0.0
 10
26.5006817093
 20
82.6936619334
 30
0.0
 10
27.8731042754
 20
82.6139211858
 30
0.0
 10
29.274716712
 20
82.3534097452
 30
0.0
 10
29.9980935149
 20
82.1643410732
 30
0.0
 10
30.3659043425
 20
82.0566355699
 30
0.0
  0
SPLINE
  5
2F1
100
AcDbEntity
  8
0
100
AcDbSpline
 62
7
  6
BYLAYER
 70
0
 71
3
 72
11
 73
7
 74
0
 42
0.0000001
 43
0.0000001
 44
0.0000000001
 40
0.0
 40
0.0
 40
0.0
 40
0.0
 40
0.2192962008
 40
0.4598046326
 40
0.7208639425
 40
1.0
 40
1.0
 40
1.0
 40
1.0
 10
23.0641808809
 20
30.7178754729
 30
0.0
 10
22.2077665692
 20
30.8749488038
 30
0.0
 10
20.4450773307
 20
31.3969441595
 30
0.0
 10
17.8666246147
 20
32.6626130773
 30
0.0
 10
15.2955401799
 20
34.4095841843
 30
0.0
 10
13.6765162504
 20
35.8245430538
 30
0.0
 10
12.8814987987
 20
36.5967167168
 30
0.0
  0
SPLINE
  5
2F2
100
AcDbEntity
  8
0
100
AcDbSpline
 62
7
  6
BYLAYER
 70
0
 71
3
 72
11
 73
7
 74
0
 42
0.0000001
 43
0.0000001
 44
0.0000000001
 40
0.0
 40
0.0
 40
0.0
 40
0.0
 40
0.2118883951
 40
0.442113445
 40
0.7033193879
 40
1.0
 40
1.0
 40
1.0
 40
1.0
 10
57.2433575406
 20
25.8621526582
 30
0.0
 10
57.2155511073
 20
25.8750929045
 30
0.0
 10
57.1621758201
 20
25.9131240946
 30
0.0
 10
57.1023057103
 20
25.9972122747
 30
0.0
 10
57.0617556263
 20
26.1048403817
 30
0.0
 10
57.0484429829
 20
26.1849521339
 30
0.0
 10
57.0445012575
 20
26.2277141557
 30
0.0
  0
SPLINE
  5
2F3
100
AcDbEntity
  8
0
100
AcDbSpline
 62
7
  6
BYLAYER
 70
0
 71
3
 72
14
 73
10
 74
0
 42
0.0000001
 43
0.0000001
 44
0.0000000001
 40
0.0
 40
0.0
 40
0.0
 40
0.0
 40
0.2101510807
 40
0.3256117388
 40
0.4480914163
 40
0.5773570354
 40
0.7129110096
 40
0.8541008709
 40
1.0
 40
1.0
 40
1.0
 40
1.0
 10
11.3743943254
 20
71.2367915175
 30
0.0
 10
12.4660767906
 20
71.1873107936
 30
0.0
 10
14.1502075989
 20
70.8398774887
 30
0.0
 10
16.3202747802
 20
69.9871999271
 30
0.0
 10
18.018933166
 20
69.1067068047
 30
0.0
 10
19.7149840742
 20
68.0161825854
 30
0.0
 10
21.3907224206
 20
66.7280387574
 30
0.0
 10
23.0263623749
 20
65.2572169638
 30
0.0
 10
24.0633051585
 20
64.1812627284
 30
0.0
 10
24.5712853536
 20
63.6177352961
 30
0.0
  0
SPLINE
  5
2F4
100
AcDbEntity
  8
0
100
AcDbSpline
 62
7
  6
BYLAYER
 70
0
 71
3
 72
11
 73
7
 74
0
 42
0.0000001
 43
0.0000001
 44
0.0000000001
 40
0.0
 40
0.0
 40
0.0
 40
0.0
 40
0.2268818363
 40
0.4592261113
 40
0.7139213457
 40
1.0
 40
1.0
 40
1.0
 40
1.0
 10
19.2725967883
 20
81.5001236046
 30
0.0
 10
19.1947262253
 20
81.4551362857
 30
0.0
 10
19.0194694324
 20
81.3909306617
 30
0.0
 10
18.7310658442
 20
81.394392907
 30
0.0
 10
18.437338712
 20
81.4947507287
 30
0.0
 10
18.2554540385
 20
81.611630775
 30
0.0
 10
18.1660219416
 20
81.6813484669
 30
0.0
  0
SPLINE
  5
2F5
100
AcDbEntity
  8
0
100
AcDbSpline
 62
7
  6
BYLAYER
 70
0
 71
3
 72
11
 73
7
 74
0
 42
0.0000001
 43
0.0000001
 44
0.0000000001
 40
0.0
 40
0.0
 40
0.0
 40
0.0
 40
0.3224188959
 40
0.5909275155
 40
0.810745664
 40
1.0
 40
1.0
 40
1.0
 40
1.0
 10
12.8814987982
 20
36.5967167173
 30
0.0
 10
12.8581201923
 20
36.5310839267
 30
0.0
 10
12.8221585341
 20
36.4080009495
 30
0.0
 10
12.8028192413
 20
36.2326823613
 30
0.0
 10
12.8247416281
 20
36.0854094884
 30
0.0
 10
12.8728520132
 20
36.0071762486
 30
0.0
 10
12.9021657137
 20
35.9786591778
 30
0.0
  0
SPLINE
  5
2F6
100
AcDbEntity
  8
0
100
AcDbSpline
 62
7
  6
BYLAYER
 70
0
 71
3
 72
9
 73
5
 74
0
 42
0.0000001
 43
0.0000001
 44
0.0000000001
 40
0.0
 40
0.0
 40
0.0
 40
0.0
 40
0.5069001113
 40
1.0
 40
1.0
 40
1.0
 40
1.0
 10
14.5889370132
 20
80.4086129531
 30
0.0
 10
14.5886302662
 20
80.37403876
 30
0.0
 10
14.5667961081
 20
80.3059200788
 30
0.0
 10
14.5162050874
 20
80.2544915096
 30
0.0
 10
14.4859749442
 20
80.2397469927
 30
0.0
  0
SPLINE
  5
2F7
100
AcDbEntity
  8
0
100
AcDbSpline
 62
7
  6
BYLAYER
 70
0
 71
3
 72
11
 73
7
 74
0
 42
0.0000001
 43
0.0000001
 44
0.0000000001
 40
0.0
 40
0.0
 40
0.0
 40
0.0
 40
0.2177490368
 40
0.4508914017
 40
0.7104631294
 40
1.0
 40
1.0
 40
1.0
 40
1.0
 10
40.5349704702
 20
31.5650479036
 30
0.0
 10
40.5019891769
 20
31.5840892373
 30
0.0
 10
40.4402190075
 20
31.6359008743
 30
0.0
 10
40.3745162571
 20
31.7433868054
 30
0.0
 10
40.3355637623
 20
31.8757986509
 30
0.0
 10
40.3278349209
 20
31.9721551507
 30
0.0
 10
40.3278349209
 20
32.0227938173
 30
0.0
  0
SPLINE
  5
2F8
100
AcDbEntity
  8
0
100
AcDbSpline
 62
7
  6
BYLAYER
 70
0
 71
3
 72
13
 73
9
 74
0
 42
0.0000001
 43
0.0000001
 44
0.0000000001
 40
0.0
 40
0.0
 40
0.0
 40
0.0
 40
0.1370772492
 40
0.2742753391
 40
0.4089644571
 40
0.5393245341
 40
0.7820931298
 40
1.0
 40
1.0
 40
1.0
 40
1.0
 10
20.934706689
 20
79.0883714411
 30
0.0
 10
20.9091896455
 20
79.1828978416
 30
0.0
 10
20.8706482044
 20
79.375674349
 30
0.0
 10
20.8519668892
 20
79.6680136235
 30
0.0
 10
20.8745204341
 20
79.9556860491
 30
0.0
 10
20.9611172253
 20
80.3091100202
 30
0.0
 10
21.1580863882
 20
80.6923059388
 30
0.0
 10
21.4077624378
 20
80.91849078
 30
0.0
 10
21.5395251451
 20
81.0013379062
 30
0.0
  0
SPLINE
  5
2F9
100
AcDbEntity
  8
0
100
AcDbSpline
 62
7
  6
BYLAYER
 70
0
 71
3
 72
11
 73
7
 74
0
 42
0.0000001
 43
0.0000001
 44
0.0000000001
 40
0.0
 40
0.0
 40
0.0
 40
0.0
 40
0.2929129477
 40
0.5530658054
 40
0.7848485593
 40
1.0
 40
1.0
 40
1.0
 40
1.0
 10
11.3743943251
 20
71.2367915176
 30
0.0
 10
11.2897891716
 20
71.2806027835
 30
0.0
 10
11.1358854755
 20
71.3758894037
 30
0.0
 10
10.9487649162
 20
71.5527877909
 30
0.0
 10
10.8264965494
 20
71.7513598462
 30
0.0
 10
10.7935530132
 20
71.8964317085
 30
0.0
 10
10.790495523
 20
71.9663471262
 30
0.0
  0
SPLINE
  5
2FA
100
AcDbEntity
  8
0
100
AcDbSpline
 62
7
  6
BYLAYER
 70
0
 71
3
 72
9
 73
5
 74
0
 42
0.0000001
 43
0.0000001
 44
0.0000000001
 40
0.0
 40
0.0
 40
0.0
 40
0.0
 40
0.2280641285
 40
1.0
 40
1.0
 40
1.0
 40
1.0
 10
14.485973856
 20
80.2397450719
 30
0.0
 10
14.5102167122
 20
80.226251378
 30
0.0
 10
14.6125260691
 20
80.1599091673
 30
0.0
 10
14.6982273242
 20
80.0702933349
 30
0.0
 10
14.7556475412
 20
79.9959830784
 30
0.0
  0
SPLINE
  5
2FB
100
AcDbEntity
  8
0
100
AcDbSpline
 62
7
  6
BYLAYER
 70
0
 71
3
 72
13
 73
9
 74
0
 42
0.0000001
 43
0.0000001
 44
0.0000000001
 40
0.0
 40
0.0
 40
0.0
 40
0.0
 40
0.1107657088
 40
0.2275978147
 40
0.3502104728
 40
0.4777527507
 40
0.7401717741
 40
1.0
 40
1.0
 40
1.0
 40
1.0
 10
12.1968132007
 20
73.8780969705
 30
0.0
 10
12.1020838586
 20
73.8234052875
 30
0.0
 10
11.9200579151
 20
73.6880734124
 30
0.0
 10
11.6884874888
 20
73.4285370026
 30
0.0
 10
11.4994073009
 20
73.117117464
 30
0.0
 10
11.3114562694
 20
72.6450380077
 30
0.0
 10
11.2170848093
 20
72.0001444691
 30
0.0
 10
11.2952414188
 20
71.4808644034
 30
0.0
 10
11.3743943447
 20
71.2367915098
 30
0.0
  0
SPLINE
  5
2FC
100
AcDbEntity
  8
0
100
AcDbSpline
 62
7
  6
BYLAYER
 70
0
 71
3
 72
10
 73
6
 74
0
 42
0.0000001
 43
0.0000001
 44
0.0000000001
 40
0.0
 40
0.0
 40
0.0
 40
0.0
 40
0.468978233
 40
0.7266917836
 40
1.0
 40
1.0
 40
1.0
 40
1.0
 10
12.1968131642
 20
73.8780969483
 30
0.0
 10
13.3863706295
 20
73.8241800206
 30
0.0
 10
15.2217085239
 20
73.44561184
 30
0.0
 10
17.586146159
 20
72.5164489604
 30
0.0
 10
18.7860617832
 20
71.8945490641
 30
0.0
 10
19.3870475141
 20
71.5475776401
 30
0.0
  0
SPLINE
  5
2FD
100
AcDbEntity
  8
0
100
AcDbSpline
 62
7
  6
BYLAYER
 70
0
 71
3
 72
11
 73
7
 74
0
 42
0.0000001
 43
0.0000001
 44
0.0000000001
 40
0.0
 40
0.0
 40
0.0
 40
0.0
 40
0.234192766
 40
0.4798361509
 40
0.7356437778
 40
1.0
 40
1.0
 40
1.0
 40
1.0
 10
19.3870475141
 20
71.5475776401
 30
0.0
 10
20.0213343747
 20
71.1813802349
 30
0.0
 10
21.2855507206
 20
70.3685606295
 30
0.0
 10
23.1114148626
 20
68.9650628903
 30
0.0
 10
24.8938179733
 20
67.3621959451
 30
0.0
 10
26.0237375194
 20
66.1897912842
 30
0.0
 10
26.577281864
 20
65.5757172983
 30
0.0
  0
SPLINE
  5
2FE
100
AcDbEntity
  8
0
100
AcDbSpline
 62
7
  6
BYLAYER
 70
0
 71
3
 72
13
 73
9
 74
0
 42
0.0000001
 43
0.0000001
 44
0.0000000001
 40
0.0
 40
0.0
 40
0.0
 40
0.0
 40
0.1135944174
 40
0.2360105194
 40
0.4968017034
 40
0.7593517055
 40
0.8838151892
 40
1.0
 40
1.0
 40
1.0
 40
1.0
 10
27.3978383776
 20
63.534782341
 30
0.0
 10
27.3012582626
 20
63.4790221196
 30
0.0
 10
27.0896379822
 20
63.3816239583
 30
0.0
 10
26.6199490905
 20
63.2453770793
 30
0.0
 10
25.9815096688
 20
63.1913774987
 30
0.0
 10
25.3456699697
 20
63.2835269994
 30
0.0
 10
24.8781456376
 20
63.4469286066
 30
0.0
 10
24.6674959396
 20
63.5564643262
 30
0.0
 10
24.5712853542
 20
63.6177352955
 30
0.0
  0
SPLINE
  5
2FF
100
AcDbEntity
  8
0
100
AcDbSpline
 62
7
  6
BYLAYER
 70
0
 71
3
 72
14
 73
10
 74
0
 42
0.0000001
 43
0.0000001
 44
0.0000000001
 40
0.0
 40
0.0
 40
0.0
 40
0.0
 40
0.0981077566
 40
0.2123902299
 40
0.3391017112
 40
0.4740271822
 40
0.7492631286
 40
0.8800498752
 40
1.0
 40
1.0
 40
1.0
 40
1.0
 10
24.5712853542
 20
63.6177352955
 30
0.0
 10
24.6138938517
 20
63.6999222657
 30
0.0
 10
24.7187157941
 20
63.8713228406
 30
0.0
 10
24.9095759315
 20
64.1284695536
 30
0.0
 10
25.1408689184
 20
64.3977901787
 30
0.0
 10
25.493747707
 20
64.7615290975
 30
0.0
 10
25.8789375278
 20
65.0984570348
 30
0.0
 10
26.2794216271
 20
65.3919585633
 30
0.0
 10
26.4792598403
 20
65.5191245943
 30
0.0
 10
26.577281864
 20
65.5757172983
 30
0.0
  0
SPLINE
  5
300
100
AcDbEntity
  8
0
100
AcDbSpline
 62
7
  6
BYLAYER
 70
0
 71
3
 72
11
 73
7
 74
0
 42
0.0000001
 43
0.0000001
 44
0.0000000001
 40
0.0
 40
0.0
 40
0.0
 40
0.0
 40
0.2602876576
 40
0.5234452554
 40
0.7742997264
 40
1.0
 40
1.0
 40
1.0
 40
1.0
 10
26.577281864
 20
65.5757172983
 30
0.0
 10
26.7078172687
 20
65.4309079492
 30
0.0
 10
26.9432543473
 20
65.1144185977
 30
0.0
 10
27.2077671133
 20
64.5952630508
 30
0.0
 10
27.3711558858
 20
64.0629222012
 30
0.0
 10
27.4055744058
 20
63.7036583395
 30
0.0
 10
27.3978383924
 20
63.5347823506
 30
0.0
  0
SPLINE
  5
301
100
AcDbEntity
  8
0
100
AcDbSpline
 62
7
  6
BYLAYER
 70
0
 71
3
 72
9
 73
5
 74
0
 42
0.0000001
 43
0.0000001
 44
0.0000000001
 40
0.0
 40
0.0
 40
0.0
 40
0.0
 40
0.2761074337
 40
1.0
 40
1.0
 40
1.0
 40
1.0
 10
14.2730783945
 20
80.355578859
 30
0.0
 10
14.2737770845
 20
80.3559841645
 30
0.0
 10
14.2768542256
 20
80.354008277
 30
0.0
 10
14.2793023119
 20
80.353272809
 30
0.0
 10
14.2812036936
 20
80.3523403708
 30
0.0
  0
SPLINE
  5
302
100
AcDbEntity
  8
0
100
AcDbSpline
 62
7
  6
BYLAYER
 70
0
 71
3
 72
9
 73
5
 74
0
 42
0.0000001
 43
0.0000001
 44
0.0000000001
 40
0.0
 40
0.0
 40
0.0
 40
0.0
 40
0.1471287458
 40
1.0
 40
1.0
 40
1.0
 40
1.0
 10
14.2812036936
 20
80.3523403708
 30
0.0
 10
14.284705463
 20
80.3506231019
 30
0.0
 10
14.3082376609
 20
80.3384112433
 30
0.0
 10
14.3314109727
 20
80.3255331458
 30
0.0
 10
14.3512035592
 20
80.3146063453
 30
0.0
  0
SPLINE
  5
303
100
AcDbEntity
  8
0
100
AcDbSpline
 62
7
  6
BYLAYER
 70
0
 71
3
 72
12
 73
8
 74
0
 42
0.0000001
 43
0.0000001
 44
0.0000000001
 40
0.0
 40
0.0
 40
0.0
 40
0.0
 40
0.0995388089
 40
0.2027358743
 40
0.4302338536
 40
0.6965252674
 40
1.0
 40
1.0
 40
1.0
 40
1.0
 10
13.0179352725
 20
79.6308847494
 30
0.0
 10
13.0410906823
 20
79.6442547137
 30
0.0
 10
13.091757821
 20
79.6658481295
 30
0.0
 10
13.206608205
 20
79.6852309153
 30
0.0
 10
13.3690060403
 20
79.659861284
 30
0.0
 10
13.5627737071
 20
79.5639412902
 30
0.0
 10
13.6827214569
 20
79.4669677468
 30
0.0
 10
13.741466115
 20
79.4104478828
 30
0.0
  0
SPLINE
  5
304
100
AcDbEntity
  8
0
100
AcDbSpline
 62
7
  6
BYLAYER
 70
0
 71
3
 72
11
 73
7
 74
0
 42
0.0000001
 43
0.0000001
 44
0.0000000001
 40
0.0
 40
0.0
 40
0.0
 40
0.0
 40
0.2367933864
 40
0.4821010584
 40
0.7366705748
 40
1.0
 40
1.0
 40
1.0
 40
1.0
 10
37.042735131
 20
69.1032413277
 30
0.0
 10
37.2194692666
 20
69.2052775663
 30
0.0
 10
37.6016951307
 20
69.3760954972
 30
0.0
 10
38.2231734191
 20
69.5218407882
 30
0.0
 10
38.8833215013
 20
69.5549847109
 30
0.0
 10
39.3289230757
 20
69.5027076206
 30
0.0
 10
39.5515144524
 20
69.4584746103
 30
0.0
  0
SPLINE
  5
305
100
AcDbEntity
  8
0
100
AcDbSpline
 62
7
  6
BYLAYER
 70
0
 71
3
 72
11
 73
7
 74
0
 42
0.0000001
 43
0.0000001
 44
0.0000000001
 40
0.0
 40
0.0
 40
0.0
 40
0.0
 40
0.2337593829
 40
0.4797591569
 40
0.7358361229
 40
1.0
 40
1.0
 40
1.0
 40
1.0
 10
39.5515143935
 20
69.4584744833
 30
0.0
 10
40.0281205901
 20
69.3637134475
 30
0.0
 10
40.977829306
 20
69.0015262609
 30
0.0
 10
42.2062695565
 20
68.0622908912
 30
0.0
 10
43.2149842193
 20
66.8139249036
 30
0.0
 10
43.7255300223
 20
65.8539119915
 30
0.0
 10
43.9467519193
 20
65.3513035283
 30
0.0
  0
SPLINE
  5
306
100
AcDbEntity
  8
0
100
AcDbSpline
 62
7
  6
BYLAYER
 70
0
 71
3
 72
13
 73
9
 74
0
 42
0.0000001
 43
0.0000001
 44
0.0000000001
 40
0.0
 40
0.0
 40
0.0
 40
0.0
 40
0.2035203101
 40
0.3173728584
 40
0.4398024186
 40
0.5706844683
 40
0.7089686478
 40
1.0
 40
1.0
 40
1.0
 40
1.0
 10
42.7643851138
 20
39.5405374782
 30
0.0
 10
42.4882332371
 20
39.322224795
 30
0.0
 10
42.0262114878
 20
39.0208218145
 30
0.0
 10
41.3533472263
 20
38.6658166062
 30
0.0
 10
40.7770669032
 20
38.398243196
 30
0.0
 10
40.1518107768
 20
38.137551988
 30
0.0
 10
39.2484201273
 20
37.7870189987
 30
0.0
 10
38.5509906293
 20
37.5319427413
 30
0.0
 10
38.08076276
 20
37.352260637
 30
0.0
  0
SPLINE
  5
307
100
AcDbEntity
  8
0
100
AcDbSpline
 62
7
  6
BYLAYER
 70
0
 71
3
 72
10
 73
6
 74
0
 42
0.0000001
 43
0.0000001
 44
0.0000000001
 40
0.0
 40
0.0
 40
0.0
 40
0.0
 40
0.5256742672
 40
0.772461458
 40
1.0
 40
1.0
 40
1.0
 40
1.0
 10
38.0807633414
 20
37.3522592349
 30
0.0
 10
37.6232760002
 20
37.1774448059
 30
0.0
 10
36.9538354446
 20
36.9118346688
 30
0.0
 10
36.1098171486
 20
36.5167135495
 30
0.0
 10
35.7192192528
 20
36.3093617475
 30
0.0
 10
35.5356301447
 20
36.2033702986
 30
0.0
  0
SPLINE
  5
308
100
AcDbEntity
  8
0
100
AcDbSpline
 62
7
  6
BYLAYER
 70
0
 71
3
 72
9
 73
5
 74
0
 42
0.0000001
 43
0.0000001
 44
0.0000000001
 40
0.0
 40
0.0
 40
0.0
 40
0.0
 40
0.4891734821
 40
1.0
 40
1.0
 40
1.0
 40
1.0
 10
14.3438073948
 20
80.4656881771
 30
0.0
 10
14.3442389023
 20
80.4702818155
 30
0.0
 10
14.347390028
 20
80.4800046096
 30
0.0
 10
14.3564225887
 20
80.4848424639
 30
0.0
 10
14.3610507441
 20
80.4861819348
 30
0.0
  0
SPLINE
  5
309
100
AcDbEntity
  8
0
100
AcDbSpline
 62
7
  6
BYLAYER
 70
0
 71
3
 72
9
 73
5
 74
0
 42
0.0000001
 43
0.0000001
 44
0.0000000001
 40
0.0
 40
0.0
 40
0.0
 40
0.0
 40
0.3760099278
 40
1.0
 40
1.0
 40
1.0
 40
1.0
 10
14.3610507441
 20
80.4861819348
 30
0.0
 10
14.371743595
 20
80.4892766368
 30
0.0
 10
14.4024217802
 20
80.4865456403
 30
0.0
 10
14.4304893253
 20
80.4779573626
 30
0.0
 10
14.4479147229
 20
80.4718246894
 30
0.0
  0
SPLINE
  5
30A
100
AcDbEntity
  8
0
100
AcDbSpline
 62
7
  6
BYLAYER
 70
0
 71
3
 72
9
 73
5
 74
0
 42
0.0000001
 43
0.0000001
 44
0.0000000001
 40
0.0
 40
0.0
 40
0.0
 40
0.0
 40
0.2028724309
 40
1.0
 40
1.0
 40
1.0
 40
1.0
 10
14.4479147229
 20
80.4718246894
 30
0.0
 10
14.4577771343
 20
80.4683537243
 30
0.0
 10
14.5059037641
 20
80.4498636575
 30
0.0
 10
14.5523850997
 20
80.4273608997
 30
0.0
 10
14.5889383379
 20
80.4086116566
 30
0.0
  0
SPLINE
  5
30B
100
AcDbEntity
  8
0
100
AcDbSpline
 62
7
  6
BYLAYER
 70
0
 71
3
 72
21
 73
17
 74
0
 42
0.0000001
 43
0.0000001
 44
0.0000000001
 40
0.0
 40
0.0
 40
0.0
 40
0.0
 40
0.1574431906
 40
0.3101370015
 40
0.3835137778
 40
0.4543092769
 40
0.5221742042
 40
0.5868405283
 40
0.648143046
 40
0.7060383073
 40
0.7606292532
 40
0.8121906573
 40
0.8611815702
 40
0.9082495384
 40
0.9542245703
 40
1.0
 40
1.0
 40
1.0
 40
1.0
 10
43.9467456881
 20
65.3513022233
 30
0.0
 10
44.6842597781
 20
64.0377542774
 30
0.0
 10
45.9876998825
 20
61.3632210835
 30
0.0
 10
47.1909873953
 20
57.8856454286
 30
0.0
 10
47.846968816
 20
55.1199355654
 30
0.0
 10
48.1746349585
 20
53.1158884942
 30
0.0
 10
48.3410940299
 20
51.175507759
 30
0.0
 10
48.3444793965
 20
49.3184990416
 30
0.0
 10
48.1845614206
 20
47.5637370887
 30
0.0
 10
47.8624523621
 20
45.929002772
 30
0.0
 10
47.3806819149
 20
44.4309482531
 30
0.0
 10
46.7431405615
 20
43.0851165569
 30
0.0
 10
45.955152105
 20
41.9061863606
 30
0.0
 10
45.0236467134
 20
40.907798924
 30
0.0
 10
43.9586925039
 20
40.1030735682
 30
0.0
 10
43.1708188273
 20
39.7037585069
 30
0.0
 10
42.7643844939
 20
39.5405384403
 30
0.0
  0
SPLINE
  5
30C
100
AcDbEntity
  8
0
100
AcDbSpline
 62
7
  6
BYLAYER
 70
0
 71
3
 72
18
 73
14
 74
0
 42
0.0000001
 43
0.0000001
 44
0.0000000001
 40
0.0
 40
0.0
 40
0.0
 40
0.0
 40
0.0571267877
 40
0.1187877397
 40
0.2530197169
 40
0.3965083421
 40
0.541476559
 40
0.6797453204
 40
0.8041147843
 40
0.8596874828
 40
0.9105034398
 40
0.9569654496
 40
1.0
 40
1.0
 40
1.0
 40
1.0
 10
18.1660224152
 20
81.6813486694
 30
0.0
 10
18.0915052223
 20
81.7394639131
 30
0.0
 10
17.9456774131
 20
81.8722315643
 30
0.0
 10
17.6719668247
 20
82.1898606927
 30
0.0
 10
17.3766445093
 20
82.6718747932
 30
0.0
 10
17.1164858294
 20
83.3238876425
 30
0.0
 10
16.9605166773
 20
84.0155700494
 30
0.0
 10
16.9218531377
 20
84.6918270285
 30
0.0
 10
16.9935590921
 20
85.2184303469
 30
0.0
 10
17.1191071548
 20
85.580204709
 30
0.0
 10
17.2390854701
 20
85.8042440796
 30
0.0
 10
17.386016019
 20
85.9858688267
 30
0.0
 10
17.503792423
 20
86.078415899
 30
0.0
 10
17.5651371426
 20
86.1145349059
 30
0.0
  0
SPLINE
  5
30D
100
AcDbEntity
  8
0
100
AcDbSpline
 62
7
  6
BYLAYER
 70
0
 71
3
 72
11
 73
7
 74
0
 42
0.0000001
 43
0.0000001
 44
0.0000000001
 40
0.0
 40
0.0
 40
0.0
 40
0.0
 40
0.2224264136
 40
0.4863015889
 40
0.7585876982
 40
1.0
 40
1.0
 40
1.0
 40
1.0
 10
18.1660222034
 20
81.6813485485
 30
0.0
 10
18.1008443435
 20
81.651523848
 30
0.0
 10
17.967951468
 20
81.564675216
 30
0.0
 10
17.7995301258
 20
81.3845067118
 30
0.0
 10
17.6738680336
 20
81.1651041561
 30
0.0
 10
17.6291486222
 20
81.0030498736
 30
0.0
 10
17.6210226472
 20
80.9256796582
 30
0.0
  0
SPLINE
  5
30E
100
AcDbEntity
  8
0
100
AcDbSpline
 62
7
  6
BYLAYER
 70
0
 71
3
 72
13
 73
9
 74
0
 42
0.0000001
 43
0.0000001
 44
0.0000000001
 40
0.0
 40
0.0
 40
0.0
 40
0.0
 40
0.3069371842
 40
0.5821965926
 40
0.7026272257
 40
0.8106595691
 40
0.9083649208
 40
1.0
 40
1.0
 40
1.0
 40
1.0
 10
48.4042788612
 20
33.0064087357
 30
0.0
 10
48.4627099886
 20
32.897766813
 30
0.0
 10
48.5522381162
 20
32.6794475766
 30
0.0
 10
48.5957731248
 20
32.3961982021
 30
0.0
 10
48.575290483
 20
32.193687942
 30
0.0
 10
48.5352959257
 20
32.067620816
 30
0.0
 10
48.4705479927
 20
31.9653101746
 30
0.0
 10
48.4107328442
 20
31.9157394053
 30
0.0
 10
48.3788565614
 20
31.8972943729
 30
0.0
  0
SPLINE
  5
30F
100
AcDbEntity
  8
0
100
AcDbSpline
 62
7
  6
BYLAYER
 70
0
 71
3
 72
9
 73
5
 74
0
 42
0.0000001
 43
0.0000001
 44
0.0000000001
 40
0.0
 40
0.0
 40
0.0
 40
0.0
 40
0.4922419187
 40
1.0
 40
1.0
 40
1.0
 40
1.0
 10
47.3223885188
 20
32.4272204367
 30
0.0
 10
47.5030894335
 20
32.516100363
 30
0.0
 10
47.8658166327
 20
32.7054638412
 30
0.0
 10
48.2243842553
 20
32.9025471565
 30
0.0
 10
48.4042788612
 20
33.0064087357
 30
0.0
  0
SPLINE
  5
310
100
AcDbEntity
  8
0
100
AcDbSpline
 62
7
  6
BYLAYER
 70
0
 71
3
 72
9
 73
5
 74
0
 42
0.0000001
 43
0.0000001
 44
0.0000000001
 40
0.0
 40
0.0
 40
0.0
 40
0.0
 40
0.224139537
 40
1.0
 40
1.0
 40
1.0
 40
1.0
 10
47.1717726788
 20
32.3550462528
 30
0.0
 10
47.183097468
 20
32.3602865488
 30
0.0
 10
47.2335267666
 20
32.3838743124
 30
0.0
 10
47.2836290955
 20
32.4081561465
 30
0.0
 10
47.3223885188
 20
32.4272204367
 30
0.0
  0
SPLINE
  5
311
100
AcDbEntity
  8
0
100
AcDbSpline
 62
7
  6
BYLAYER
 70
0
 71
3
 72
13
 73
9
 74
0
 42
0.0000001
 43
0.0000001
 44
0.0000000001
 40
0.0
 40
0.0
 40
0.0
 40
0.0
 40
0.3150101075
 40
0.5884769649
 40
0.7056714996
 40
0.8103655828
 40
0.9063422186
 40
1.0
 40
1.0
 40
1.0
 40
1.0
 10
49.8615252712
 20
33.8477460047
 30
0.0
 10
49.9347323265
 20
33.7507141043
 30
0.0
 10
50.053681464
 20
33.5551758207
 30
0.0
 10
50.135509823
 20
33.2903181432
 30
0.0
 10
50.1378600784
 20
33.0978113711
 30
0.0
 10
50.1097619534
 20
32.9768684372
 30
0.0
 10
50.0513327436
 20
32.8771566898
 30
0.0
 10
49.9935258528
 20
32.8295231129
 30
0.0
 10
49.9622366818
 20
32.8114397049
 30
0.0
  0
SPLINE
  5
312
100
AcDbEntity
  8
0
100
AcDbSpline
 62
7
  6
BYLAYER
 70
0
 71
3
 72
9
 73
5
 74
0
 42
0.0000001
 43
0.0000001
 44
0.0000000001
 40
0.0
 40
0.0
 40
0.0
 40
0.0
 40
0.5466630065
 40
1.0
 40
1.0
 40
1.0
 40
1.0
 10
50.0786284738
 20
32.7381321248
 30
0.0
 10
50.0644831711
 20
32.7585139753
 30
0.0
 10
50.0304063776
 20
32.7912634184
 30
0.0
 10
49.9842321398
 20
32.8037301579
 30
0.0
 10
49.9636716137
 20
32.8029855631
 30
0.0
  0
SPLINE
  5
313
100
AcDbEntity
  8
0
100
AcDbSpline
 62
7
  6
BYLAYER
 70
0
 71
3
 72
10
 73
6
 74
0
 42
0.0000001
 43
0.0000001
 44
0.0000000001
 40
0.0
 40
0.0
 40
0.0
 40
0.0
 40
0.5358276587
 40
0.7790432882
 40
1.0
 40
1.0
 40
1.0
 40
1.0
 10
49.8615233409
 20
33.8477441903
 30
0.0
 10
49.8895152353
 20
33.8722814859
 30
0.0
 10
49.9328207653
 20
33.9050382441
 30
0.0
 10
49.9909312176
 20
33.9430627462
 30
0.0
 10
50.0189856149
 20
33.9591310447
 30
0.0
 10
50.0328946806
 20
33.9656238599
 30
0.0
  0
SPLINE
  5
314
100
AcDbEntity
  8
0
100
AcDbSpline
 62
7
  6
BYLAYER
 70
0
 71
3
 72
11
 73
7
 74
0
 42
0.0000001
 43
0.0000001
 44
0.0000000001
 40
0.0
 40
0.0
 40
0.0
 40
0.0
 40
0.2275627349
 40
0.4664028926
 40
0.7236201871
 40
1.0
 40
1.0
 40
1.0
 40
1.0
 10
42.0049982779
 20
31.0610044801
 30
0.0
 10
41.9378719389
 20
31.0679682984
 30
0.0
 10
41.80187769
 20
31.1078662859
 30
0.0
 10
41.6253536564
 20
31.2360100094
 30
0.0
 10
41.4856897759
 20
31.4211189756
 30
0.0
 10
41.4242731929
 20
31.5688019611
 30
0.0
 10
41.4011006098
 20
31.6474220229
 30
0.0
  0
SPLINE
  5
315
100
AcDbEntity
  8
0
100
AcDbSpline
 62
7
  6
BYLAYER
 70
0
 71
3
 72
15
 73
11
 74
0
 42
0.0000001
 43
0.0000001
 44
0.0000000001
 40
0.0
 40
0.0
 40
0.0
 40
0.0
 40
0.1114025775
 40
0.221698282
 40
0.3338843446
 40
0.4508012985
 40
0.5746823263
 40
0.7070472365
 40
0.8487784749
 40
1.0
 40
1.0
 40
1.0
 40
1.0
 10
74.6731324301
 20
59.699272775
 30
0.0
 10
75.1419857303
 20
59.8174700101
 30
0.0
 10
76.0552193612
 20
60.1442282448
 30
0.0
 10
77.2989125965
 20
60.9073611124
 30
0.0
 10
78.3782925308
 20
61.9243815142
 30
0.0
 10
79.2767716743
 20
63.1758639891
 30
0.0
 10
79.983501878
 20
64.6410877393
 30
0.0
 10
80.4915262373
 20
66.2981147045
 30
0.0
 10
80.7955530969
 20
68.1235127765
 30
0.0
 10
80.8586317628
 20
69.3963643464
 30
0.0
 10
80.8586317628
 20
70.0527136948
 30
0.0
  0
SPLINE
  5
316
100
AcDbEntity
  8
0
100
AcDbSpline
 62
7
  6
BYLAYER
 70
0
 71
3
 72
14
 73
10
 74
0
 42
0.0000001
 43
0.0000001
 44
0.0000000001
 40
0.0
 40
0.0
 40
0.0
 40
0.0
 40
0.1470458959
 40
0.2871986526
 40
0.5464727509
 40
0.6667473084
 40
0.7816372707
 40
0.8922596838
 40
1.0
 40
1.0
 40
1.0
 40
1.0
 10
82.7931781316
 20
70.3511541969
 30
0.0
 10
82.7931781316
 20
69.8265476905
 30
0.0
 10
82.7542773809
 20
68.8011037075
 30
0.0
 10
82.515445657
 20
66.8650621393
 30
0.0
 10
82.0352667425
 20
65.0572745215
 30
0.0
 10
81.2878411891
 20
63.4551916275
 30
0.0
 10
80.6261766106
 20
62.4094989491
 30
0.0
 10
79.8547570684
 20
61.499720254
 30
0.0
 10
79.2657551493
 20
60.9844141654
 30
0.0
 10
78.9576377729
 20
60.7546088974
 30
0.0
  0
SPLINE
  5
317
100
AcDbEntity
  8
0
100
AcDbSpline
 62
7
  6
BYLAYER
 70
0
 71
3
 72
16
 73
12
 74
0
 42
0.0000001
 43
0.0000001
 44
0.0000000001
 40
0.0
 40
0.0
 40
0.0
 40
0.0
 40
0.0559115828
 40
0.1143281224
 40
0.2374957703
 40
0.3670839732
 40
0.5000132707
 40
0.6329468545
 40
0.7625461429
 40
0.8857376397
 40
1.0
 40
1.0
 40
1.0
 40
1.0
 10
83.5638107534
 20
70.8637948039
 30
0.0
 10
83.5618528464
 20
71.4634539505
 30
0.0
 10
83.5050480892
 20
72.6899408343
 30
0.0
 10
83.1928274265
 20
75.2198448954
 30
0.0
 10
82.4294149559
 20
78.4799381376
 30
0.0
 10
80.9953217818
 20
82.3696527386
 30
0.0
 10
79.0792547601
 20
86.1636612803
 30
0.0
 10
76.7526798317
 20
89.720563019
 30
0.0
 10
74.1012699768
 20
92.9090745809
 30
0.0
 10
71.2239579602
 20
95.610692906
 30
0.0
 10
69.1328862537
 20
97.0853783718
 30
0.0
 10
68.0738483493
 20
97.702025319
 30
0.0
  0
SPLINE
  5
318
100
AcDbEntity
  8
0
100
AcDbSpline
 62
7
  6
BYLAYER
 70
0
 71
3
 72
9
 73
5
 74
0
 42
0.0000001
 43
0.0000001
 44
0.0000000001
 40
0.0
 40
0.0
 40
0.0
 40
0.0
 40
0.5187693172
 40
1.0
 40
1.0
 40
1.0
 40
1.0
 10
67.354234241
 20
98.1017856434
 30
0.0
 10
66.6902219738
 20
98.452895184
 30
0.0
 10
65.369706531
 20
99.0569512126
 30
0.0
 10
63.9765156498
 20
99.4738507056
 30
0.0
 10
63.2946541707
 20
99.6172334761
 30
0.0
  0
SPLINE
  5
319
100
AcDbEntity
  8
0
100
AcDbSpline
 62
7
  6
BYLAYER
 70
0
 71
3
 72
9
 73
5
 74
0
 42
0.0000001
 43
0.0000001
 44
0.0000000001
 40
0.0
 40
0.0
 40
0.0
 40
0.0
 40
0.5030873324
 40
1.0
 40
1.0
 40
1.0
 40
1.0
 10
58.886050779
 20
99.5947439446
 30
0.0
 10
58.5559952945
 20
99.509435418
 30
0.0
 10
57.9101887904
 20
99.2968768973
 30
0.0
 10
57.2991630238
 20
98.9983829396
 30
0.0
 10
57.0075566065
 20
98.8300242394
 30
0.0
  0
SPLINE
  5
31A
100
AcDbEntity
  8
0
100
AcDbSpline
 62
7
  6
BYLAYER
 70
0
 71
3
 72
11
 73
7
 74
0
 42
0.0000001
 43
0.0000001
 44
0.0000000001
 40
0.0
 40
0.0
 40
0.0
 40
0.0
 40
0.2415307239
 40
0.5013727723
 40
0.7604726986
 40
1.0
 40
1.0
 40
1.0
 40
1.0
 10
16.9213888218
 20
98.1332703607
 30
0.0
 10
16.8213620799
 20
98.0864153519
 30
0.0
 10
16.6289043855
 20
97.9556704604
 30
0.0
 10
16.3941921338
 20
97.6952730518
 30
0.0
 10
16.2231592339
 20
97.3903023142
 30
0.0
 10
16.1618658272
 20
97.1670511782
 30
0.0
 10
16.1503200214
 20
97.0581205946
 30
0.0
  0
SPLINE
  5
31B
100
AcDbEntity
  8
0
100
AcDbSpline
 62
7
  6
BYLAYER
 70
0
 71
3
 72
11
 73
7
 74
0
 42
0.0000001
 43
0.0000001
 44
0.0000000001
 40
0.0
 40
0.0
 40
0.0
 40
0.0
 40
0.2537770877
 40
0.4936968373
 40
0.7353506195
 40
1.0
 40
1.0
 40
1.0
 40
1.0
 10
74.6731324301
 20
59.699272775
 30
0.0
 10
74.7139463941
 20
59.6220064241
 30
0.0
 10
74.8104358658
 20
59.4793660191
 30
0.0
 10
75.0117081487
 20
59.3180359608
 30
0.0
 10
75.2619718064
 20
59.2378088935
 30
0.0
 10
75.4399388526
 20
59.2478925588
 30
0.0
 10
75.5292866256
 20
59.2658126435
 30
0.0
  0
SPLINE
  5
31C
100
AcDbEntity
  8
0
100
AcDbSpline
 62
7
  6
BYLAYER
 70
0
 71
3
 72
11
 73
7
 74
0
 42
0.0000001
 43
0.0000001
 44
0.0000000001
 40
0.0
 40
0.0
 40
0.0
 40
0.0
 40
0.2968066934
 40
0.5579810088
 40
0.7881059454
 40
1.0
 40
1.0
 40
1.0
 40
1.0
 10
16.1503200214
 20
97.0581205946
 30
0.0
 10
16.1151308633
 20
97.083004548
 30
0.0
 10
16.0522068058
 20
97.134780092
 30
0.0
 10
15.9791401783
 20
97.2240884099
 30
0.0
 10
15.9363711302
 20
97.3183979603
 30
0.0
 10
15.9304195249
 20
97.383877613
 30
0.0
 10
15.9332927253
 20
97.4145117932
 30
0.0
  0
SPLINE
  5
31D
100
AcDbEntity
  8
0
100
AcDbSpline
 62
7
  6
BYLAYER
 70
0
 71
3
 72
12
 73
8
 74
0
 42
0.0000001
 43
0.0000001
 44
0.0000000001
 40
0.0
 40
0.0
 40
0.0
 40
0.0
 40
0.1134434215
 40
0.2286355314
 40
0.4687933904
 40
0.7272510792
 40
1.0
 40
1.0
 40
1.0
 40
1.0
 10
48.2475522036
 20
31.833785401
 30
0.0
 10
48.201723493
 20
31.8156323388
 30
0.0
 10
48.1049205221
 20
31.7892584042
 30
0.0
 10
47.9000182402
 20
31.7800859313
 30
0.0
 10
47.6359747679
 20
31.8548438666
 30
0.0
 10
47.3622479162
 20
32.0582466734
 30
0.0
 10
47.2259337516
 20
32.2496321716
 30
0.0
 10
47.1717726788
 20
32.3550462528
 30
0.0
  0
SPLINE
  5
31E
100
AcDbEntity
  8
0
100
AcDbSpline
 62
7
  6
BYLAYER
 70
0
 71
3
 72
11
 73
7
 74
0
 42
0.0000001
 43
0.0000001
 44
0.0000000001
 40
0.0
 40
0.0
 40
0.0
 40
0.0
 40
0.2362333135
 40
0.4814194929
 40
0.7373512269
 40
1.0
 40
1.0
 40
1.0
 40
1.0
 10
18.2649346541
 20
85.9426246804
 30
0.0
 10
18.2381441834
 20
85.9622267699
 30
0.0
 10
18.1907131214
 20
86.0125886888
 30
0.0
 10
18.1456755326
 20
86.1074320818
 30
0.0
 10
18.1268128161
 20
86.2140923767
 30
0.0
 10
18.1285577396
 20
86.2873631351
 30
0.0
 10
18.1324128706
 20
86.3240691459
 30
0.0
  0
SPLINE
  5
31F
100
AcDbEntity
  8
0
100
AcDbSpline
 62
7
  6
BYLAYER
 70
0
 71
3
 72
10
 73
6
 74
0
 42
0.0000001
 43
0.0000001
 44
0.0000000001
 40
0.0
 40
0.0
 40
0.0
 40
0.0
 40
0.2386826717
 40
0.4811150296
 40
1.0
 40
1.0
 40
1.0
 40
1.0
 10
14.9059683436
 20
80.1322717225
 30
0.0
 10
14.8995869213
 20
80.1171232626
 30
0.0
 10
14.8812813543
 20
80.0888961658
 30
0.0
 10
14.8337828793
 20
80.039063299
 30
0.0
 10
14.7889450237
 20
80.0089627406
 30
0.0
 10
14.7556504169
 20
79.995984051
 30
0.0
  0
SPLINE
  5
320
100
AcDbEntity
  8
0
100
AcDbSpline
 62
7
  6
BYLAYER
 70
0
 71
3
 72
11
 73
7
 74
0
 42
0.0000001
 43
0.0000001
 44
0.0000000001
 40
0.0
 40
0.0
 40
0.0
 40
0.0
 40
0.2896296133
 40
0.5491016517
 40
0.7822257068
 40
1.0
 40
1.0
 40
1.0
 40
1.0
 10
74.1947380637
 20
52.8525218299
 30
0.0
 10
74.1947380637
 20
52.7512121947
 30
0.0
 10
74.1793302188
 20
52.558493497
 30
0.0
 10
74.1013424026
 20
52.2937005072
 30
0.0
 10
73.9699469995
 20
52.0787704552
 30
0.0
 10
73.8464356846
 20
51.9751208731
 30
0.0
 10
73.7804846554
 20
51.9370007455
 30
0.0
  0
SPLINE
  5
321
100
AcDbEntity
  8
0
100
AcDbSpline
 62
7
  6
BYLAYER
 70
0
 71
3
 72
9
 73
5
 74
0
 42
0.0000001
 43
0.0000001
 44
0.0000000001
 40
0.0
 40
0.0
 40
0.0
 40
0.0
 40
0.2592149641
 40
1.0
 40
1.0
 40
1.0
 40
1.0
 10
17.3299361833
 20
76.9844597016
 30
0.0
 10
17.3126916689
 20
77.0277887248
 30
0.0
 10
17.2404918058
 20
77.1925499081
 30
0.0
 10
17.145927297
 20
77.3481268208
 30
0.0
 10
17.0623771055
 20
77.4519576614
 30
0.0
  0
SPLINE
  5
322
100
AcDbEntity
  8
0
100
AcDbSpline
 62
7
  6
BYLAYER
 70
0
 71
3
 72
25
 73
21
 74
0
 42
0.0000001
 43
0.0000001
 44
0.0000000001
 40
0.0
 40
0.0
 40
0.0
 40
0.0
 40
0.0213464648
 40
0.0428950656
 40
0.0648658239
 40
0.0874587599
 40
0.1350953982
 40
0.1868443128
 40
0.2431444126
 40
0.3039870425
 40
0.3690111695
 40
0.4375891697
 40
0.5088985262
 40
0.5819822144
 40
0.6558018426
 40
0.729285907
 40
0.801379408
 40
0.871085173
 40
0.9375322742
 40
1.0
 40
1.0
 40
1.0
 40
1.0
 10
55.9110153284
 20
91.1795158968
 30
0.0
 10
56.1054486552
 20
91.2959913391
 30
0.0
 10
56.5116926979
 20
91.505154945
 30
0.0
 10
57.1608070789
 20
91.7404705298
 30
0.0
 10
57.8469286694
 20
91.8969254136
 30
0.0
 10
58.8223070174
 20
92.0009209246
 30
0.0
 10
60.1251004269
 20
91.91941911
 30
0.0
 10
61.7337125077
 20
91.5062159465
 30
0.0
 10
63.3844838529
 20
90.7894890907
 30
0.0
 10
65.0437316928
 20
89.7858763258
 30
0.0
 10
66.6777220246
 20
88.5172388088
 30
0.0
 10
68.2522362029
 20
87.0106584839
 30
0.0
 10
69.7339132356
 20
85.2983235842
 30
0.0
 10
71.0910812289
 20
83.4169168748
 30
0.0
 10
72.2945993659
 20
81.4068424733
 30
0.0
 10
73.3186278782
 20
79.3113025437
 30
0.0
 10
74.1410904119
 20
77.1753624509
 30
0.0
 10
74.744462842
 20
75.0446214945
 30
0.0
 10
75.1155724312
 20
72.9650328368
 30
0.0
 10
75.2058230685
 20
71.5953315696
 30
0.0
 10
75.2058230685
 20
70.9320650164
 30
0.0
  0
SPLINE
  5
323
100
AcDbEntity
  8
0
100
AcDbSpline
 62
7
  6
BYLAYER
 70
0
 71
3
 72
15
 73
11
 74
0
 42
0.0000001
 43
0.0000001
 44
0.0000000001
 40
0.0
 40
0.0
 40
0.0
 40
0.0
 40
0.1488171606
 40
0.2898777426
 40
0.4230867318
 40
0.5488893922
 40
0.6680893394
 40
0.7818760045
 40
0.891866237
 40
1.0
 40
1.0
 40
1.0
 40
1.0
 10
75.2058230685
 20
70.9320650164
 30
0.0
 10
75.2058230685
 20
70.5113072803
 30
0.0
 10
75.1713607485
 20
69.6911413234
 30
0.0
 10
75.0074854412
 20
68.5042404012
 30
0.0
 10
74.7335787551
 20
67.4042581291
 30
0.0
 10
74.3518972975
 20
66.4022992295
 30
0.0
 10
73.8656252445
 20
65.5081733297
 30
0.0
 10
73.2783551017
 20
64.7315047523
 30
0.0
 10
72.5959723654
 20
64.081238714
 30
0.0
 10
72.0804260468
 20
63.7362169162
 30
0.0
 10
71.8125695491
 20
63.5888237563
 30
0.0
  0
SPLINE
  5
324
100
AcDbEntity
  8
0
100
AcDbSpline
 62
7
  6
BYLAYER
 70
0
 71
3
 72
9
 73
5
 74
0
 42
0.0000001
 43
0.0000001
 44
0.0000000001
 40
0.0
 40
0.0
 40
0.0
 40
0.0
 40
0.2550291093
 40
1.0
 40
1.0
 40
1.0
 40
1.0
 10
39.1770108439
 20
83.0455803062
 30
0.0
 10
38.8682677527
 20
83.1865078009
 30
0.0
 10
37.6639247673
 20
83.7526931484
 30
0.0
 10
36.4853588792
 20
84.3741416573
 30
0.0
 10
35.6268585859
 20
84.8699506503
 30
0.0
  0
ELLIPSE
  5
325
100
AcDbEntity
  8
0
100
AcDbEllipse
 62
7
  6
BYLAYER
 10
70.9774744274
 20
81.4925471446
 30
0.0
 11
-0.4999977601
 21
0.866026697
 31
0.0
 40
0.5774217913
 41
-2.3561295675
 42
-0.7854458018
  0
ELLIPSE
  5
326
100
AcDbEntity
  8
0
100
AcDbEllipse
 62
7
  6
BYLAYER
 10
29.9651899686
 20
105.1704649508
 30
0.0
 11
-0.5000540465
 21
0.8661241817
 31
0.0
 40
0.5772918155
 41
-0.7853332446
 42
0.0106087383
  0
ELLIPSE
  5
327
100
AcDbEntity
  8
0
100
AcDbEllipse
 62
7
  6
BYLAYER
 10
70.9774744274
 20
34.1354988653
 30
0.0
 11
-0.5000540465
 21
0.8661241817
 31
0.0
 40
0.5772918155
 41
-3.1522013934
 42
-2.3562421325
  0
ENDSEC
  0
SECTION
  2
OBJECTS
  0
DICTIONARY
  5
C
100
AcDbDictionary
280
0
281
1
  3
ACAD_GROUP
350
D
  3
ACAD_MLINESTYLE
350
17
  3
ACAD_LAYOUT
350
1A
  3
ACAD_PLOTSETTINGS
350
19
  3
ACAD_PLOTSTYLENAME
350
E
  0
DICTIONARY
  5
D
102
{ACAD_REACTORS
330
C
102
}
100
AcDbDictionary
280
0
281
1
  0
ACDBDICTIONARYWDFLT
  5
E
102
{ACAD_REACTORS
330
C
102
}
100
AcDbDictionary
281
1
  3
Normal
350
F
100
AcDbDictionaryWithDefault
340
F
  0
DICTIONARY
  5
17
102
{ACAD_REACTORS
330
C
102
}
100
AcDbDictionary
280
0
281
1
  3
Standard
350
18
  0
DICTIONARY
  5
19
102
{ACAD_REACTORS
330
C
102
}
100
AcDbDictionary
281
1
  0
DICTIONARY
  5
1A
102
{ACAD_REACTORS
330
C
102
}
100
AcDbDictionary
281
1
  3
Model
350
328
  3
Layout1
350
329
  0
ACDBPLACEHOLDER
  5
F
102
{ACAD_REACTORS
330
E
102
}
  0
MLINESTYLE
  5
18
102
{ACAD_REACTORS
330
17
102
}
100
AcDbMlineStyle
  2
STANDARD
 70
0
  3

 62
256
 51
90.0
 52
90.0
 71
2
 49
0.5
 62
256
  6
BYLAYER
 49
-0.5
 62
256
  6
BYLAYER
  0
LAYOUT
  5
328
102
{ACAD_REACTORS
330
1A
102
}
100
AcDbPlotSettings
  1

  2
none_device
  4

  6

 40
0.0
 41
0.0
 42
0.0
 43
0.0
 44
210.0
 45
297.0
 46
0.0
 47
0.0
 48
0.0
 49
0.0
140
0.0
141
0.0
142
1.0
143
1.0
 70
1024
 72
1
 73
0
 74
0
  7

 75
0
147
1.0
148
0.0
149
0.0
100
AcDbLayout
  1
Model
 70
0
 71
0
 10
0.0
 20
0.0
 11
210.0
 21
297.0
 12
0.0
 22
0.0
 32
0.0
 14
0.0
 24
0.0
 34
0.0
 15
0.0
 25
0.0
 35
0.0
146
0.0
 13
0.0
 23
0.0
 33
0.0
 16
1.0
 26
0.0
 36
0.0
 17
0.0
 27
1.0
 37
0.0
 76
0
330
210
345
0
346
0
  0
LAYOUT
  5
329
102
{ACAD_REACTORS
330
1A
102
}
100
AcDbPlotSettings
  1

  2
none_device
  4

  6

 40
0.0
 41
0.0
 42
0.0
 43
0.0
 44
210.0
 45
297.0
 46
0.0
 47
0.0
 48
0.0
 49
0.0
140
0.0
141
0.0
142
1.0
143
1.0
 70
0
 72
1
 73
0
 74
0
  7

 75
0
147
1.0
148
0.0
149
0.0
100
AcDbLayout
  1
Layout1
 70
0
 71
1
 10
0.0
 20
0.0
 11
210.0
 21
297.0
 12
0.0
 22
0.0
 32
0.0
 14
0.0
 24
0.0
 34
0.0
 15
0.0
 25
0.0
 35
0.0
146
0.0
 13
0.0
 23
0.0
 33
0.0
 16
1.0
 26
0.0
 36
0.0
 17
0.0
 27
1.0
 37
0.0
 76
0
330
211
345
0
346
0
  0
ENDSEC
  0
EOF
