999
DXF file: C:\Users\sesa63760\Dev\_Creo\CAD\MCADID0004037_3D-CAD\drw0001_1.dxf
999
Pro/ENGINEER 2019471 by Parametric Technology Corporation
  0
SECTION
  2
HEADER
  9
$ACADVER
  1
AC1024
  9
$DWGCODEPAGE
  3
ANSI_1252
  9
$EXTMAX
 10
78.5317618269
 20
111.0663488695
 30
0.0
  9
$EXTMIN
 10
0.0
 20
0.0
 30
0.0
  9
$LIMMIN
 10
0.0
 20
0.0
  9
$LIMMAX
 10
78.5317618269
 20
111.0663488695
  9
$VIEWCTR
 10
39.2658809135
 20
55.5331744348
  9
$VIEWSIZE
 40
111.0663488695
  9
$CLAYER
  8
0
  9
$LTSCALE
 40
7.2398805189
  9
$CELTYPE
  6
BYLAYER
  9
$DIMSCALE
 40
1.0
  9
$DIMASZ
 40
0.9349019265
  9
$DIMEXO
 40
1.0
  9
$DIMDLI
 40
5.0020992676
  9
$DIMEXE
 40
1.0
  9
$DIMCEN
 40
1.1847077213
  9
$DIMLFAC
 40
1.0
  9
$DIMBLK
  1
_FILLED
  9
$DIMALT
 70
0
  9
$DIMALTF
 40
0.0393700787
  9
$DIMTXT
 40
1.3088626971
  9
$DIMTOL
 70
1
  9
$DIMLIM
 70
0
  9
$DIMTFAC
 40
1.0
  9
$DIMTP
 40
0.01
  9
$DIMTM
 40
0.01
  9
$DIMGAP
 40
0.625
  9
$DIMDSEP
 70
46
  9
$AUNITS
 70
0
  9
$PDMODE
 70
3
  9
$PDSIZE
 40
0.3125
  9
$HANDSEED
  5
38F
  9
$TILEMODE
 70
1
  9
$MEASUREMENT
 70
1
  9
$INSUNITS
 70
4
  0
ENDSEC
  0
SECTION
  2
CLASSES
  0
CLASS
  1
ACDBDICTIONARYWDFLT
  2
AcDbDictionaryWithDefault
  3
AutoCAD 2000
 90
0
 91
1
280
0
281
0
  0
CLASS
  1
ACDBPLACEHOLDER
  2
AcDbPlaceHolder
  3
AutoCAD 2000
 90
0
 91
1
280
0
281
0
  0
CLASS
  1
LAYOUT
  2
AcDbLayout
  3
AutoCAD 2000
 90
0
 91
0
280
0
281
0
  0
ENDSEC
  0
SECTION
  2
TABLES
  0
TABLE
  2
VPORT
  5
8
100
AcDbSymbolTable
 70
2
  0
VPORT
  5
1F4
100
AcDbSymbolTableRecord
100
AcDbViewportTableRecord
  2
*ACTIVE
 70
0
 10
0.0
 20
0.0
 11
1.0
 21
1.0
 12
39.2658809135
 22
55.5331744348
 13
0.0
 23
0.0
 14
1.0
 24
1.0
 15
0.0
 25
0.0
 16
0.0
 26
0.0
 36
1.0
 17
0.0
 27
0.0
 37
0.0
 40
111.0663488695
 41
0.7070707071
 42
50.0
 43
0.0
 44
0.0
 50
0.0
 51
0.0
 71
0
 72
100
 73
1
 74
1
 75
0
 76
0
 77
0
 78
0
  0
ENDTAB
  0
TABLE
  2
LTYPE
  5
5
100
AcDbSymbolTable
 70
6
  0
LTYPE
  5
14
100
AcDbSymbolTableRecord
100
AcDbLinetypeTableRecord
  2
BYBLOCK
 70
0
  3

 72
65
 73
0
 40
0.0
  0
LTYPE
  5
15
100
AcDbSymbolTableRecord
100
AcDbLinetypeTableRecord
  2
BYLAYER
 70
0
  3

 72
65
 73
0
 40
0.0
  0
LTYPE
  5
16
100
AcDbSymbolTableRecord
100
AcDbLinetypeTableRecord
  2
CONTINUOUS
 70
64
  3
Solid line
 72
65
 73
0
 40
0.0
  0
LTYPE
  5
1F5
100
AcDbSymbolTableRecord
100
AcDbLinetypeTableRecord
  2
CENTER
 70
64
  3
____ _ ____ _ ____ _ ____ _ ____ _ ____ _ ____
 72
65
 73
4
 40
0.6
 49
0.375
 74
0
 49
-0.075
 74
0
 49
0.075
 74
0
 49
-0.075
 74
0
  0
LTYPE
  5
1F6
100
AcDbSymbolTableRecord
100
AcDbLinetypeTableRecord
  2
HIDDEN
 70
64
  3
- - - - - - - - - - - - - - - - - - - -
 72
65
 73
2
 40
0.2
 49
0.1
 74
0
 49
-0.1
 74
0
  0
LTYPE
  5
1F7
100
AcDbSymbolTableRecord
100
AcDbLinetypeTableRecord
  2
PHANTOM
 70
64
  3
_____ _ _ _____ _ _ _____ _ _ _____
 72
65
 73
6
 40
0.8
 49
0.45
 74
0
 49
-0.05
 74
0
 49
0.1
 74
0
 49
-0.05
 74
0
 49
0.1
 74
0
 49
-0.05
 74
0
  0
LTYPE
  5
1F8
100
AcDbSymbolTableRecord
100
AcDbLinetypeTableRecord
  2
DOT
 70
64
  3
. . . . . . . . . . . . . . . . . . . .
 72
65
 73
2
 40
0.2
 49
0.1
 74
0
 49
-0.1
 74
0
  0
LTYPE
  5
1F9
100
AcDbSymbolTableRecord
100
AcDbLinetypeTableRecord
  2
DASHED
 70
64
  3
- - - - - - - - - - - - - - - - - - - -
 72
65
 73
2
 40
0.2
 49
0.1
 74
0
 49
-0.1
 74
0
  0
ENDTAB
  0
TABLE
  2
LAYER
  5
2
100
AcDbSymbolTable
 70
36
  0
LAYER
  5
10
100
AcDbSymbolTableRecord
100
AcDbLayerTableRecord
  2
0
 70
0
 62
7
  6
CONTINUOUS
370
-3
390
F
  0
LAYER
  5
1FA
100
AcDbSymbolTableRecord
100
AcDbLayerTableRecord
  2
DEFAULT_1
 70
0
 62
7
  6
CENTER
370
-3
390
F
  0
LAYER
  5
1FB
100
AcDbSymbolTableRecord
100
AcDbLayerTableRecord
  2
DEFAULT_2
 70
0
 62
7
  6
HIDDEN
370
-3
390
F
  0
LAYER
  5
1FC
100
AcDbSymbolTableRecord
100
AcDbLayerTableRecord
  2
DEFAULT_3
 70
0
 62
7
  6
PHANTOM
370
-3
390
F
  0
LAYER
  5
1FD
100
AcDbSymbolTableRecord
100
AcDbLayerTableRecord
  2
00_COMPONENTS
 70
0
 62
7
  6
CONTINUOUS
370
-3
390
F
  0
LAYER
  5
1FE
100
AcDbSymbolTableRecord
100
AcDbLayerTableRecord
  2
01_1_DEFAULT_DATUMS
 70
0
 62
7
  6
CONTINUOUS
370
-3
390
F
  0
LAYER
  5
1FF
100
AcDbSymbolTableRecord
100
AcDbLayerTableRecord
  2
01_PLANES
 70
0
 62
7
  6
CONTINUOUS
370
-3
390
F
  0
LAYER
  5
200
100
AcDbSymbolTableRecord
100
AcDbLayerTableRecord
  2
02_COORD_SYS
 70
0
 62
7
  6
CONTINUOUS
370
-3
390
F
  0
LAYER
  5
201
100
AcDbSymbolTableRecord
100
AcDbLayerTableRecord
  2
03_AXES
 70
0
 62
7
  6
CONTINUOUS
370
-3
390
F
  0
LAYER
  5
202
100
AcDbSymbolTableRecord
100
AcDbLayerTableRecord
  2
04_POINTS
 70
0
 62
7
  6
CONTINUOUS
370
-3
390
F
  0
LAYER
  5
203
100
AcDbSymbolTableRecord
100
AcDbLayerTableRecord
  2
05_CURVES
 70
0
 62
7
  6
CONTINUOUS
370
-3
390
F
  0
LAYER
  5
204
100
AcDbSymbolTableRecord
100
AcDbLayerTableRecord
  2
06_SURFS
 70
0
 62
7
  6
CONTINUOUS
370
-3
390
F
  0
LAYER
  5
205
100
AcDbSymbolTableRecord
100
AcDbLayerTableRecord
  2
07_COSMETICS
 70
0
 62
7
  6
CONTINUOUS
370
-3
390
F
  0
LAYER
  5
206
100
AcDbSymbolTableRecord
100
AcDbLayerTableRecord
  2
10_NOTES
 70
0
 62
7
  6
CONTINUOUS
370
-3
390
F
  0
LAYER
  5
207
100
AcDbSymbolTableRecord
100
AcDbLayerTableRecord
  2
11_NOTES_PUB
 70
0
 62
7
  6
CONTINUOUS
370
-3
390
F
  0
LAYER
  5
208
100
AcDbSymbolTableRecord
100
AcDbLayerTableRecord
  2
13_REF_GTOL
 70
0
 62
7
  6
CONTINUOUS
370
-3
390
F
  0
LAYER
  5
209
100
AcDbSymbolTableRecord
100
AcDbLayerTableRecord
  2
16_MISC
 70
0
 62
7
  6
CONTINUOUS
370
-3
390
F
  0
LAYER
  5
20A
100
AcDbSymbolTableRecord
100
AcDbLayerTableRecord
  2
17_NO_PRINT
 70
0
 62
7
  6
CONTINUOUS
370
-3
390
F
  0
LAYER
  5
20B
100
AcDbSymbolTableRecord
100
AcDbLayerTableRecord
  2
18_DATUM_CAMS_JOINTS
 70
0
 62
7
  6
CONTINUOUS
370
-3
390
F
  0
LAYER
  5
20C
100
AcDbSymbolTableRecord
100
AcDbLayerTableRecord
  2
19_DATUM_FUNCTIONAL
 70
0
 62
7
  6
CONTINUOUS
370
-3
390
F
  0
LAYER
  5
20D
100
AcDbSymbolTableRecord
100
AcDbLayerTableRecord
  2
20_DATUM_KINEMATIC_SCHEME
 70
0
 62
7
  6
CONTINUOUS
370
-3
390
F
  0
ENDTAB
  0
TABLE
  2
STYLE
  5
3
100
AcDbSymbolTable
 70
1
  0
STYLE
  5
11
100
AcDbSymbolTableRecord
100
AcDbTextStyleTableRecord
  2
STANDARD
 70
0
 40
0.0
 41
1.0
 50
0.0
 71
0
 42
0.2
  3
ARIAL.TTF
  4

  0
STYLE
  5
20E
100
AcDbSymbolTableRecord
100
AcDbTextStyleTableRecord
  2
TEXTSTYLE_1
 70
0
 40
0.0
 41
0.8
 50
0.0
 71
0
 42
0.2
  3
gdt
  4

  0
ENDTAB
  0
TABLE
  2
VIEW
  5
6
100
AcDbSymbolTable
 70
0
  0
ENDTAB
  0
TABLE
  2
UCS
  5
7
100
AcDbSymbolTable
 70
0
  0
ENDTAB
  0
TABLE
  2
APPID
  5
9
100
AcDbSymbolTable
 70
1
  0
APPID
  5
20F
100
AcDbSymbolTableRecord
100
AcDbRegAppTableRecord
  2
ACAD
 70
0
  0
ENDTAB
  0
TABLE
  2
BLOCK_RECORD
  5
1
100
AcDbSymbolTable
 70
0
  0
BLOCK_RECORD
  5
210
100
AcDbSymbolTableRecord
100
AcDbBlockTableRecord
  2
*Model_Space
  0
BLOCK_RECORD
  5
211
100
AcDbSymbolTableRecord
100
AcDbBlockTableRecord
  2
*Paper_Space
  0
BLOCK_RECORD
  5
212
100
AcDbSymbolTableRecord
100
AcDbBlockTableRecord
  2
_FILLED
  0
ENDTAB
  0
TABLE
  2
DIMSTYLE
  5
A
100
AcDbSymbolTable
 70
1
100
AcDbDimStyleTable
 71
0
  0
DIMSTYLE
105
213
100
AcDbSymbolTableRecord
100
AcDbDimStyleTableRecord
  2
STANDARD
 70
0
  3

  4

 40
1.0
 41
0.9349019265
 42
1.0
 43
0.38
 44
1.0
 45
0.0
 46
0.0
 47
0.01
 48
0.01
140
1.3088626971
141
0.09
142
0.0
143
25.4
144
1.0
145
0.0
146
1.0
147
0.625
 71
1
 72
0
 73
0
 74
0
 75
0
 76
0
 77
1
 78
8
 79
2
170
0
171
1
172
0
173
0
174
0
175
0
176
0
177
0
178
0
270
2
179
2
271
2
272
2
273
2
274
2
275
0
280
0
281
0
282
0
283
1
284
8
285
0
286
0
287
3
288
0
340
11
278
46
341
212
342
212
343
212
344
212
  0
ENDTAB
  0
ENDSEC
  0
SECTION
  2
BLOCKS
  0
BLOCK
  5
20
100
AcDbEntity
  8
0
100
AcDbBlockBegin
  2
*Model_Space
 70
0
 10
0.0
 20
0.0
 30
0.0
  3
*Model_Space
  1

  0
ENDBLK
  5
21
100
AcDbEntity
  8
0
100
AcDbBlockEnd
  0
BLOCK
  5
1C
100
AcDbEntity
  8
0
100
AcDbBlockBegin
  2
*Paper_Space
 70
0
 10
0.0
 20
0.0
 30
0.0
  3
*Paper_Space
  1

  0
ENDBLK
  5
1D
100
AcDbEntity
  8
0
100
AcDbBlockEnd
  0
BLOCK
  5
214
100
AcDbEntity
  8
0
100
AcDbBlockBegin
  2
_FILLED
 70
64
 10
0.0
 20
0.0
  3
_FILLED
  1

  0
SOLID
  5
215
100
AcDbEntity
  8
0
  6
BYBLOCK
 62
0
100
AcDbTrace
 10
0.0
 20
0.0
 11
-1.0
 21
0.25
 12
-1.0
 22
-0.25
 13
-1.0
 23
-0.25
  0
ENDBLK
  5
216
100
AcDbEntity
  8
0
  6
BYBLOCK
 62
0
100
AcDbBlockEnd
  0
ENDSEC
  0
SECTION
  2
ENTITIES
  0
LINE
  5
217
100
AcDbEntity
  8
0
100
AcDbLine
 62
7
  6
BYLAYER
 10
14.5591678419
 20
35.8283709008
 11
14.8373677241
 21
35.346517245
  0
LINE
  5
218
100
AcDbEntity
  8
0
100
AcDbLine
 62
7
  6
BYLAYER
 10
15.3805089704
 20
35.7914247836
 11
15.15917034
 21
36.1747924089
  0
LINE
  5
219
100
AcDbEntity
  8
0
100
AcDbLine
 62
7
  6
BYLAYER
 10
22.7008053874
 20
40.2599301791
 11
22.7008092145
 21
39.729219408
  0
LINE
  5
21A
100
AcDbEntity
  8
0
100
AcDbLine
 62
7
  6
BYLAYER
 10
18.9178652317
 20
46.8122138424
 11
18.4582595072
 21
47.0775749182
  0
LINE
  5
21B
100
AcDbEntity
  8
0
100
AcDbLine
 62
7
  6
BYLAYER
 10
51.2682183288
 20
76.4267414626
 11
49.758241795
 21
75.5549613688
  0
LINE
  5
21C
100
AcDbEntity
  8
0
100
AcDbLine
 62
7
  6
BYLAYER
 10
44.8085150058
 20
72.6972523601
 11
46.3184913307
 21
73.5690323675
  0
LINE
  5
21D
100
AcDbEntity
  8
0
100
AcDbLine
 62
7
  6
BYLAYER
 10
9.8709699646
 20
43.0876524714
 11
10.6621967587
 21
43.8070851898
  0
LINE
  5
21E
100
AcDbEntity
  8
0
100
AcDbLine
 62
7
  6
BYLAYER
 10
10.9748567464
 20
44.035805719
 11
10.6621967587
 21
43.8070851898
  0
LINE
  5
21F
100
AcDbEntity
  8
0
100
AcDbLine
 62
7
  6
BYLAYER
 10
21.8914019409
 20
53.0518321327
 11
21.8874836316
 21
53.0490330245
  0
LINE
  5
220
100
AcDbEntity
  8
0
100
AcDbLine
 62
7
  6
BYLAYER
 10
52.681456514
 20
73.4005535593
 11
54.1914330448
 21
74.2723336523
  0
LINE
  5
221
100
AcDbEntity
  8
0
100
AcDbLine
 62
7
  6
BYLAYER
 10
59.1411604764
 20
77.1300431904
 11
57.6311836823
 21
76.258262754
  0
LINE
  5
222
100
AcDbEntity
  8
0
100
AcDbLine
 62
7
  6
BYLAYER
 10
59.6129517438
 20
76.9184007434
 11
58.13919168
 21
76.0675301048
  0
LINE
  5
223
100
AcDbEntity
  8
0
100
AcDbLine
 62
7
  6
BYLAYER
 10
53.1894648448
 20
73.2098210168
 11
54.6632248534
 21
74.0606917019
  0
LINE
  5
224
100
AcDbEntity
  8
0
100
AcDbLine
 62
7
  6
BYLAYER
 10
47.9302852728
 20
69.586555643
 11
24.4940181842
 21
56.0557012989
  0
LINE
  5
225
100
AcDbEntity
  8
0
100
AcDbLine
 62
7
  6
BYLAYER
 10
24.2247802859
 20
54.3991491939
 11
21.8872012796
 21
53.0495213545
  0
LINE
  5
226
100
AcDbEntity
  8
0
100
AcDbLine
 62
7
  6
BYLAYER
 10
15.4581642944
 20
47.3747833178
 11
11.5690931897
 21
45.1294404715
  0
LINE
  5
227
100
AcDbEntity
  8
0
100
AcDbLine
 62
7
  6
BYLAYER
 10
21.8999179864
 20
53.0568473943
 11
21.8913500174
 21
53.0519220639
  0
LINE
  5
228
100
AcDbEntity
  8
0
100
AcDbLine
 62
7
  6
BYLAYER
 10
19.8407364951
 20
51.8680354399
 11
21.8296167748
 21
53.0162553503
  0
LINE
  5
229
100
AcDbEntity
  8
0
100
AcDbLine
 62
7
  6
BYLAYER
 10
21.8888838753
 20
53.0491274437
 11
21.8980591114
 21
53.0540355068
  0
LINE
  5
22A
100
AcDbEntity
  8
0
100
AcDbLine
 62
7
  6
BYLAYER
 10
20.8743104674
 20
49.7512238732
 11
17.1134053078
 21
47.5798772281
  0
LINE
  5
22B
100
AcDbEntity
  8
0
100
AcDbLine
 62
7
  6
BYLAYER
 10
11.4344742406
 20
44.301164419
 11
10.9748567464
 21
44.035805719
  0
LINE
  5
22C
100
AcDbEntity
  8
0
100
AcDbLine
 62
7
  6
BYLAYER
 10
21.9009787581
 20
53.0550046932
 11
21.8914019409
 21
53.0518321327
  0
LINE
  5
22D
100
AcDbEntity
  8
0
100
AcDbLine
 62
7
  6
BYLAYER
 10
21.8207070497
 20
53.0109808487
 11
21.8307960599
 21
53.0142064358
  0
LINE
  5
22E
100
AcDbEntity
  8
0
100
AcDbLine
 62
7
  6
BYLAYER
 10
21.8966953747
 20
53.0352752994
 11
21.9067906471
 21
53.0385028886
  0
LINE
  5
22F
100
AcDbEntity
  8
0
100
AcDbLine
 62
7
  6
BYLAYER
 10
62.7769851036
 20
66.765304798
 11
62.8711444528
 21
66.7943716311
  0
LINE
  5
230
100
AcDbEntity
  8
0
100
AcDbLine
 62
7
  6
BYLAYER
 10
63.2503905119
 20
66.4918360597
 11
63.5216932823
 21
66.5755867698
  0
LINE
  5
231
100
AcDbEntity
  8
0
100
AcDbLine
 62
7
  6
BYLAYER
 10
63.3016055796
 20
65.898075486
 11
63.2074462303
 21
65.8690086529
  0
LINE
  5
232
100
AcDbEntity
  8
0
100
AcDbLine
 62
7
  6
BYLAYER
 10
13.4985692649
 20
41.7909091851
 11
12.5336299999
 21
41.2338045662
  0
LINE
  5
233
100
AcDbEntity
  8
0
100
AcDbLine
 62
7
  6
BYLAYER
 10
14.2259644343
 20
41.0561696599
 11
13.0336277615
 21
40.3677778701
  0
LINE
  5
234
100
AcDbEntity
  8
0
100
AcDbLine
 62
7
  6
BYLAYER
 10
62.105656614
 20
67.9558254569
 11
62.1895797678
 21
68.0042798976
  0
LINE
  5
235
100
AcDbEntity
  8
0
100
AcDbLine
 62
7
  6
BYLAYER
 10
62.6242010758
 20
67.6778543506
 11
62.8660101399
 21
67.8174668704
  0
LINE
  5
236
100
AcDbEntity
  8
0
100
AcDbLine
 62
7
  6
BYLAYER
 10
62.6895818495
 20
67.1382556958
 11
62.6056586957
 21
67.089801255
  0
LINE
  5
237
100
AcDbEntity
  8
0
100
AcDbLine
 62
7
  6
BYLAYER
 10
15.3560709383
 20
39.0666284394
 11
14.1776601109
 21
38.3862766921
  0
LINE
  5
238
100
AcDbEntity
  8
0
100
AcDbLine
 62
7
  6
BYLAYER
 10
61.3493084255
 20
69.0873798724
 11
61.4215594353
 21
69.1543928519
  0
LINE
  5
239
100
AcDbEntity
  8
0
100
AcDbLine
 62
7
  6
BYLAYER
 10
15.6363104605
 20
38.073725022
 11
14.6776578724
 21
37.520249996
  0
LINE
  5
23A
100
AcDbEntity
  8
0
100
AcDbLine
 62
7
  6
BYLAYER
 10
14.559170434
 20
36.5211976725
 11
15.7695821231
 21
37.2200250156
  0
LINE
  5
23B
100
AcDbEntity
  8
0
100
AcDbLine
 62
7
  6
BYLAYER
 10
61.3073565002
 20
63.1111161693
 11
62.7811165636
 21
63.9619868078
  0
LINE
  5
23C
100
AcDbEntity
  8
0
100
AcDbLine
 62
7
  6
BYLAYER
 10
67.7308427234
 20
66.8196955199
 11
66.2570832163
 21
65.9688251102
  0
LINE
  5
23D
100
AcDbEntity
  8
0
100
AcDbLine
 62
7
  6
BYLAYER
 10
15.15917034
 20
36.1747924089
 11
15.6518906552
 21
36.4592629175
  0
LINE
  5
23E
100
AcDbEntity
  8
0
100
AcDbLine
 62
7
  6
BYLAYER
 10
67.9326640686
 20
66.1933599328
 11
66.4226877375
 21
65.3215798986
  0
LINE
  5
23F
100
AcDbEntity
  8
0
100
AcDbLine
 62
7
  6
BYLAYER
 10
61.4729608778
 20
62.4638708184
 11
62.9829372081
 21
63.3356508589
  0
LINE
  5
240
100
AcDbEntity
  8
0
100
AcDbLine
 62
7
  6
BYLAYER
 10
10.7616846475
 20
42.5270929067
 11
11.3098638894
 21
42.7082858866
  0
LINE
  5
241
100
AcDbEntity
  8
0
100
AcDbLine
 62
7
  6
BYLAYER
 10
61.9101688726
 20
68.8131551462
 11
62.1183468102
 21
69.0062406668
  0
LINE
  5
242
100
AcDbEntity
  8
0
100
AcDbLine
 62
7
  6
BYLAYER
 10
61.9825472977
 20
68.3334585074
 11
61.9102962879
 21
68.266445528
  0
LINE
  5
243
100
AcDbEntity
  8
0
100
AcDbLine
 62
7
  6
BYLAYER
 10
29.5912388332
 20
39.7152437189
 11
29.5951571425
 21
39.7180428271
  0
LINE
  5
244
100
AcDbEntity
  8
0
100
AcDbLine
 62
7
  6
BYLAYER
 10
29.5905981929
 20
39.7243086467
 11
29.586730546
 21
39.721555121
  0
LINE
  5
245
100
AcDbEntity
  8
0
100
AcDbLine
 62
7
  6
BYLAYER
 10
29.5243842723
 20
39.677168426
 11
29.5205268126
 21
39.674422153
  0
LINE
  5
246
100
AcDbEntity
  8
0
100
AcDbLine
 62
7
  6
BYLAYER
 10
26.2242865161
 20
40.4847382244
 11
22.4631482745
 21
38.3132570102
  0
LINE
  5
247
100
AcDbEntity
  8
0
100
AcDbLine
 62
7
  6
BYLAYER
 10
16.7844502893
 20
35.0346787703
 11
16.3248327951
 21
34.7693200702
  0
LINE
  5
248
100
AcDbEntity
  8
0
100
AcDbLine
 62
7
  6
BYLAYER
 10
21.4581374331
 20
36.9824629641
 11
17.5690663285
 21
34.7371201178
  0
LINE
  5
249
100
AcDbEntity
  8
0
100
AcDbLine
 62
7
  6
BYLAYER
 10
12.6068514494
 20
41.2564073245
 11
12.5336299999
 21
41.2338045662
  0
LINE
  5
24A
100
AcDbEntity
  8
0
100
AcDbLine
 62
7
  6
BYLAYER
 10
63.8081465923
 20
64.6341377055
 11
63.7053621401
 21
64.6249558215
  0
LINE
  5
24B
100
AcDbEntity
  8
0
100
AcDbLine
 62
7
  6
BYLAYER
 10
63.7780229059
 20
65.2753933753
 11
64.074177317
 21
65.3018492777
  0
LINE
  5
24C
100
AcDbEntity
  8
0
100
AcDbLine
 62
7
  6
BYLAYER
 10
63.3518072775
 20
65.5361880342
 11
63.4545917297
 21
65.5453699182
  0
LINE
  5
24D
100
AcDbEntity
  8
0
100
AcDbLine
 62
7
  6
BYLAYER
 10
60.5208818651
 20
70.1406068349
 11
60.5802244962
 21
70.2250317424
  0
LINE
  5
24E
100
AcDbEntity
  8
0
100
AcDbLine
 62
7
  6
BYLAYER
 10
61.1205111912
 20
69.878313135
 11
61.2914960201
 21
70.1215679098
  0
LINE
  5
24F
100
AcDbEntity
  8
0
100
AcDbLine
 62
7
  6
BYLAYER
 10
61.1925994815
 20
69.4632336695
 11
61.1332568503
 21
69.378808762
  0
LINE
  5
250
100
AcDbEntity
  8
0
100
AcDbLine
 62
7
  6
BYLAYER
 10
29.5940847791
 20
39.7184220301
 11
29.590062265
 21
39.7159220881
  0
LINE
  5
251
100
AcDbEntity
  8
0
100
AcDbLine
 62
7
  6
BYLAYER
 10
29.5246607379
 20
39.6766902643
 11
27.5407020232
 21
38.5312243193
  0
LINE
  5
252
100
AcDbEntity
  8
0
100
AcDbLine
 62
7
  6
BYLAYER
 10
68.7784593693
 20
60.8386040465
 11
68.2202356306
 21
60.5163153445
  0
LINE
  5
253
100
AcDbEntity
  8
0
100
AcDbLine
 62
7
  6
BYLAYER
 10
56.93032218
 20
53.998119683
 11
33.4939778923
 21
40.4672207683
  0
LINE
  5
254
100
AcDbEntity
  8
0
100
AcDbLine
 62
7
  6
BYLAYER
 10
29.5827227878
 20
39.7102284573
 11
31.9247458139
 21
41.0623380733
  0
LINE
  5
255
100
AcDbEntity
  8
0
100
AcDbLine
 62
7
  6
BYLAYER
 10
15.970424204
 20
34.6129106748
 11
16.3248327951
 21
34.7693200702
  0
LINE
  5
256
100
AcDbEntity
  8
0
100
AcDbLine
 62
7
  6
BYLAYER
 10
64.2005378304
 20
63.3680686799
 11
64.0908869458
 21
63.3789288497
  0
LINE
  5
257
100
AcDbEntity
  8
0
100
AcDbLine
 62
7
  6
BYLAYER
 10
59.634551541
 20
71.0974853389
 11
59.6799704246
 21
71.1978776408
  0
LINE
  5
258
100
AcDbEntity
  8
0
100
AcDbLine
 62
7
  6
BYLAYER
 10
60.2687392934
 20
70.8551031687
 11
60.3996054158
 21
71.1443650408
  0
LINE
  5
259
100
AcDbEntity
  8
0
100
AcDbLine
 62
7
  6
BYLAYER
 10
60.3332546269
 20
70.5082504159
 11
60.2878357433
 21
70.4078581139
  0
LINE
  5
25A
100
AcDbEntity
  8
0
100
AcDbLine
 62
7
  6
BYLAYER
 10
29.5816620161
 20
39.7120711584
 11
29.5912388332
 21
39.7152437189
  0
LINE
  5
25B
100
AcDbEntity
  8
0
100
AcDbLine
 62
7
  6
BYLAYER
 10
14.9517621139
 20
34.2874097961
 11
15.970424204
 21
34.6129106748
  0
LINE
  5
25C
100
AcDbEntity
  8
0
100
AcDbLine
 62
7
  6
BYLAYER
 10
64.1980703213
 20
64.0493399689
 11
64.514009089
 21
64.0180483959
  0
LINE
  5
25D
100
AcDbEntity
  8
0
100
AcDbLine
 62
7
  6
BYLAYER
 10
63.8202877691
 20
64.2895056943
 11
63.9299386537
 21
64.2786455245
  0
LINE
  5
25E
100
AcDbEntity
  8
0
100
AcDbLine
 62
7
  6
BYLAYER
 10
64.4720653711
 20
62.1215312015
 11
64.3574242111
 21
62.1522476045
  0
LINE
  5
25F
100
AcDbEntity
  8
0
100
AcDbLine
 62
7
  6
BYLAYER
 10
58.7054828109
 20
71.9416429279
 11
58.7362008171
 21
72.0562848842
  0
LINE
  5
260
100
AcDbEntity
  8
0
100
AcDbLine
 62
7
  6
BYLAYER
 10
59.3694272325
 20
71.7268120989
 11
59.4579354929
 21
72.0571317176
  0
LINE
  5
261
100
AcDbEntity
  8
0
100
AcDbLine
 62
7
  6
BYLAYER
 10
59.4192163626
 20
71.4506282201
 11
59.3884983564
 21
71.3359862638
  0
LINE
  5
262
100
AcDbEntity
  8
0
100
AcDbLine
 62
7
  6
BYLAYER
 10
63.5685739257
 20
55.8146229823
 11
63.5620088764
 21
55.8090674966
  0
LINE
  5
263
100
AcDbEntity
  8
0
100
AcDbLine
 62
7
  6
BYLAYER
 10
63.5113070958
 20
55.9012481023
 11
63.5045452678
 21
55.8961403165
  0
LINE
  5
264
100
AcDbEntity
  8
0
100
AcDbLine
 62
7
  6
BYLAYER
 10
67.9326647621
 20
55.6960733873
 11
66.4226879108
 21
54.824293048
  0
LINE
  5
265
100
AcDbEntity
  8
0
100
AcDbLine
 62
7
  6
BYLAYER
 10
61.4729608769
 20
51.9665838741
 11
62.982937208
 21
52.8383639083
  0
LINE
  5
266
100
AcDbEntity
  8
0
100
AcDbLine
 62
7
  6
BYLAYER
 10
67.7308434016
 20
55.2609557919
 11
66.2570833898
 21
54.4100851179
  0
LINE
  5
267
100
AcDbEntity
  8
0
100
AcDbLine
 62
7
  6
BYLAYER
 10
61.3073565149
 20
51.5523760151
 11
62.7811165642
 21
52.4032467146
  0
LINE
  5
268
100
AcDbEntity
  8
0
100
AcDbLine
 62
7
  6
BYLAYER
 10
64.5033456304
 20
62.8346539543
 11
64.8336629548
 21
62.7461503133
  0
LINE
  5
269
100
AcDbEntity
  8
0
100
AcDbLine
 62
7
  6
BYLAYER
 10
64.1744107472
 20
63.0465888587
 11
64.2890519072
 21
63.0158724557
  0
LINE
  5
26A
100
AcDbEntity
  8
0
100
AcDbLine
 62
7
  6
BYLAYER
 10
64.6180833028
 20
60.915853872
 11
64.5004134094
 21
60.9659009421
  0
LINE
  5
26B
100
AcDbEntity
  8
0
100
AcDbLine
 62
7
  6
BYLAYER
 10
64.688625488
 20
61.6521189459
 11
65.0276695481
 21
61.5079175588
  0
LINE
  5
26C
100
AcDbEntity
  8
0
100
AcDbLine
 62
7
  6
BYLAYER
 10
64.4081170695
 20
61.828704179
 11
64.5257869629
 21
61.7786571089
  0
LINE
  5
26D
100
AcDbEntity
  8
0
100
AcDbLine
 62
7
  6
BYLAYER
 10
55.8228289172
 20
73.6644415244
 11
55.8073373818
 21
73.8092592589
  0
LINE
  5
26E
100
AcDbEntity
  8
0
100
AcDbLine
 62
7
  6
BYLAYER
 10
56.7831758968
 20
73.2361961025
 11
56.7831758968
 21
73.3732424477
  0
LINE
  5
26F
100
AcDbEntity
  8
0
100
AcDbLine
 62
7
  6
BYLAYER
 10
57.490282678
 20
73.4922528191
 11
57.490285622
 21
72.827955348
  0
LINE
  5
270
100
AcDbEntity
  8
0
100
AcDbLine
 62
7
  6
BYLAYER
 10
57.7495722982
 20
72.6586358316
 11
57.7650638335
 21
72.7855658865
  0
LINE
  5
271
100
AcDbEntity
  8
0
100
AcDbLine
 62
7
  6
BYLAYER
 10
58.4379624874
 20
72.478524744
 11
58.4825984847
 21
72.8442502491
  0
LINE
  5
272
100
AcDbEntity
  8
0
100
AcDbLine
 62
7
  6
BYLAYER
 10
58.4661241369
 20
72.2742427368
 11
58.4506326016
 21
72.1473126818
  0
LINE
  5
273
100
AcDbEntity
  8
0
100
AcDbLine
 62
7
  6
BYLAYER
 10
64.517407956
 20
59.8401875827
 11
64.6360932183
 21
59.7716661648
  0
LINE
  5
274
100
AcDbEntity
  8
0
100
AcDbLine
 62
7
  6
BYLAYER
 10
65.0927093622
 20
60.3245366381
 11
64.517407956
 21
60.6566899998
  0
LINE
  5
275
100
AcDbEntity
  8
0
100
AcDbLine
 62
7
  6
BYLAYER
 10
64.5257869629
 20
58.7085454488
 11
64.4081170695
 21
58.7943687941
  0
LINE
  5
276
100
AcDbEntity
  8
0
100
AcDbLine
 62
7
  6
BYLAYER
 10
64.5004134094
 20
59.5505998087
 11
64.6180833028
 21
59.4647764633
  0
LINE
  5
277
100
AcDbEntity
  8
0
100
AcDbLine
 62
7
  6
BYLAYER
 10
64.2890519072
 20
57.7446820142
 11
64.1744107472
 21
57.8463388257
  0
LINE
  5
278
100
AcDbEntity
  8
0
100
AcDbLine
 62
7
  6
BYLAYER
 10
56.5083976852
 20
73.5110860121
 11
56.5238892206
 21
73.3662682775
  0
LINE
  5
279
100
AcDbEntity
  8
0
100
AcDbLine
 62
7
  6
BYLAYER
 10
64.3574242111
 20
58.5293591153
 11
64.4720653711
 21
58.4277023039
  0
LINE
  5
27A
100
AcDbEntity
  8
0
100
AcDbLine
 62
7
  6
BYLAYER
 10
63.9299386537
 20
56.8965678317
 11
63.8202877691
 21
57.012318733
  0
LINE
  5
27B
100
AcDbEntity
  8
0
100
AcDbLine
 62
7
  6
BYLAYER
 10
64.0908869458
 20
57.6104416313
 11
64.2005378304
 21
57.4946907299
  0
LINE
  5
27C
100
AcDbEntity
  8
0
100
AcDbLine
 62
7
  6
BYLAYER
 10
63.4545917297
 20
56.1787143699
 11
63.3518072775
 21
56.3065788312
  0
LINE
  5
27D
100
AcDbEntity
  8
0
100
AcDbLine
 62
7
  6
BYLAYER
 10
63.7053621401
 20
56.8095702894
 11
63.8081465923
 21
56.6817058282
  0
LINE
  5
27E
100
AcDbEntity
  8
0
100
AcDbLine
 62
7
  6
BYLAYER
 10
63.2243514359
 20
56.1157096034
 11
63.3016055796
 21
56.0026579957
  0
LINE
  5
27F
100
AcDbEntity
  8
0
100
AcDbLine
 62
7
  6
BYLAYER
 10
54.5934910942
 20
74.1344914164
 11
54.6079777486
 21
74.0857432561
  0
LINE
  5
280
100
AcDbEntity
  8
0
100
AcDbLine
 62
7
  6
BYLAYER
 10
54.8849631624
 20
73.9360446992
 11
54.8542451561
 21
74.0861559515
  0
LINE
  5
281
100
AcDbEntity
  8
0
100
AcDbLine
 62
7
  6
BYLAYER
 10
55.5372607017
 20
73.9031520393
 11
55.5679787079
 21
73.753040787
  0
LINE
  5
282
100
AcDbEntity
  8
0
100
AcDbLine
 62
7
  6
BYLAYER
 10
60.8781695727
 20
54.6697914424
 11
60.8802539916
 21
54.6868703052
  0
LINE
  5
283
100
AcDbEntity
  8
0
100
AcDbLine
 62
7
  6
BYLAYER
 10
60.8781695727
 20
54.6697914424
 11
60.8822542819
 21
54.6851011669
  0
ARC
  5
284
100
AcDbEntity
  8
0
100
AcDbCircle
 62
7
  6
BYLAYER
 10
8.0859380287
 20
45.9921890806
 40
57.5714876076
100
AcDbArc
 50
17.5327498629
 51
18.1876509048
  0
ARC
  5
285
100
AcDbEntity
  8
0
100
AcDbCircle
 62
7
  6
BYLAYER
 10
18.9803922666
 20
42.6252154725
 40
12.1429850442
100
AcDbArc
 50
39.6148263175
 51
39.7522244658
  0
ARC
  5
286
100
AcDbEntity
  8
0
100
AcDbCircle
 62
7
  6
BYLAYER
 10
7.6759299197
 20
35.9533504469
 40
8.7932699835
100
AcDbArc
 50
22.4896491188
 51
37.5055813248
  0
ARC
  5
287
100
AcDbEntity
  8
0
100
AcDbCircle
 62
7
  6
BYLAYER
 10
8.0513829865
 20
36.2307261102
 40
8.3265461204
100
AcDbArc
 50
37.564414042
 51
39.6055211085
  0
ARC
  5
288
100
AcDbEntity
  8
0
100
AcDbCircle
 62
7
  6
BYLAYER
 10
10.9555744391
 20
39.0665700896
 40
3.7594481387
100
AcDbArc
 50
60.6153201536
 51
61.8690809777
  0
ARC
  5
289
100
AcDbEntity
  8
0
100
AcDbCircle
 62
7
  6
BYLAYER
 10
28.2345627531
 20
41.9014616482
 40
2.5717624493
100
AcDbArc
 50
301.2485671407
 51
301.8077172192
  0
ARC
  5
28A
100
AcDbEntity
  8
0
100
AcDbCircle
 62
7
  6
BYLAYER
 10
28.2354127968
 20
41.9000589288
 40
2.5701222679
100
AcDbArc
 50
300.1078344306
 51
301.2485880938
  0
ARC
  5
28B
100
AcDbEntity
  8
0
100
AcDbCircle
 62
7
  6
BYLAYER
 10
28.3066533054
 20
41.9399584568
 40
2.5690560901
100
AcDbArc
 50
299.4269339597
 51
299.7824093754
  0
ARC
  5
28C
100
AcDbEntity
  8
0
100
AcDbCircle
 62
7
  6
BYLAYER
 10
14.440852668
 20
36.7480805355
 40
1.4565726371
100
AcDbArc
 50
285.7966927367
 51
288.4525360805
  0
ARC
  5
28D
100
AcDbEntity
  8
0
100
AcDbCircle
 62
7
  6
BYLAYER
 10
14.4492545333
 20
36.7225968105
 40
1.4297397811
100
AcDbArc
 50
288.4563907694
 51
291.4975160363
  0
ARC
  5
28E
100
AcDbEntity
  8
0
100
AcDbCircle
 62
7
  6
BYLAYER
 10
14.2200007503
 20
36.5369472734
 40
1.3832212903
100
AcDbArc
 50
297.1880606238
 51
300.002558388
  0
ARC
  5
28F
100
AcDbEntity
  8
0
100
AcDbCircle
 62
7
  6
BYLAYER
 10
14.4276589917
 20
37.953263344
 40
0.5
100
AcDbArc
 50
119.9998519061
 51
299.9998519061
  0
ARC
  5
290
100
AcDbEntity
  8
0
100
AcDbCircle
 62
7
  6
BYLAYER
 10
12.7836288807
 20
40.8007912181
 40
0.5
100
AcDbArc
 50
119.9998519061
 51
299.9998519061
  0
ARC
  5
291
100
AcDbEntity
  8
0
100
AcDbCircle
 62
7
  6
BYLAYER
 10
13.1347972805
 20
48.8817873598
 40
57.4673535771
100
AcDbArc
 50
17.5322073757
 51
18.1882950612
  0
ARC
  5
292
100
AcDbEntity
  8
0
100
AcDbCircle
 62
7
  6
BYLAYER
 10
23.105985969
 20
50.7848733614
 40
2.5706388419
100
AcDbArc
 50
118.2593160094
 51
119.4411279222
  0
ARC
  5
293
100
AcDbEntity
  8
0
100
AcDbCircle
 62
7
  6
BYLAYER
 10
23.1765115284
 20
50.8262196638
 40
2.5700955869
100
AcDbArc
 50
120.1097850307
 51
121.2648069845
  0
ARC
  5
294
100
AcDbEntity
  8
0
100
AcDbCircle
 62
7
  6
BYLAYER
 10
23.1056401095
 20
50.7854926957
 40
2.5699294877
100
AcDbArc
 50
119.4411998272
 51
119.7700808609
  0
ARC
  5
295
100
AcDbEntity
  8
0
100
AcDbCircle
 62
7
  6
BYLAYER
 10
36.8898550581
 20
35.0720114302
 40
42.8486856649
100
AcDbArc
 50
65.4936672945
 51
66.1851034415
  0
ARC
  5
296
100
AcDbEntity
  8
0
100
AcDbCircle
 62
7
  6
BYLAYER
 10
41.8633408691
 20
37.9827822619
 40
42.7905490569
100
AcDbArc
 50
65.4931434876
 51
66.1855188062
  0
ARC
  5
297
100
AcDbEntity
  8
0
100
AcDbCircle
 62
7
  6
BYLAYER
 10
46.5815066596
 20
58.4174861793
 40
18.3171657182
100
AcDbArc
 50
31.5590862753
 51
32.7754923155
  0
ARC
  5
298
100
AcDbEntity
  8
0
100
AcDbCircle
 62
7
  6
BYLAYER
 10
46.5961017175
 20
58.4214087341
 40
18.3025551143
100
AcDbArc
 50
27.2242987739
 51
28.4416768038
  0
ARC
  5
299
100
AcDbEntity
  8
0
100
AcDbCircle
 62
7
  6
BYLAYER
 10
46.7621963579
 20
58.5173537771
 40
18.0139433387
100
AcDbArc
 50
27.2494141808
 51
28.4165613968
  0
ARC
  5
29A
100
AcDbEntity
  8
0
100
AcDbCircle
 62
7
  6
BYLAYER
 10
46.7600498939
 20
58.5211566633
 40
18.0139007673
100
AcDbArc
 50
31.5837147482
 51
32.7508638426
  0
ARC
  5
29B
100
AcDbEntity
  8
0
100
AcDbCircle
 62
7
  6
BYLAYER
 10
47.0776739108
 20
58.7598059675
 40
17.7142453533
100
AcDbArc
 50
35.9297253795
 51
37.1732475156
  0
ARC
  5
29C
100
AcDbEntity
  8
0
100
AcDbCircle
 62
7
  6
BYLAYER
 10
47.1665777052
 20
58.6899704309
 40
17.6718958517
100
AcDbArc
 50
22.8255513391
 51
24.0720564284
  0
ARC
  5
29D
100
AcDbEntity
  8
0
100
AcDbCircle
 62
7
  6
BYLAYER
 10
47.2863752356
 20
58.7655205062
 40
17.4338763753
100
AcDbArc
 50
22.8526609221
 51
24.0449468454
  0
ARC
  5
29E
100
AcDbEntity
  8
0
100
AcDbCircle
 62
7
  6
BYLAYER
 10
47.2693138334
 20
58.8749384318
 40
17.3936829882
100
AcDbArc
 50
35.9539672181
 51
37.149005677
  0
ARC
  5
29F
100
AcDbEntity
  8
0
100
AcDbCircle
 62
7
  6
BYLAYER
 10
47.9804817744
 20
59.4872039366
 40
16.5545903798
100
AcDbArc
 50
40.4384976541
 51
41.7390910013
  0
ARC
  5
2A0
100
AcDbEntity
  8
0
100
AcDbCircle
 62
7
  6
BYLAYER
 10
48.2713712573
 20
59.1126100883
 40
16.4887432826
100
AcDbArc
 50
18.258627233
 51
19.5644195866
  0
ARC
  5
2A1
100
AcDbEntity
  8
0
100
AcDbCircle
 62
7
  6
BYLAYER
 10
48.3510703113
 20
59.1771445306
 40
16.2921123685
100
AcDbArc
 50
18.2880020057
 51
19.5350448138
  0
ARC
  5
2A2
100
AcDbEntity
  8
0
100
AcDbCircle
 62
7
  6
BYLAYER
 10
48.1729565938
 20
59.6083121493
 40
16.2296176742
100
AcDbArc
 50
40.4628742184
 51
41.714714437
  0
ARC
  5
2A3
100
AcDbEntity
  8
0
100
AcDbCircle
 62
7
  6
BYLAYER
 10
49.1431461556
 20
60.5882799612
 40
14.9528669024
100
AcDbArc
 50
45.1971772266
 51
46.5887020483
  0
ARC
  5
2A4
100
AcDbEntity
  8
0
100
AcDbCircle
 62
7
  6
BYLAYER
 10
49.8244027784
 20
59.5678326427
 40
14.869937894
100
AcDbArc
 50
13.4077750226
 51
14.8070680572
  0
ARC
  5
2A5
100
AcDbEntity
  8
0
100
AcDbCircle
 62
7
  6
BYLAYER
 10
49.8620556769
 20
59.6262684457
 40
14.7153694955
100
AcDbArc
 50
13.4402867514
 51
14.7745563284
  0
ARC
  5
2A6
100
AcDbEntity
  8
0
100
AcDbCircle
 62
7
  6
BYLAYER
 10
49.3250870568
 20
60.707738892
 40
14.6366625015
100
AcDbArc
 50
45.2222207686
 51
46.5636585062
  0
ARC
  5
2A7
100
AcDbEntity
  8
0
100
AcDbCircle
 62
7
  6
BYLAYER
 10
50.3987269152
 20
62.0014337898
 40
13.0619103348
100
AcDbArc
 50
50.3345065746
 51
51.8568995571
  0
ARC
  5
2A8
100
AcDbEntity
  8
0
100
AcDbCircle
 62
7
  6
BYLAYER
 10
51.6867762682
 20
59.9426835569
 40
12.9696181325
100
AcDbArc
 50
8.1381018359
 51
9.6713391318
  0
ARC
  5
2A9
100
AcDbEntity
  8
0
100
AcDbCircle
 62
7
  6
BYLAYER
 10
51.6846367681
 20
60.0009293508
 40
12.8540931925
100
AcDbArc
 50
8.1748230773
 51
9.6346178904
  0
ARC
  5
2AA
100
AcDbEntity
  8
0
100
AcDbCircle
 62
7
  6
BYLAYER
 10
50.561082009
 20
62.1104554463
 40
12.7664995876
100
AcDbArc
 50
50.3608023323
 51
51.8306037995
  0
ARC
  5
2AB
100
AcDbEntity
  8
0
100
AcDbCircle
 62
7
  6
BYLAYER
 10
53.6862560617
 20
60.1506920061
 40
10.9585728774
100
AcDbArc
 50
2.2879095886
 51
4.003828495
  0
ARC
  5
2AC
100
AcDbEntity
  8
0
100
AcDbCircle
 62
7
  6
BYLAYER
 10
53.6502996002
 20
60.2144952059
 40
10.8761013352
100
AcDbArc
 50
2.3301438626
 51
3.9615942209
  0
ARC
  5
2AD
100
AcDbEntity
  8
0
100
AcDbCircle
 62
7
  6
BYLAYER
 10
55.6415838744
 20
60.1455383726
 40
9.0022763102
100
AcDbArc
 50
355.6630907535
 51
357.6197728683
  0
ARC
  5
2AE
100
AcDbEntity
  8
0
100
AcDbCircle
 62
7
  6
BYLAYER
 10
55.5805011935
 20
60.2193601228
 40
8.9449468583
100
AcDbArc
 50
355.7123355965
 51
357.5705280252
  0
ARC
  5
2AF
100
AcDbEntity
  8
0
100
AcDbCircle
 62
7
  6
BYLAYER
 10
57.3879667041
 20
59.9283566921
 40
7.2412994357
100
AcDbArc
 50
348.0396048733
 51
350.302173784
  0
ARC
  5
2B0
100
AcDbEntity
  8
0
100
AcDbCircle
 62
7
  6
BYLAYER
 10
57.3117857261
 20
60.0144501662
 40
7.2004525615
100
AcDbArc
 50
348.0973359725
 51
350.2444426848
  0
ARC
  5
2B1
100
AcDbEntity
  8
0
100
AcDbCircle
 62
7
  6
BYLAYER
 10
58.7998913192
 20
59.5475560277
 40
5.7776499262
100
AcDbArc
 50
339.187465041
 51
341.8176181786
  0
ARC
  5
2B2
100
AcDbEntity
  8
0
100
AcDbCircle
 62
7
  6
BYLAYER
 10
58.7184380181
 20
59.6453925537
 40
5.7449310472
100
AcDbArc
 50
339.2545503035
 51
341.7505329162
  0
ARC
  5
2B3
100
AcDbEntity
  8
0
100
AcDbCircle
 62
7
  6
BYLAYER
 10
59.8078309514
 20
59.0911880693
 40
4.6699175472
100
AcDbArc
 50
328.9384762149
 51
331.9690534604
  0
ARC
  5
2B4
100
AcDbEntity
  8
0
100
AcDbCircle
 62
7
  6
BYLAYER
 10
59.7292637559
 20
59.1973223973
 40
4.6379649082
100
AcDbArc
 50
329.0140711543
 51
331.8934585211
  0
ARC
  5
2B5
100
AcDbEntity
  8
0
100
AcDbCircle
 62
7
  6
BYLAYER
 10
60.4063418376
 20
58.6730274156
 40
3.9387085414
100
AcDbArc
 50
317.313930674
 51
320.7073235547
  0
ARC
  5
2B6
100
AcDbEntity
  8
0
100
AcDbCircle
 62
7
  6
BYLAYER
 10
60.3301643588
 20
58.7863055622
 40
3.9088835476
100
AcDbArc
 50
317.7980547609
 51
320.6258104352
  0
ARC
  5
2B7
100
AcDbEntity
  8
0
100
AcDbCircle
 62
7
  6
BYLAYER
 10
60.705700793
 20
59.2461011773
 40
3.867592928
100
AcDbArc
 50
320.5474505715
 51
320.9120991214
  0
ARC
  5
2B8
100
AcDbEntity
  8
0
100
AcDbCircle
 62
7
  6
BYLAYER
 10
61.1963134871
 20
58.6104665675
 40
3.6666539828
100
AcDbArc
 50
304.3735820133
 51
310.1800637591
  0
ARC
  5
2B9
100
AcDbEntity
  8
0
100
AcDbCircle
 62
7
  6
BYLAYER
 10
20.5065733447
 20
77.4294197642
 40
52.168692641
100
AcDbArc
 50
334.8532560954
 51
335.3800416483
  0
ARC
  5
2BA
100
AcDbEntity
  8
0
100
AcDbCircle
 62
7
  6
BYLAYER
 10
16.008943756
 20
74.3619728749
 40
51.6703184021
100
AcDbArc
 50
334.8507565642
 51
335.3826225756
  0
ARC
  5
2BB
100
AcDbEntity
  8
0
100
AcDbCircle
 62
7
  6
BYLAYER
 10
56.1903508587
 20
64.1011983494
 40
14.45936277
100
AcDbArc
 50
38.715945288
 51
39.3845402302
  0
ARC
  5
2BC
100
AcDbEntity
  8
0
100
AcDbCircle
 62
7
  6
BYLAYER
 10
56.2900850527
 20
64.1828706891
 40
14.3304548372
100
AcDbArc
 50
39.3851743211
 51
39.6147542762
  0
ARC
  5
2BD
100
AcDbEntity
  8
0
100
AcDbCircle
 62
7
  6
BYLAYER
 10
56.5591618457
 20
64.3223562874
 40
14.0765882357
100
AcDbArc
 50
38.929503494
 51
39.6140611233
  0
ARC
  5
2BE
100
AcDbEntity
  8
0
100
AcDbCircle
 62
7
  6
BYLAYER
 10
51.5853707787
 20
63.6224289471
 40
11.0522253335
100
AcDbArc
 50
56.0039576452
 51
57.7053217362
  0
ARC
  5
2BF
100
AcDbEntity
  8
0
100
AcDbCircle
 62
7
  6
BYLAYER
 10
51.7224641157
 20
63.7122394554
 40
10.7872165623
100
AcDbArc
 50
56.0321992333
 51
57.6770801481
  0
ARC
  5
2C0
100
AcDbEntity
  8
0
100
AcDbCircle
 62
7
  6
BYLAYER
 10
52.5704507401
 20
65.3183642027
 40
9.0900009234
100
AcDbArc
 50
62.3902996935
 51
64.328078943
  0
ARC
  5
2C1
100
AcDbEntity
  8
0
100
AcDbCircle
 62
7
  6
BYLAYER
 10
52.6805206226
 20
65.3814056848
 40
8.8616879208
100
AcDbArc
 50
62.4213717097
 51
64.2970069267
  0
ARC
  5
2C2
100
AcDbEntity
  8
0
100
AcDbCircle
 62
7
  6
BYLAYER
 10
62.0225751159
 20
64.9584427635
 40
8.6198884994
100
AcDbArc
 50
0.0019803196
 51
0.9807184217
  0
ARC
  5
2C3
100
AcDbEntity
  8
0
100
AcDbCircle
 62
7
  6
BYLAYER
 10
59.9799917716
 20
68.5371098967
 40
8.5961548666
100
AcDbArc
 50
58.943704196
 51
59.995587745
  0
ARC
  5
2C4
100
AcDbEntity
  8
0
100
AcDbCircle
 62
7
  6
BYLAYER
 10
53.2699355375
 20
66.9459580527
 40
7.317329538
100
AcDbArc
 50
69.7103574348
 51
71.9493921994
  0
ARC
  5
2C5
100
AcDbEntity
  8
0
100
AcDbCircle
 62
7
  6
BYLAYER
 10
53.3550757528
 20
66.9769346157
 40
7.1282925258
100
AcDbArc
 50
69.7454632449
 51
71.9142863893
  0
ARC
  5
2C6
100
AcDbEntity
  8
0
100
AcDbCircle
 62
7
  6
BYLAYER
 10
53.64997219
 20
68.3212429777
 40
5.8893543765
100
AcDbArc
 50
78.2007628144
 51
79.9269051861
  0
ARC
  5
2C7
100
AcDbEntity
  8
0
100
AcDbCircle
 62
7
  6
BYLAYER
 10
53.7070125913
 20
68.2719940082
 40
5.7852431045
100
AcDbArc
 50
78.2516839186
 51
79.5323103079
  0
ARC
  5
2C8
100
AcDbEntity
  8
0
100
AcDbCircle
 62
7
  6
BYLAYER
 10
53.6843186814
 20
68.5098534423
 40
5.6976439706
100
AcDbArc
 50
79.9352341535
 51
80.8180681006
  0
ARC
  5
2C9
100
AcDbEntity
  8
0
100
AcDbCircle
 62
7
  6
BYLAYER
 10
54.0586151748
 20
71.2904527908
 40
4.6104727044
100
AcDbArc
 50
140.9570376713
 51
142.181902413
  0
ARC
  5
2CA
100
AcDbEntity
  8
0
100
AcDbCircle
 62
7
  6
BYLAYER
 10
54.0508220051
 20
70.9917380476
 40
3.6484187629
100
AcDbArc
 50
109.4717723378
 51
116.2672076996
  0
ARC
  5
2CB
100
AcDbEntity
  8
0
100
AcDbCircle
 62
7
  6
BYLAYER
 10
107.1456646411
 20
3.8259744719
 40
92.8933428326
100
AcDbArc
 50
132.1490478733
 51
132.3891645936
  0
ARC
  5
2CC
100
AcDbEntity
  8
0
100
AcDbCircle
 62
7
  6
BYLAYER
 10
111.681021473
 20
7.1396070653
 40
92.2772527689
100
AcDbArc
 50
132.1482649007
 51
132.3899843412
  0
ARC
  5
2CD
100
AcDbEntity
  8
0
100
AcDbCircle
 62
7
  6
BYLAYER
 10
105.2052022594
 20
39.0784927598
 40
41.8570620794
100
AcDbArc
 50
157.902721399
 51
158.5133460104
  0
ARC
  5
2CE
100
AcDbEntity
  8
0
100
AcDbCircle
 62
7
  6
BYLAYER
 10
100.1103596306
 20
36.2787639533
 40
41.7007946712
100
AcDbArc
 50
157.9015286333
 51
158.5144421823
  0
ARC
  5
2CF
100
AcDbEntity
  8
0
100
AcDbCircle
 62
7
  6
BYLAYER
 10
110.3454171396
 20
108.1723939059
 40
81.0748145192
100
AcDbArc
 50
224.4344324663
 51
224.6637939246
  0
ARC
  5
2D0
100
AcDbEntity
  8
0
100
AcDbCircle
 62
7
  6
BYLAYER
 10
120.200821424
 20
67.8294053848
 40
71.1233649878
100
AcDbArc
 50
173.9762725681
 51
175.0558068306
  0
ARC
  5
2D1
100
AcDbEntity
  8
0
100
AcDbCircle
 62
7
  6
BYLAYER
 10
124.7717447219
 20
80.59553868
 40
60.3150591558
100
AcDbArc
 50
194.0344447247
 51
194.669099568
  0
ARC
  5
2D2
100
AcDbEntity
  8
0
100
AcDbCircle
 62
7
  6
BYLAYER
 10
119.5544480462
 20
77.6694232613
 40
60.0388872048
100
AcDbArc
 50
194.0330347792
 51
194.6706088746
  0
ARC
  5
2D3
100
AcDbEntity
  8
0
100
AcDbCircle
 62
7
  6
BYLAYER
 10
84.2805709445
 20
95.9818524989
 40
54.8233540896
100
AcDbArc
 50
234.8036303369
 51
235.4507612389
  0
ARC
  5
2D4
100
AcDbEntity
  8
0
100
AcDbCircle
 62
7
  6
BYLAYER
 10
70.3995518631
 20
119.8200651484
 40
49.686033784
100
AcDbArc
 50
249.1083946454
 51
249.7341394805
  0
ARC
  5
2D5
100
AcDbEntity
  8
0
100
AcDbCircle
 62
7
  6
BYLAYER
 10
75.2181602537
 20
122.3286627611
 40
49.3131169339
100
AcDbArc
 50
249.1060767607
 51
249.7365538967
  0
SPLINE
  5
2D6
100
AcDbEntity
  8
0
100
AcDbSpline
 62
7
  6
BYLAYER
 70
0
 71
3
 72
11
 73
7
 74
0
 42
0.0000001
 43
0.0000001
 44
0.0000000001
 40
0.0
 40
0.0
 40
0.0
 40
0.0
 40
0.228309529
 40
0.4746527558
 40
0.7339519869
 40
1.0
 40
1.0
 40
1.0
 40
1.0
 10
14.4349032559
 20
36.2465261075
 30
0.0
 10
14.4349032559
 20
36.2129886194
 30
0.0
 10
14.4410459942
 20
36.1432000114
 30
0.0
 10
14.4655359627
 20
36.0379126776
 30
0.0
 10
14.5047587047
 20
35.9312776162
 30
0.0
 10
14.5396272225
 20
35.8622160586
 30
0.0
 10
14.5591678419
 20
35.8283709008
 30
0.0
  0
SPLINE
  5
2D7
100
AcDbEntity
  8
0
100
AcDbSpline
 62
7
  6
BYLAYER
 70
0
 71
3
 72
13
 73
9
 74
0
 42
0.0000001
 43
0.0000001
 44
0.0000000001
 40
0.0
 40
0.0
 40
0.0
 40
0.0
 40
0.1080952705
 40
0.2182359347
 40
0.3322523725
 40
0.4516777295
 40
0.7106405884
 40
1.0
 40
1.0
 40
1.0
 40
1.0
 10
14.5591728319
 20
36.5211934956
 30
0.0
 10
14.5493348363
 20
36.5155154369
 30
0.0
 10
14.5304181738
 20
36.5023198855
 30
0.0
 10
14.5054372319
 20
36.4777167262
 30
0.0
 10
14.4839354958
 20
36.4485353034
 30
0.0
 10
14.4595647719
 20
36.4027106277
 30
0.0
 10
14.439489425
 20
36.3347248521
 30
0.0
 10
14.4349032559
 20
36.2769328846
 30
0.0
 10
14.4349032559
 20
36.2465261075
 30
0.0
  0
SPLINE
  5
2D8
100
AcDbEntity
  8
0
100
AcDbSpline
 62
7
  6
BYLAYER
 70
0
 71
3
 72
17
 73
13
 74
0
 42
0.0000001
 43
0.0000001
 44
0.0000000001
 40
0.0
 40
0.0
 40
0.0
 40
0.0
 40
0.123176212
 40
0.2580069421
 40
0.3991468888
 40
0.5402826833
 40
0.6751203023
 40
0.738507518
 40
0.7984468584
 40
0.8545863843
 40
0.9068106777
 40
1.0
 40
1.0
 40
1.0
 40
1.0
 10
13.1371837433
 20
40.5966708409
 30
0.0
 10
13.1371837433
 20
40.6344263649
 30
0.0
 10
13.1278393274
 20
40.7136000534
 30
0.0
 10
13.0921705537
 20
40.8311381374
 30
0.0
 10
13.0364127037
 20
40.9467492607
 30
0.0
 10
12.9642001237
 20
41.052802886
 30
0.0
 10
12.8927306467
 20
41.1291225362
 30
0.0
 10
12.8311899329
 20
41.1790417352
 30
0.0
 10
12.7851500765
 20
41.2093203886
 30
0.0
 10
12.7389921206
 20
41.2327081831
 30
0.0
 10
12.6807170032
 20
41.2533599076
 30
0.0
 10
12.6353022067
 20
41.2589488719
 30
0.0
 10
12.6068514494
 20
41.2564073245
 30
0.0
  0
SPLINE
  5
2D9
100
AcDbEntity
  8
0
100
AcDbSpline
 62
7
  6
BYLAYER
 70
0
 71
3
 72
16
 73
12
 74
0
 42
0.0000001
 43
0.0000001
 44
0.0000000001
 40
0.0
 40
0.0
 40
0.0
 40
0.0
 40
0.1551195618
 40
0.3063612161
 40
0.4499890019
 40
0.5831237908
 40
0.7038418509
 40
0.8118358605
 40
0.9089691465
 40
0.9549089595
 40
1.0
 40
1.0
 40
1.0
 40
1.0
 10
15.15917034
 20
36.1747924089
 30
0.0
 10
15.139632234
 20
36.2086332133
 30
0.0
 10
15.0972484809
 20
36.2733620881
 30
0.0
 10
15.0245261223
 20
36.3606488442
 30
0.0
 10
14.9455520772
 20
36.4345091079
 30
0.0
 10
14.8632555798
 20
36.4922163811
 30
0.0
 10
14.7804663094
 20
36.5315968822
 30
0.0
 10
14.6999987403
 20
36.5510604363
 30
0.0
 10
14.6357622431
 20
36.549350094
 30
0.0
 10
14.5898974206
 20
36.5366526135
 30
0.0
 10
14.5690107111
 20
36.5268714871
 30
0.0
 10
14.5591728319
 20
36.5211934956
 30
0.0
  0
SPLINE
  5
2DA
100
AcDbEntity
  8
0
100
AcDbSpline
 62
7
  6
BYLAYER
 70
0
 71
3
 72
12
 73
8
 74
0
 42
0.0000001
 43
0.0000001
 44
0.0000000001
 40
0.0
 40
0.0
 40
0.0
 40
0.0
 40
0.1081588022
 40
0.2183521463
 40
0.4513532897
 40
0.710426048
 40
1.0
 40
1.0
 40
1.0
 40
1.0
 10
14.6776582764
 20
37.5202492963
 30
0.0
 10
14.6858556436
 20
37.5249823029
 30
0.0
 10
14.7016165707
 20
37.5359818143
 30
0.0
 10
14.7298868722
 20
37.5637946424
 30
0.0
 10
14.7578925537
 20
37.6094435613
 30
0.0
 10
14.7773720936
 20
37.6756138911
 30
0.0
 10
14.7812138542
 20
37.7238005972
 30
0.0
 10
14.7812138542
 20
37.7491429668
 30
0.0
  0
SPLINE
  5
2DB
100
AcDbEntity
  8
0
100
AcDbSpline
 62
7
  6
BYLAYER
 70
0
 71
3
 72
20
 73
16
 74
0
 42
0.0000001
 43
0.0000001
 44
0.0000000001
 40
0.0
 40
0.0
 40
0.0
 40
0.0
 40
0.0623905849
 40
0.128806762
 40
0.2702975723
 40
0.4173613603
 40
0.5616147669
 40
0.6302508569
 40
0.6953778332
 40
0.756360748
 40
0.8128308048
 40
0.8647637883
 40
0.9125655836
 40
0.9571671477
 40
1.0
 40
1.0
 40
1.0
 40
1.0
 10
14.7812138542
 20
37.7491429668
 30
0.0
 10
14.7812138542
 20
37.7698762757
 30
0.0
 10
14.7783942819
 20
37.8127108011
 30
0.0
 10
14.7626558585
 20
37.901281296
 30
0.0
 10
14.7246119901
 20
38.0137342084
 30
0.0
 10
14.6558785995
 20
38.1407555183
 30
0.0
 10
14.5818356677
 20
38.2355882355
 30
0.0
 10
14.5151997919
 20
38.2997685845
 30
0.0
 10
14.4641424589
 20
38.3397462334
 30
0.0
 10
14.4122539593
 20
38.3714871222
 30
0.0
 10
14.360591354
 20
38.3943183118
 30
0.0
 10
14.3101829041
 20
38.40771829
 30
0.0
 10
14.2620159269
 20
38.4112537603
 30
0.0
 10
14.2171596503
 20
38.4046902243
 30
0.0
 10
14.1899893404
 20
38.393389813
 30
0.0
 10
14.177661073
 20
38.3862750255
 30
0.0
  0
SPLINE
  5
2DC
100
AcDbEntity
  8
0
100
AcDbSpline
 62
7
  6
BYLAYER
 70
0
 71
3
 72
13
 73
9
 74
0
 42
0.0000001
 43
0.0000001
 44
0.0000000001
 40
0.0
 40
0.0
 40
0.0
 40
0.0
 40
0.1080983532
 40
0.2182408668
 40
0.3322555564
 40
0.4516815527
 40
0.7106547151
 40
1.0
 40
1.0
 40
1.0
 40
1.0
 10
13.0336267994
 20
40.3677795367
 30
0.0
 10
13.0418255361
 20
40.3725111237
 30
0.0
 10
13.0575879634
 20
40.383510425
 30
0.0
 10
13.0784064187
 20
40.4040120771
 30
0.0
 10
13.0963254722
 20
40.4283296129
 30
0.0
 10
13.1166329991
 20
40.4665186429
 30
0.0
 10
13.1333614
 20
40.5231733744
 30
0.0
 10
13.1371837433
 20
40.5713330478
 30
0.0
 10
13.1371837433
 20
40.5966708409
 30
0.0
  0
SPLINE
  5
2DD
100
AcDbEntity
  8
0
100
AcDbSpline
 62
7
  6
BYLAYER
 70
0
 71
3
 72
9
 73
5
 74
0
 42
0.0000001
 43
0.0000001
 44
0.0000000001
 40
0.0
 40
0.0
 40
0.0
 40
0.0
 40
0.5170231463
 40
1.0
 40
1.0
 40
1.0
 40
1.0
 10
51.2682183288
 20
76.4267414626
 30
0.0
 10
51.9967253756
 20
76.5371400649
 30
0.0
 10
53.4079254232
 20
76.7369235533
 30
0.0
 10
54.8247823339
 20
76.8936248645
 30
0.0
 10
55.5103564612
 20
76.9548681862
 30
0.0
  0
SPLINE
  5
2DE
100
AcDbEntity
  8
0
100
AcDbSpline
 62
7
  6
BYLAYER
 70
0
 71
3
 72
10
 73
6
 74
0
 42
0.0000001
 43
0.0000001
 44
0.0000000001
 40
0.0
 40
0.0
 40
0.0
 40
0.0
 40
0.2518560403
 40
0.5024554583
 40
1.0
 40
1.0
 40
1.0
 40
1.0
 10
63.9956789251
 20
72.0559719362
 30
0.0
 10
64.3341334501
 20
71.634932399
 30
0.0
 10
64.9964955341
 20
70.7845139311
 30
0.0
 10
66.2630534202
 20
69.0531836425
 30
0.0
 10
67.1560661509
 20
67.718875449
 30
0.0
 10
67.7308433966
 20
66.8196959209
 30
0.0
  0
SPLINE
  5
2DF
100
AcDbEntity
  8
0
100
AcDbSpline
 62
7
  6
BYLAYER
 70
0
 71
3
 72
11
 73
7
 74
0
 42
0.0000001
 43
0.0000001
 44
0.0000000001
 40
0.0
 40
0.0
 40
0.0
 40
0.0
 40
0.2438900628
 40
0.4915597976
 40
0.7434928246
 40
1.0
 40
1.0
 40
1.0
 40
1.0
 10
67.9326640686
 20
66.1933599328
 30
0.0
 10
67.9806843949
 20
65.7828356758
 30
0.0
 10
68.06754742
 20
64.9542194055
 30
0.0
 10
68.164660459
 20
63.6977897652
 30
0.0
 10
68.2249496645
 20
62.4176228253
 30
0.0
 10
68.2383316606
 20
61.5558982257
 30
0.0
 10
68.2383316607
 20
61.1211926018
 30
0.0
  0
SPLINE
  5
2E0
100
AcDbEntity
  8
0
100
AcDbSpline
 62
7
  6
BYLAYER
 70
0
 71
3
 72
9
 73
5
 74
0
 42
0.0000001
 43
0.0000001
 44
0.0000000001
 40
0.0
 40
0.0
 40
0.0
 40
0.0
 40
0.5215756504
 40
1.0
 40
1.0
 40
1.0
 40
1.0
 10
55.5103564612
 20
76.9548681862
 30
0.0
 10
56.1399711076
 20
77.0111125811
 30
0.0
 10
57.3494123724
 20
77.0953837757
 30
0.0
 10
58.5613448861
 20
77.1266597291
 30
0.0
 10
59.1411597946
 20
77.1300427252
 30
0.0
  0
SPLINE
  5
2E1
100
AcDbEntity
  8
0
100
AcDbSpline
 62
7
  6
BYLAYER
 70
0
 71
3
 72
10
 73
6
 74
0
 42
0.0000001
 43
0.0000001
 44
0.0000000001
 40
0.0
 40
0.0
 40
0.0
 40
0.0
 40
0.5016826574
 40
0.7513563946
 40
1.0
 40
1.0
 40
1.0
 40
1.0
 10
59.6129517438
 20
76.9184007434
 30
0.0
 10
60.3846220769
 20
76.1413300234
 30
0.0
 10
61.5179995873
 20
74.954662519
 30
0.0
 10
62.9609620542
 20
73.3163680198
 30
0.0
 10
63.6556208062
 20
72.4790063947
 30
0.0
 10
63.9956789251
 20
72.0559719362
 30
0.0
  0
SPLINE
  5
2E2
100
AcDbEntity
  8
0
100
AcDbSpline
 62
7
  6
BYLAYER
 70
0
 71
3
 72
9
 73
5
 74
0
 42
0.0000001
 43
0.0000001
 44
0.0000000001
 40
0.0
 40
0.0
 40
0.0
 40
0.0
 40
0.4887982336
 40
1.0
 40
1.0
 40
1.0
 40
1.0
 10
63.074050957
 20
53.9817321462
 30
0.0
 10
63.5941212189
 20
54.0399748941
 30
0.0
 10
64.656545493
 20
54.1731660321
 30
0.0
 10
65.7160584627
 20
54.327397284
 30
0.0
 10
66.2570833898
 20
54.4100851179
 30
0.0
  0
SPLINE
  5
2E3
100
AcDbEntity
  8
0
100
AcDbSpline
 62
7
  6
BYLAYER
 70
0
 71
3
 72
10
 73
6
 74
0
 42
0.0000001
 43
0.0000001
 44
0.0000000001
 40
0.0
 40
0.0
 40
0.0
 40
0.0
 40
0.2442476773
 40
0.4926259646
 40
1.0
 40
1.0
 40
1.0
 40
1.0
 10
68.2383316607
 20
61.1211926018
 30
0.0
 10
68.2383316591
 20
60.6786302984
 30
0.0
 10
68.2242279873
 20
59.7859629586
 30
0.0
 10
68.1425059493
 20
57.9756775299
 30
0.0
 10
68.0269056426
 20
56.6105614908
 30
0.0
 10
67.9326640686
 20
55.6960729887
 30
0.0
  0
SPLINE
  5
2E4
100
AcDbEntity
  8
0
100
AcDbSpline
 62
7
  6
BYLAYER
 70
0
 71
3
 72
9
 73
5
 74
0
 42
0.0000001
 43
0.0000001
 44
0.0000000001
 40
0.0
 40
0.0
 40
0.0
 40
0.0
 40
0.2474421542
 40
1.0
 40
1.0
 40
1.0
 40
1.0
 10
63.2857364706
 20
56.3669128436
 30
0.0
 10
63.3219669783
 20
56.3988879229
 30
0.0
 10
63.4657324444
 20
56.5310956811
 30
0.0
 10
63.5986791525
 20
56.6750027499
 30
0.0
 10
63.692066922
 20
56.7884819229
 30
0.0
  0
SPLINE
  5
2E5
100
AcDbEntity
  8
0
100
AcDbSpline
 62
7
  6
BYLAYER
 70
0
 71
3
 72
9
 73
5
 74
0
 42
0.0000001
 43
0.0000001
 44
0.0000000001
 40
0.0
 40
0.0
 40
0.0
 40
0.0
 40
0.4948395905
 40
1.0
 40
1.0
 40
1.0
 40
1.0
 10
52.8346492959
 20
74.4314885344
 30
0.0
 10
52.9646278921
 20
74.4775134849
 30
0.0
 10
53.2326554133
 20
74.5559656429
 30
0.0
 10
53.5074569025
 20
74.6053899008
 30
0.0
 10
53.6470728589
 20
74.6233197699
 30
0.0
  0
SPLINE
  5
2E6
100
AcDbEntity
  8
0
100
AcDbSpline
 62
7
  6
BYLAYER
 70
0
 71
3
 72
25
 73
21
 74
0
 42
0.0000001
 43
0.0000001
 44
0.0000000001
 40
0.0
 40
0.0
 40
0.0
 40
0.0
 40
0.0220114265
 40
0.044737398
 40
0.0682806086
 40
0.0927185121
 40
0.1444450052
 40
0.2001497054
 40
0.259734973
 40
0.3228744129
 40
0.3890644984
 40
0.4576683486
 40
0.5279533727
 40
0.5991244088
 40
0.6703547039
 40
0.7408149421
 40
0.8097042818
 40
0.8762778423
 40
0.9398867515
 40
1.0
 40
1.0
 40
1.0
 40
1.0
 10
53.6470728589
 20
74.6233197699
 30
0.0
 10
53.7930380393
 20
74.6420650241
 30
0.0
 10
54.0918938752
 20
74.6646109036
 30
0.0
 10
54.5489255061
 20
74.6544938791
 30
0.0
 10
55.0192577176
 20
74.6010143257
 30
0.0
 10
55.6735477856
 20
74.4699395485
 30
0.0
 10
56.5145244629
 20
74.1938515352
 30
0.0
 10
57.5218893736
 20
73.7058143408
 30
0.0
 10
58.5300636235
 20
73.0636306628
 30
0.0
 10
59.5219574187
 20
72.2785260781
 30
0.0
 10
60.4808277618
 20
71.3640014171
 30
0.0
 10
61.3902364808
 20
70.3358146031
 30
0.0
 10
62.2345230405
 20
69.2117110128
 30
0.0
 10
62.9990944389
 20
68.0111308016
 30
0.0
 10
63.670710273
 20
66.7548594562
 30
0.0
 10
64.2377522937
 20
65.4646432832
 30
0.0
 10
64.6903872814
 20
64.1628139894
 30
0.0
 10
65.0208258163
 20
62.8717489082
 30
0.0
 10
65.2232762333
 20
61.6138709172
 30
0.0
 10
65.2720240256
 20
60.7862128549
 30
0.0
 10
65.2720240256
 20
60.3843079128
 30
0.0
  0
SPLINE
  5
2E7
100
AcDbEntity
  8
0
100
AcDbSpline
 62
7
  6
BYLAYER
 70
0
 71
3
 72
10
 73
6
 74
0
 42
0.0000001
 43
0.0000001
 44
0.0000000001
 40
0.0
 40
0.0
 40
0.0
 40
0.0
 40
0.2442476787
 40
0.4926259609
 40
1.0
 40
1.0
 40
1.0
 40
1.0
 10
66.1170201464
 20
59.896460051
 30
0.0
 10
66.1170201464
 20
60.3390223761
 30
0.0
 10
66.1311238054
 20
61.2316897479
 30
0.0
 10
66.2128457761
 20
63.0419752592
 30
0.0
 10
66.3284461587
 20
64.40709135
 30
0.0
 10
66.4226877375
 20
65.3215798986
 30
0.0
  0
SPLINE
  5
2E8
100
AcDbEntity
  8
0
100
AcDbSpline
 62
7
  6
BYLAYER
 70
0
 71
3
 72
10
 73
6
 74
0
 42
0.0000001
 43
0.0000001
 44
0.0000000001
 40
0.0
 40
0.0
 40
0.0
 40
0.0
 40
0.501682654
 40
0.7513563919
 40
1.0
 40
1.0
 40
1.0
 40
1.0
 10
66.2570833899
 20
65.9688252115
 30
0.0
 10
65.4854140773
 20
66.7458949028
 30
0.0
 10
64.3520380369
 20
67.9325608126
 30
0.0
 10
62.9090773141
 20
69.5708530176
 30
0.0
 10
62.2144193535
 20
70.4082134476
 30
0.0
 10
61.8743616094
 20
70.8312472984
 30
0.0
  0
SPLINE
  5
2E9
100
AcDbEntity
  8
0
100
AcDbSpline
 62
7
  6
BYLAYER
 70
0
 71
3
 72
11
 73
7
 74
0
 42
0.0000001
 43
0.0000001
 44
0.0000000001
 40
0.0
 40
0.0
 40
0.0
 40
0.0
 40
0.243890037
 40
0.4915598711
 40
0.7434929001
 40
1.0
 40
1.0
 40
1.0
 40
1.0
 10
66.4226877375
 20
54.8242929481
 30
0.0
 10
66.3746674187
 20
55.2348171409
 30
0.0
 10
66.287803651
 20
56.0634334256
 30
0.0
 10
66.1906923385
 20
57.3198632709
 30
0.0
 10
66.1304027319
 20
58.6000301459
 30
0.0
 10
66.1170201481
 20
59.4617545768
 30
0.0
 10
66.1170201464
 20
59.896460051
 30
0.0
  0
SPLINE
  5
2EA
100
AcDbEntity
  8
0
100
AcDbSpline
 62
7
  6
BYLAYER
 70
0
 71
3
 72
15
 73
11
 74
0
 42
0.0000001
 43
0.0000001
 44
0.0000000001
 40
0.0
 40
0.0
 40
0.0
 40
0.0
 40
0.1491363326
 40
0.2932607276
 40
0.4309986232
 40
0.5612444628
 40
0.6832502645
 40
0.7967301509
 40
0.9019803552
 40
1.0
 40
1.0
 40
1.0
 40
1.0
 10
61.8743616265
 20
70.8312469561
 30
0.0
 10
61.5580402059
 20
71.2247527036
 30
0.0
 10
60.9055799954
 20
71.9747335668
 30
0.0
 10
59.8583870347
 20
72.9932699837
 30
0.0
 10
58.7731824234
 20
73.8733768893
 30
0.0
 10
57.6680294663
 20
74.6001568916
 30
0.0
 10
56.5610534607
 20
75.1613357959
 30
0.0
 10
55.4698980884
 20
75.5470681049
 30
0.0
 10
54.4125047753
 20
75.7499359256
 30
0.0
 10
53.7195620433
 20
75.7596614132
 30
0.0
 10
53.3890451044
 20
75.7301358203
 30
0.0
  0
SPLINE
  5
2EB
100
AcDbEntity
  8
0
100
AcDbSpline
 62
7
  6
BYLAYER
 70
0
 71
3
 72
15
 73
11
 74
0
 42
0.0000001
 43
0.0000001
 44
0.0000000001
 40
0.0
 40
0.0
 40
0.0
 40
0.0
 40
0.1108410465
 40
0.2280578196
 40
0.3507094003
 40
0.4776259692
 40
0.6074737804
 40
0.7388131752
 40
0.8701524771
 40
1.0
 40
1.0
 40
1.0
 40
1.0
 10
66.1170201517
 20
59.8964601287
 30
0.0
 10
66.1170201516
 20
60.337394641
 30
0.0
 10
66.0642057013
 20
61.2451418069
 30
0.0
 10
65.8446097038
 20
62.6248472921
 30
0.0
 10
65.4860865054
 20
64.0411302432
 30
0.0
 10
64.9947167843
 20
65.4699782716
 30
0.0
 10
64.3788071627
 20
66.8873832103
 30
0.0
 10
63.6487456693
 20
68.2694091579
 30
0.0
 10
62.8169604779
 20
69.5925858908
 30
0.0
 10
62.1979893921
 20
70.4286521772
 30
0.0
 10
61.8743616265
 20
70.8312469561
 30
0.0
  0
SPLINE
  5
2EC
100
AcDbEntity
  8
0
100
AcDbSpline
 62
7
  6
BYLAYER
 70
0
 71
3
 72
17
 73
13
 74
0
 42
0.0000001
 43
0.0000001
 44
0.0000000001
 40
0.0
 40
0.0
 40
0.0
 40
0.0
 40
0.0547197514
 40
0.1092906766
 40
0.1640335198
 40
0.219259151
 40
0.3322255073
 40
0.4504194048
 40
0.5754668628
 40
0.7084398507
 40
0.8499272152
 40
1.0
 40
1.0
 40
1.0
 40
1.0
 10
63.1372720632
 20
54.1611727233
 30
0.0
 10
63.2531653994
 20
54.2083736052
 30
0.0
 10
63.4804356947
 20
54.3133927729
 30
0.0
 10
63.8051805997
 20
54.5022015417
 30
0.0
 10
64.1118184336
 20
54.7212629948
 30
0.0
 10
64.4980157112
 20
55.055028485
 30
0.0
 10
64.9328003762
 20
55.549759064
 30
0.0
 10
65.3621234525
 20
56.2459903202
 30
0.0
 10
65.699456098
 20
57.0406294052
 30
0.0
 10
65.9417146795
 20
57.9240396899
 30
0.0
 10
66.0867589615
 20
58.8859324409
 30
0.0
 10
66.1170201468
 20
59.5532639421
 30
0.0
 10
66.1170201517
 20
59.8964601287
 30
0.0
  0
SPLINE
  5
2ED
100
AcDbEntity
  8
0
100
AcDbSpline
 62
7
  6
BYLAYER
 70
0
 71
3
 72
15
 73
11
 74
0
 42
0.0000001
 43
0.0000001
 44
0.0000000001
 40
0.0
 40
0.0
 40
0.0
 40
0.0
 40
0.128973625
 40
0.2552347874
 40
0.3794646265
 40
0.5024842585
 40
0.6251806701
 40
0.7484374045
 40
0.8731075269
 40
1.0
 40
1.0
 40
1.0
 40
1.0
 10
53.3890451044
 20
75.7301358203
 30
0.0
 10
53.2441638856
 20
75.7171933882
 30
0.0
 10
52.9584106507
 20
75.6785532039
 30
0.0
 10
52.541118663
 20
75.5806442131
 30
0.0
 10
52.141985889
 20
75.443669194
 30
0.0
 10
51.7626359898
 20
75.2681811205
 30
0.0
 10
51.4045029587
 20
75.0547991473
 30
0.0
 10
51.0689040231
 20
74.8043632689
 30
0.0
 10
50.7571409501
 20
74.5178643364
 30
0.0
 10
50.5679307421
 20
74.3057511471
 30
0.0
 10
50.4777815562
 20
74.1946031234
 30
0.0
  0
SPLINE
  5
2EE
100
AcDbEntity
  8
0
100
AcDbSpline
 62
7
  6
BYLAYER
 70
0
 71
3
 72
10
 73
6
 74
0
 42
0.0000001
 43
0.0000001
 44
0.0000000001
 40
0.0
 40
0.0
 40
0.0
 40
0.0
 40
0.2723292994
 40
0.5297736699
 40
1.0
 40
1.0
 40
1.0
 40
1.0
 10
65.2720240256
 20
60.3843079128
 30
0.0
 10
65.2720240256
 20
60.0874732167
 30
0.0
 10
65.2467546513
 20
59.509331602
 30
0.0
 10
65.0913232746
 20
58.4299138201
 30
0.0
 10
64.8491016944
 20
57.662985308
 30
0.0
 10
64.6239193597
 20
57.2025620999
 30
0.0
  0
SPLINE
  5
2EF
100
AcDbEntity
  8
0
100
AcDbSpline
 62
7
  6
BYLAYER
 70
0
 71
3
 72
10
 73
6
 74
0
 42
0.0000001
 43
0.0000001
 44
0.0000000001
 40
0.0
 40
0.0
 40
0.0
 40
0.0
 40
0.5131960811
 40
0.7591559101
 40
1.0
 40
1.0
 40
1.0
 40
1.0
 10
64.6239193597
 20
57.2025620999
 30
0.0
 10
64.4920758782
 20
56.9329858972
 30
0.0
 10
64.2606378
 20
56.5497189581
 30
0.0
 10
63.8827673456
 20
56.1024043542
 30
0.0
 10
63.6759750284
 20
55.905721391
 30
0.0
 10
63.5685739257
 20
55.8146229823
 30
0.0
  0
SPLINE
  5
2F0
100
AcDbEntity
  8
0
100
AcDbSpline
 62
7
  6
BYLAYER
 70
0
 71
3
 72
9
 73
5
 74
0
 42
0.0000001
 43
0.0000001
 44
0.0000000001
 40
0.0
 40
0.0
 40
0.0
 40
0.0
 40
0.5170231458
 40
1.0
 40
1.0
 40
1.0
 40
1.0
 10
57.6311835086
 20
76.2582626541
 30
0.0
 10
56.9026764463
 20
76.1478640485
 30
0.0
 10
55.4914763666
 20
75.9480805573
 30
0.0
 10
54.0746194242
 20
75.7913792396
 30
0.0
 10
53.3890452808
 20
75.7301359159
 30
0.0
  0
SPLINE
  5
2F1
100
AcDbEntity
  8
0
100
AcDbSpline
 62
7
  6
BYLAYER
 70
0
 71
3
 72
10
 73
6
 74
0
 42
0.0000001
 43
0.0000001
 44
0.0000000001
 40
0.0
 40
0.0
 40
0.0
 40
0.0
 40
0.2518560428
 40
0.5024554617
 40
1.0
 40
1.0
 40
1.0
 40
1.0
 10
61.8743616094
 20
70.8312472984
 30
0.0
 10
61.5359065541
 20
71.2522873543
 30
0.0
 10
60.8735434466
 20
72.1027068845
 30
0.0
 10
59.6069836791
 20
73.8340393957
 30
0.0
 10
58.7139696993
 20
75.1683493653
 30
0.0
 10
58.13919168
 20
76.0675301048
 30
0.0
  0
SPLINE
  5
2F2
100
AcDbEntity
  8
0
100
AcDbSpline
 62
7
  6
BYLAYER
 70
0
 71
3
 72
9
 73
5
 74
0
 42
0.0000001
 43
0.0000001
 44
0.0000000001
 40
0.0
 40
0.0
 40
0.0
 40
0.0
 40
0.5215756502
 40
1.0
 40
1.0
 40
1.0
 40
1.0
 10
53.3890452808
 20
75.7301359159
 30
0.0
 10
52.7594306083
 20
75.6738915181
 30
0.0
 10
51.5499892926
 20
75.5896203219
 30
0.0
 10
50.3380567282
 20
75.5583443636
 30
0.0
 10
49.758241795
 20
75.5549613688
 30
0.0
  0
SPLINE
  5
2F3
100
AcDbEntity
  8
0
100
AcDbSpline
 62
7
  6
BYLAYER
 70
0
 71
3
 72
11
 73
7
 74
0
 42
0.0000001
 43
0.0000001
 44
0.0000000001
 40
0.0
 40
0.0
 40
0.0
 40
0.0
 40
0.224337825
 40
0.4643547528
 40
0.7225623719
 40
1.0
 40
1.0
 40
1.0
 40
1.0
 10
11.3098638894
 20
42.7082858866
 30
0.0
 10
11.4194276761
 20
42.7221098833
 30
0.0
 10
11.6495597977
 20
42.7274269496
 30
0.0
 10
12.0025533511
 20
42.6729575633
 30
0.0
 10
12.3679605408
 20
42.5579562453
 30
0.0
 10
12.6076677773
 20
42.446311792
 30
0.0
 10
12.7281085308
 20
42.3819242489
 30
0.0
  0
SPLINE
  5
2F4
100
AcDbEntity
  8
0
100
AcDbSpline
 62
7
  6
BYLAYER
 70
0
 71
3
 72
17
 73
13
 74
0
 42
0.0000001
 43
0.0000001
 44
0.0000000001
 40
0.0
 40
0.0
 40
0.0
 40
0.0
 40
0.1534056551
 40
0.3005829481
 40
0.4398843967
 40
0.5700999239
 40
0.6905909146
 40
0.7472403277
 40
0.8015784917
 40
0.9039107123
 40
0.9525759524
 40
1.0
 40
1.0
 40
1.0
 40
1.0
 10
10.9946339983
 20
36.2048064268
 30
0.0
 10
11.1457701569
 20
36.0222105407
 30
0.0
 10
11.4576193918
 20
35.6770291564
 30
0.0
 10
11.9593859362
 20
35.2170184541
 30
0.0
 10
12.4774527197
 20
34.8325128724
 30
0.0
 10
13.0012396826
 20
34.5315324256
 30
0.0
 10
13.4429388298
 20
34.3519247866
 30
0.0
 10
13.7886418987
 20
34.2585320113
 30
0.0
 10
14.1133641628
 20
34.2004981118
 30
0.0
 10
14.4330935618
 20
34.1885726447
 30
0.0
 10
14.7375988775
 20
34.2286165546
 30
0.0
 10
14.881959187
 20
34.2651152709
 30
0.0
 10
14.9517592704
 20
34.2874156718
 30
0.0
  0
SPLINE
  5
2F5
100
AcDbEntity
  8
0
100
AcDbSpline
 62
7
  6
BYLAYER
 70
0
 71
3
 72
15
 73
11
 74
0
 42
0.0000001
 43
0.0000001
 44
0.0000000001
 40
0.0
 40
0.0
 40
0.0
 40
0.0
 40
0.1293641084
 40
0.2605083109
 40
0.3918432032
 40
0.5218305088
 40
0.6489497618
 40
0.7718020906
 40
0.8891495316
 40
1.0
 40
1.0
 40
1.0
 40
1.0
 10
14.1883375639
 20
41.111402624
 30
0.0
 10
14.3086370508
 20
40.9660622131
 30
0.0
 10
14.538948983
 20
40.6632939447
 30
0.0
 10
14.8487144372
 20
40.1824144024
 30
0.0
 10
15.1210470896
 20
39.6783135624
 30
0.0
 10
15.3511305547
 20
39.1599880005
 30
0.0
 10
15.5348913154
 20
38.6365430409
 30
0.0
 10
15.6690953158
 20
38.1171869465
 30
0.0
 10
15.7513590384
 20
37.6111151318
 30
0.0
 10
15.7711719636
 20
37.2781094894
 30
0.0
 10
15.7711775071
 20
37.1164418408
 30
0.0
  0
SPLINE
  5
2F6
100
AcDbEntity
  8
0
100
AcDbSpline
 62
7
  6
BYLAYER
 70
0
 71
3
 72
25
 73
21
 74
0
 42
0.0000001
 43
0.0000001
 44
0.0000000001
 40
0.0
 40
0.0
 40
0.0
 40
0.0
 40
0.0738331602
 40
0.1486565529
 40
0.2237748036
 40
0.2985355898
 40
0.3722691776
 40
0.4443429115
 40
0.5141703031
 40
0.5812328079
 40
0.6451037482
 40
0.7054740274
 40
0.7621838445
 40
0.8152569264
 40
0.8649375815
 40
0.9117233237
 40
0.9342835249
 40
0.9564274634
 40
0.9782862656
 40
1.0
 40
1.0
 40
1.0
 40
1.0
 10
25.3629830572
 20
47.9044067796
 30
0.0
 10
25.4925624788
 20
47.7478547703
 30
0.0
 10
25.7423035781
 20
47.423250713
 30
0.0
 10
26.084109478
 20
46.9103370639
 30
0.0
 10
26.3921446477
 20
46.3734821986
 30
0.0
 10
26.6623050687
 20
45.8199436724
 30
0.0
 10
26.8909834918
 20
45.2570298111
 30
0.0
 10
27.0751377333
 20
44.6922505917
 30
0.0
 10
27.212324081
 20
44.1331003723
 30
0.0
 10
27.3007084304
 20
43.5869777231
 30
0.0
 10
27.339088194
 20
43.0610776478
 30
0.0
 10
27.3268760896
 20
42.5622854771
 30
0.0
 10
27.2641052488
 20
42.0971031083
 30
0.0
 10
27.1513149847
 20
41.6715617281
 30
0.0
 10
26.98964377
 20
41.2913665685
 30
0.0
 10
26.8131307833
 20
41.0132102786
 30
0.0
 10
26.6499679907
 20
40.8209749888
 30
0.0
 10
26.5184946879
 20
40.6929523103
 30
0.0
 10
26.376961027
 20
40.5798683355
 30
0.0
 10
26.2760411607
 20
40.5146287018
 30
0.0
 10
26.2242815439
 20
40.4847468435
 30
0.0
  0
SPLINE
  5
2F7
100
AcDbEntity
  8
0
100
AcDbSpline
 62
7
  6
BYLAYER
 70
0
 71
3
 72
19
 73
15
 74
0
 42
0.0000001
 43
0.0000001
 44
0.0000000001
 40
0.0
 40
0.0
 40
0.0
 40
0.0
 40
0.0475010689
 40
0.0956063411
 40
0.1448819275
 40
0.1958278476
 40
0.2488537685
 40
0.3042760506
 40
0.362311347
 40
0.4230881966
 40
0.5528797948
 40
0.6933025935
 40
0.8430014034
 40
1.0
 40
1.0
 40
1.0
 40
1.0
 10
20.8743154395
 20
49.7512152541
 30
0.0
 10
20.9460466842
 20
49.7926271312
 30
0.0
 10
21.0964553711
 20
49.8659844666
 30
0.0
 10
21.3373198216
 20
49.9445944842
 30
0.0
 10
21.5923651978
 20
49.9917381813
 30
0.0
 10
21.8597862399
 20
50.0071064571
 30
0.0
 10
22.1378163258
 20
49.9908044368
 30
0.0
 10
22.4246516693
 20
49.9429859038
 30
0.0
 10
22.7184989518
 20
49.8640963726
 30
0.0
 10
23.1260139569
 20
49.7149181512
 30
0.0
 10
23.6416143691
 20
49.4503413775
 30
0.0
 10
24.243512982
 20
49.0302266165
 30
0.0
 10
24.8274304338
 20
48.5112817083
 30
0.0
 10
25.1884294598
 20
48.1152945583
 30
0.0
 10
25.3629830572
 20
47.9044067796
 30
0.0
  0
SPLINE
  5
2F8
100
AcDbEntity
  8
0
100
AcDbSpline
 62
7
  6
BYLAYER
 70
0
 71
3
 72
15
 73
11
 74
0
 42
0.0000001
 43
0.0000001
 44
0.0000000001
 40
0.0
 40
0.0
 40
0.0
 40
0.0
 40
0.1486058177
 40
0.2895003741
 40
0.4227225657
 40
0.5486426469
 40
0.6680011788
 40
0.7819384642
 40
0.8919873012
 40
1.0
 40
1.0
 40
1.0
 40
1.0
 10
22.700804604
 20
39.7292220698
 30
0.0
 10
22.7008057051
 20
39.5729383961
 30
0.0
 10
22.6882261443
 20
39.2682695878
 30
0.0
 10
22.6282377468
 20
38.8270659131
 30
0.0
 10
22.5280574697
 20
38.417570466
 30
0.0
 10
22.3884561822
 20
38.0437047134
 30
0.0
 10
22.2104986541
 20
37.7091056047
 30
0.0
 10
21.995557075
 20
37.417198042
 30
0.0
 10
21.7456479489
 20
37.1712439159
 30
0.0
 10
21.5565122093
 20
37.0392594017
 30
0.0
 10
21.4581374331
 20
36.9824629642
 30
0.0
  0
SPLINE
  5
2F9
100
AcDbEntity
  8
0
100
AcDbSpline
 62
7
  6
BYLAYER
 70
0
 71
3
 72
11
 73
7
 74
0
 42
0.0000001
 43
0.0000001
 44
0.0000000001
 40
0.0
 40
0.0
 40
0.0
 40
0.0
 40
0.2325810675
 40
0.4780121557
 40
0.7345771936
 40
1.0
 40
1.0
 40
1.0
 40
1.0
 10
12.7306876484
 20
42.3827565844
 30
0.0
 10
12.8611781957
 20
42.30741814
 30
0.0
 10
13.1209029367
 20
42.137590697
 30
0.0
 10
13.4929798872
 20
41.8399018071
 30
0.0
 10
13.8531980514
 20
41.496412962
 30
0.0
 10
14.0786957428
 20
41.2438669241
 30
0.0
 10
14.1883375639
 20
41.111402624
 30
0.0
  0
SPLINE
  5
2FA
100
AcDbEntity
  8
0
100
AcDbSpline
 62
7
  6
BYLAYER
 70
0
 71
3
 72
15
 73
11
 74
0
 42
0.0000001
 43
0.0000001
 44
0.0000000001
 40
0.0
 40
0.0
 40
0.0
 40
0.0
 40
0.147379407
 40
0.2873211366
 40
0.4199499895
 40
0.545687636
 40
0.6652942154
 40
0.7798735413
 40
0.8908707912
 40
1.0
 40
1.0
 40
1.0
 40
1.0
 10
15.7690906876
 20
37.1122311272
 30
0.0
 10
15.7657251699
 20
37.0112987799
 30
0.0
 10
15.7511062858
 20
36.8146634237
 30
0.0
 10
15.7032339526
 20
36.5304659576
 30
0.0
 10
15.6303017569
 20
36.2668962179
 30
0.0
 10
15.5328035774
 20
36.0262675955
 30
0.0
 10
15.4114762196
 20
35.8106979707
 30
0.0
 10
15.2671566686
 20
35.6222159024
 30
0.0
 10
15.101124594
 20
35.4627022443
 30
0.0
 10
14.9764229354
 20
35.3764658434
 30
0.0
 10
14.9116648839
 20
35.3390733802
 30
0.0
  0
SPLINE
  5
2FB
100
AcDbEntity
  8
0
100
AcDbSpline
 62
7
  6
BYLAYER
 70
0
 71
3
 72
23
 73
19
 74
0
 42
0.0000001
 43
0.0000001
 44
0.0000000001
 40
0.0
 40
0.0
 40
0.0
 40
0.0
 40
0.0437751986
 40
0.0895057481
 40
0.1378467384
 40
0.1892418935
 40
0.2439317155
 40
0.3019760336
 40
0.3632801157
 40
0.4276229383
 40
0.4946816324
 40
0.5640509864
 40
0.6352605922
 40
0.7077954109
 40
0.7811062506
 40
0.8546192491
 40
0.927784932
 40
1.0
 40
1.0
 40
1.0
 40
1.0
 10
9.8709754248
 20
43.0876444265
 30
0.0
 10
9.7896574389
 20
43.0137026066
 30
0.0
 10
9.6371418375
 20
42.846760704
 30
0.0
 10
9.4496299183
 20
42.5541653206
 30
0.0
 10
9.3012503588
 20
42.2190206209
 30
0.0
 10
9.1934296146
 20
41.8455046562
 30
0.0
 10
9.1270664191
 20
41.4379149374
 30
0.0
 10
9.1027450283
 20
41.0009000089
 30
0.0
 10
9.1206130971
 20
40.5394274898
 30
0.0
 10
9.1803978279
 20
40.0587625715
 30
0.0
 10
9.2813873282
 20
39.5644151422
 30
0.0
 10
9.422410064
 20
39.0620815373
 30
0.0
 10
9.6018130178
 20
38.5575589113
 30
0.0
 10
9.8175227371
 20
38.0566875467
 30
0.0
 10
10.0670405224
 20
37.5652918047
 30
0.0
 10
10.3474765462
 20
37.0890171703
 30
0.0
 10
10.6555657977
 20
36.6334876261
 30
0.0
 10
10.8790233894
 20
36.3444819469
 30
0.0
 10
10.9946339983
 20
36.2048064268
 30
0.0
  0
SPLINE
  5
2FC
100
AcDbEntity
  8
0
100
AcDbSpline
 62
7
  6
BYLAYER
 70
0
 71
3
 72
13
 73
9
 74
0
 42
0.0000001
 43
0.0000001
 44
0.0000000001
 40
0.0
 40
0.0
 40
0.0
 40
0.0
 40
0.1169571383
 40
0.2347659386
 40
0.3542482635
 40
0.4761677546
 40
0.7297102452
 40
1.0
 40
1.0
 40
1.0
 40
1.0
 10
11.5690931898
 20
45.1294404713
 30
0.0
 10
11.5084385136
 20
45.0944216417
 30
0.0
 10
11.390303893
 20
45.0176453752
 30
0.0
 10
11.2251690386
 20
44.883913157
 30
0.0
 10
11.0724433933
 20
44.7318999002
 30
0.0
 10
10.8837181989
 20
44.5028207999
 30
0.0
 10
10.6818467825
 20
44.1703939793
 30
0.0
 10
10.5655997506
 20
43.8775029082
 30
0.0
 10
10.516602885
 20
43.723238395
 30
0.0
  0
SPLINE
  5
2FD
100
AcDbEntity
  8
0
100
AcDbSpline
 62
7
  6
BYLAYER
 70
0
 71
3
 72
15
 73
11
 74
0
 42
0.0000001
 43
0.0000001
 44
0.0000000001
 40
0.0
 40
0.0
 40
0.0
 40
0.0
 40
0.1080127572
 40
0.21806165
 40
0.3319990073
 40
0.4513576276
 40
0.5772777375
 40
0.7105000912
 40
0.8513948522
 40
1.0
 40
1.0
 40
1.0
 40
1.0
 10
15.4581642945
 20
47.3747833176
 30
0.0
 10
15.5565391108
 20
47.4315797783
 30
0.0
 10
15.7654096474
 20
47.5293825714
 30
0.0
 10
16.103367275
 20
47.6228316539
 30
0.0
 10
16.4636378567
 20
47.6630208059
 30
0.0
 10
16.8423880036
 20
47.6498347321
 30
0.0
 10
17.2359658152
 20
47.5837983039
 30
0.0
 10
17.64068913
 20
47.4658068153
 30
0.0
 10
18.0527753037
 20
47.2971536494
 30
0.0
 10
18.3229154056
 20
47.1557134875
 30
0.0
 10
18.4582595071
 20
47.0775704513
 30
0.0
  0
SPLINE
  5
2FE
100
AcDbEntity
  8
0
100
AcDbSpline
 62
7
  6
BYLAYER
 70
0
 71
3
 72
13
 73
9
 74
0
 42
0.0000001
 43
0.0000001
 44
0.0000000001
 40
0.0
 40
0.0
 40
0.0
 40
0.0
 40
0.2702944645
 40
0.5238380229
 40
0.6457568477
 40
0.7652378421
 40
0.8830448745
 40
1.0
 40
1.0
 40
1.0
 40
1.0
 10
15.8247216813
 20
34.5288107636
 30
0.0
 10
15.9828428902
 20
34.4940901143
 30
0.0
 10
16.294668883
 20
34.448282024
 30
0.0
 10
16.6835633284
 20
34.4568675123
 30
0.0
 10
16.9763651493
 20
34.5057602745
 30
0.0
 10
17.1844100926
 20
34.5620180218
 30
0.0
 10
17.3828253691
 20
34.6381686912
 30
0.0
 10
17.5084026327
 20
34.702096081
 30
0.0
 10
17.5690663284
 20
34.7371201179
 30
0.0
  0
SPLINE
  5
2FF
100
AcDbEntity
  8
0
100
AcDbSpline
 62
7
  6
BYLAYER
 70
0
 71
3
 72
21
 73
17
 74
0
 42
0.0000001
 43
0.0000001
 44
0.0000000001
 40
0.0
 40
0.0
 40
0.0
 40
0.0
 40
0.1600287241
 40
0.311636539
 40
0.3835711192
 40
0.4525931617
 40
0.5185597946
 40
0.5814069011
 40
0.6411643651
 40
0.6979705121
 40
0.7520838301
 40
0.8038953001
 40
0.8539228225
 40
0.9028005753
 40
0.9512437675
 40
1.0
 40
1.0
 40
1.0
 40
1.0
 10
14.4665855664
 20
41.5388845624
 30
0.0
 10
14.2836527146
 20
41.7598957781
 30
0.0
 10
13.9045472898
 20
42.172025766
 30
0.0
 10
13.3820604242
 20
42.6220474033
 30
0.0
 10
12.9518935794
 20
42.9228197985
 30
0.0
 10
12.633067477
 20
43.1131646546
 30
0.0
 10
12.314891786
 20
43.2707763416
 30
0.0
 10
11.9997387476
 20
43.3943915534
 30
0.0
 10
11.6899894571
 20
43.4830254975
 30
0.0
 10
11.3879711686
 20
43.5359159987
 30
0.0
 10
11.0959725888
 20
43.552493312
 30
0.0
 10
10.8162624565
 20
43.5325058119
 30
0.0
 10
10.5511125928
 20
43.4758690158
 30
0.0
 10
10.3027618659
 20
43.3829115589
 30
0.0
 10
10.0734635289
 20
43.2543647584
 30
0.0
 10
9.935646864
 20
43.1464496694
 30
0.0
 10
9.8709754248
 20
43.0876444265
 30
0.0
  0
SPLINE
  5
300
100
AcDbEntity
  8
0
100
AcDbSpline
 62
7
  6
BYLAYER
 70
0
 71
3
 72
24
 73
20
 74
0
 42
0.0000001
 43
0.0000001
 44
0.0000000001
 40
0.0
 40
0.0
 40
0.0
 40
0.0
 40
0.0738369004
 40
0.1486639575
 40
0.2237860031
 40
0.2985507727
 40
0.3722885793
 40
0.4443660336
 40
0.5141968513
 40
0.5812627646
 40
0.6451370631
 40
0.7055105813
 40
0.7622234188
 40
0.8152992994
 40
0.8649824957
 40
0.9117705942
 40
0.9564275169
 40
0.9782868393
 40
1.0
 40
1.0
 40
1.0
 40
1.0
 10
11.4297985455
 20
36.7716490742
 30
0.0
 10
11.3292835704
 20
36.8930867308
 30
0.0
 10
11.1355590698
 20
37.1448823742
 30
0.0
 10
10.8704198516
 20
37.5427501307
 30
0.0
 10
10.6314762222
 20
37.9591893647
 30
0.0
 10
10.4219117006
 20
38.3885714211
 30
0.0
 10
10.2445249961
 20
38.8252261877
 30
0.0
 10
10.1016759798
 20
39.2633272846
 30
0.0
 10
9.9952607278
 20
39.6970611085
 30
0.0
 10
9.9267009985
 20
40.1206893659
 30
0.0
 10
9.8969304325
 20
40.5286319509
 30
0.0
 10
9.9064027911
 20
40.9155457806
 30
0.0
 10
9.9550995891
 20
41.2763929335
 30
0.0
 10
10.0425771024
 20
41.6064743604
 30
0.0
 10
10.1680404172
 20
41.9014325689
 30
0.0
 10
10.3301954312
 20
42.157112039
 30
0.0
 10
10.4958837315
 20
42.3355770289
 30
0.0
 10
10.6432582855
 20
42.4533001825
 30
0.0
 10
10.7215381946
 20
42.5039144638
 30
0.0
 10
10.7616846916
 20
42.5270928302
 30
0.0
  0
SPLINE
  5
301
100
AcDbEntity
  8
0
100
AcDbSpline
 62
7
  6
BYLAYER
 70
0
 71
3
 72
11
 73
7
 74
0
 42
0.0000001
 43
0.0000001
 44
0.0000000001
 40
0.0
 40
0.0
 40
0.0
 40
0.0
 40
0.2224605835
 40
0.4617902292
 40
0.7206799047
 40
1.0
 40
1.0
 40
1.0
 40
1.0
 10
11.1486123571
 20
42.7835024118
 30
0.0
 10
11.270639999
 20
42.7988990111
 30
0.0
 10
11.5279792268
 20
42.8028713873
 30
0.0
 10
11.9223890826
 20
42.7344720488
 30
0.0
 10
12.3304152449
 20
42.5943292395
 30
0.0
 10
12.5969455657
 20
42.4599722959
 30
0.0
 10
12.7306876484
 20
42.3827565844
 30
0.0
  0
SPLINE
  5
302
100
AcDbEntity
  8
0
100
AcDbSpline
 62
7
  6
BYLAYER
 70
0
 71
3
 72
22
 73
18
 74
0
 42
0.0000001
 43
0.0000001
 44
0.0000000001
 40
0.0
 40
0.0
 40
0.0
 40
0.0
 40
0.1451556145
 40
0.2185937086
 40
0.2918365503
 40
0.3643149805
 40
0.4354834635
 40
0.5048301295
 40
0.5718871315
 40
0.636250525
 40
0.697597257
 40
0.7557042482
 40
0.8104725767
 40
0.8619550863
 40
0.910381861
 40
0.9561832643
 40
1.0
 40
1.0
 40
1.0
 40
1.0
 10
11.2728820008
 20
36.6322883652
 30
0.0
 10
11.0782257097
 20
36.8674633112
 30
0.0
 10
10.8081668103
 20
37.2415420073
 30
0.0
 10
10.4963231988
 20
37.7704766079
 30
0.0
 10
10.2871794618
 20
38.1815911025
 30
0.0
 10
10.1062156836
 20
38.6006388952
 30
0.0
 10
9.9554916968
 20
39.0228261173
 30
0.0
 10
9.8367443051
 20
39.4432862988
 30
0.0
 10
9.7513545994
 20
39.8572028453
 30
0.0
 10
9.7003054305
 20
40.2598370683
 30
0.0
 10
9.6841996268
 20
40.6466041147
 30
0.0
 10
9.7032773146
 20
41.0131199173
 30
0.0
 10
9.7574252152
 20
41.3552461943
 30
0.0
 10
9.8461699322
 20
41.669108265
 30
0.0
 10
9.9687749029
 20
41.9511242494
 30
0.0
 10
10.1240718247
 20
42.1978149596
 30
0.0
 10
10.2506443668
 20
42.3390228724
 30
0.0
 10
10.3181997093
 20
42.401700467
 30
0.0
  0
SPLINE
  5
303
100
AcDbEntity
  8
0
100
AcDbSpline
 62
7
  6
BYLAYER
 70
0
 71
3
 72
11
 73
7
 74
0
 42
0.0000001
 43
0.0000001
 44
0.0000000001
 40
0.0
 40
0.0
 40
0.0
 40
0.0
 40
0.2484970579
 40
0.4952411479
 40
0.7444811882
 40
1.0
 40
1.0
 40
1.0
 40
1.0
 10
10.3181997093
 20
42.401700467
 30
0.0
 10
10.3745713503
 20
42.4540018652
 30
0.0
 10
10.4951654532
 20
42.5497808061
 30
0.0
 10
10.6970065378
 20
42.6628309813
 30
0.0
 10
10.9163050863
 20
42.7429907046
 30
0.0
 10
11.0701641239
 20
42.7736043593
 30
0.0
 10
11.1486123571
 20
42.7835024118
 30
0.0
  0
SPLINE
  5
304
100
AcDbEntity
  8
0
100
AcDbSpline
 62
7
  6
BYLAYER
 70
0
 71
3
 72
19
 73
15
 74
0
 42
0.0000001
 43
0.0000001
 44
0.0000000001
 40
0.0
 40
0.0
 40
0.0
 40
0.0
 40
0.1569978431
 40
0.3066956527
 40
0.4471183213
 40
0.5769105603
 40
0.6376875337
 40
0.6957229388
 40
0.7511454329
 40
0.8041715352
 40
0.8551176285
 40
0.9043933763
 40
0.9524987934
 40
1.0
 40
1.0
 40
1.0
 40
1.0
 10
15.4635293362
 20
42.1889886254
 30
0.0
 10
15.2889764918
 20
42.3998754944
 30
0.0
 10
14.9279795457
 20
42.7958607355
 30
0.0
 10
14.3440647849
 20
43.3148042341
 30
0.0
 10
13.7421673997
 20
43.7349198883
 30
0.0
 10
13.2265663265
 20
43.9994983011
 30
0.0
 10
12.8190502372
 20
44.148678699
 30
0.0
 10
12.5252020544
 20
44.2275683924
 30
0.0
 10
12.238365926
 20
44.2753883885
 30
0.0
 10
11.9603347126
 20
44.2916906341
 30
0.0
 10
11.6929126049
 20
44.2763230768
 30
0.0
 10
11.4378662167
 20
44.2291794625
 30
0.0
 10
11.1970008136
 20
44.1505694598
 30
0.0
 10
11.046591571
 20
44.0772119558
 30
0.0
 10
10.9748600216
 20
44.0358000461
 30
0.0
  0
SPLINE
  5
305
100
AcDbEntity
  8
0
100
AcDbSpline
 62
7
  6
BYLAYER
 70
0
 71
3
 72
11
 73
7
 74
0
 42
0.0000001
 43
0.0000001
 44
0.0000000001
 40
0.0
 40
0.0
 40
0.0
 40
0.0
 40
0.2325800134
 40
0.4780150728
 40
0.7345715043
 40
1.0
 40
1.0
 40
1.0
 40
1.0
 10
18.4582595071
 20
47.0775704513
 30
0.0
 10
18.6403372223
 20
46.9724450314
 30
0.0
 10
19.0027516134
 20
46.7354833219
 30
0.0
 10
19.5219191397
 20
46.3200984254
 30
0.0
 10
20.0245541148
 20
45.8408153992
 30
0.0
 10
20.3391976724
 20
45.4884245544
 30
0.0
 10
20.4921896288
 20
45.3035865773
 30
0.0
  0
SPLINE
  5
306
100
AcDbEntity
  8
0
100
AcDbSpline
 62
7
  6
BYLAYER
 70
0
 71
3
 72
15
 73
11
 74
0
 42
0.0000001
 43
0.0000001
 44
0.0000000001
 40
0.0
 40
0.0
 40
0.0
 40
0.0
 40
0.1108500945
 40
0.2281962168
 40
0.3510463805
 40
0.4781664113
 40
0.6081544319
 40
0.739491771
 40
0.8706320709
 40
1.0
 40
1.0
 40
1.0
 40
1.0
 10
22.7008039933
 20
40.259930984
 30
0.0
 10
22.7008069781
 20
40.4610750373
 30
0.0
 10
22.6761359604
 20
40.8753928913
 30
0.0
 10
22.5737930298
 20
41.5050335778
 30
0.0
 10
22.4068218001
 20
42.1512059432
 30
0.0
 10
22.1781904446
 20
42.802468076
 30
0.0
 10
21.8919265497
 20
43.4473711511
 30
0.0
 10
21.5530890503
 20
44.0745625451
 30
0.0
 10
21.1676859237
 20
44.6728733207
 30
0.0
 10
20.8811323608
 20
45.0495716305
 30
0.0
 10
20.7314529234
 20
45.2304075717
 30
0.0
  0
SPLINE
  5
307
100
AcDbEntity
  8
0
100
AcDbSpline
 62
7
  6
BYLAYER
 70
0
 71
3
 72
25
 73
21
 74
0
 42
0.0000001
 43
0.0000001
 44
0.0000000001
 40
0.0
 40
0.0
 40
0.0
 40
0.0
 40
0.0217138071
 40
0.0435725641
 40
0.0657165095
 40
0.0882769213
 40
0.1350626641
 40
0.1847430283
 40
0.2378160406
 40
0.2945262911
 40
0.3548970282
 40
0.4187678601
 40
0.4858300668
 40
0.5556572121
 40
0.6277311721
 40
0.701464955
 40
0.7762256584
 40
0.8513447474
 40
0.9261651408
 40
1.0
 40
1.0
 40
1.0
 40
1.0
 10
17.5690663284
 20
34.7371201179
 30
0.0
 10
17.6271140244
 20
34.7706338139
 30
0.0
 10
17.7402831287
 20
34.8438177129
 30
0.0
 10
17.8990283977
 20
34.9706202299
 30
0.0
 10
18.0464692873
 20
35.1142053897
 30
0.0
 10
18.2294511214
 20
35.329800507
 30
0.0
 10
18.427408298
 20
35.6417517821
 30
0.0
 10
18.6087296638
 20
36.0681342855
 30
0.0
 10
18.7352282594
 20
36.5453766418
 30
0.0
 10
18.8056206414
 20
37.0670802799
 30
0.0
 10
18.8193082592
 20
37.626476062
 30
0.0
 10
18.7762674982
 20
38.2162708731
 30
0.0
 10
18.6771488687
 20
38.8287438114
 30
0.0
 10
18.5232972509
 20
39.4558281626
 30
0.0
 10
18.3167639731
 20
40.0892247481
 30
0.0
 10
18.0602993608
 20
40.7205301528
 30
0.0
 10
17.757316843
 20
41.3413252763
 30
0.0
 10
17.4118575487
 20
41.9433982548
 30
0.0
 10
17.02852869
 20
42.5186304374
 30
0.0
 10
16.7484446539
 20
42.8826672596
 30
0.0
 10
16.6031185241
 20
43.058243731
 30
0.0
  0
SPLINE
  5
308
100
AcDbEntity
  8
0
100
AcDbSpline
 62
7
  6
BYLAYER
 70
0
 71
3
 72
18
 73
14
 74
0
 42
0.0000001
 43
0.0000001
 44
0.0000000001
 40
0.0
 40
0.0
 40
0.0
 40
0.0
 40
0.0473871147
 40
0.0955495341
 40
0.145009617
 40
0.1962170606
 40
0.2495401315
 40
0.305252368
 40
0.4244053665
 40
0.5543566353
 40
0.6945852668
 40
0.8437685469
 40
1.0
 40
1.0
 40
1.0
 40
1.0
 10
14.8520119577
 20
35.3065558838
 30
0.0
 10
14.7959568278
 20
35.2777623154
 30
0.0
 10
14.6788001656
 20
35.2273947898
 30
0.0
 10
14.4925704521
 20
35.1753503841
 30
0.0
 10
14.2962016324
 20
35.1467702192
 30
0.0
 10
14.0910279957
 20
35.1417004453
 30
0.0
 10
13.8783174666
 20
35.160149706
 30
0.0
 10
13.5797928289
 20
35.2170493047
 30
0.0
 10
13.1943025622
 20
35.3493799459
 30
0.0
 10
12.7348560275
 20
35.5915774089
 30
0.0
 10
12.278518415
 20
35.9146176475
 30
0.0
 10
11.8361218769
 20
36.3106000166
 30
0.0
 10
11.5622741934
 20
36.611597975
 30
0.0
 10
11.4297985455
 20
36.7716490742
 30
0.0
  0
SPLINE
  5
309
100
AcDbEntity
  8
0
100
AcDbSpline
 62
7
  6
BYLAYER
 70
0
 71
3
 72
13
 73
9
 74
0
 42
0.0000001
 43
0.0000001
 44
0.0000000001
 40
0.0
 40
0.0
 40
0.0
 40
0.0
 40
0.2825335355
 40
0.5417885162
 40
0.663201429
 40
0.7795914174
 40
0.8915861391
 40
1.0
 40
1.0
 40
1.0
 40
1.0
 10
15.7711775071
 20
37.1164418408
 30
0.0
 10
15.7711834277
 20
36.9437777515
 30
0.0
 10
15.7501892296
 20
36.6121112494
 30
0.0
 10
15.6617403618
 20
36.2143544644
 30
0.0
 10
15.5541684262
 20
35.9297935949
 30
0.0
 10
15.4584237765
 20
35.7381986516
 30
0.0
 10
15.3464201571
 20
35.5650066068
 30
0.0
 10
15.2600849587
 20
35.4610915811
 30
0.0
 10
15.2145845093
 20
35.4129314612
 30
0.0
  0
SPLINE
  5
30A
100
AcDbEntity
  8
0
100
AcDbSpline
 62
7
  6
BYLAYER
 70
0
 71
3
 72
11
 73
7
 74
0
 42
0.0000001
 43
0.0000001
 44
0.0000000001
 40
0.0
 40
0.0
 40
0.0
 40
0.0
 40
0.2524960825
 40
0.5014891983
 40
0.7497264222
 40
1.0
 40
1.0
 40
1.0
 40
1.0
 10
15.2145845093
 20
35.4129314612
 30
0.0
 10
15.1711066044
 20
35.3669121112
 30
0.0
 10
15.0790507374
 20
35.2806854262
 30
0.0
 10
14.9260939565
 20
35.1705279049
 30
0.0
 10
14.7605785607
 20
35.0814930094
 30
0.0
 10
14.6433639298
 20
35.0369371381
 30
0.0
 10
14.5834278607
 20
35.0183487786
 30
0.0
  0
SPLINE
  5
30B
100
AcDbEntity
  8
0
100
AcDbSpline
 62
7
  6
BYLAYER
 70
0
 71
3
 72
17
 73
13
 74
0
 42
0.0000001
 43
0.0000001
 44
0.0000000001
 40
0.0
 40
0.0
 40
0.0
 40
0.0
 40
0.0474415595
 40
0.0961445976
 40
0.146469223
 40
0.1987137094
 40
0.3096951797
 40
0.4302435331
 40
0.560458041
 40
0.6996937343
 40
0.8467574905
 40
1.0
 40
1.0
 40
1.0
 40
1.0
 10
14.5834278607
 20
35.0183487786
 30
0.0
 10
14.5248293997
 20
35.0001752601
 30
0.0
 10
14.4037057717
 20
34.9705939859
 30
0.0
 10
14.2153552174
 20
34.9472437557
 30
0.0
 10
14.0193738817
 20
34.9444328419
 30
0.0
 10
13.7438625643
 20
34.9685866534
 30
0.0
 10
13.3846033176
 20
35.052987682
 30
0.0
 10
12.9503211717
 20
35.2310490968
 30
0.0
 10
12.5123466
 20
35.4838027235
 30
0.0
 10
12.0793413605
 20
35.8059684181
 30
0.0
 10
11.6599520577
 20
36.1909451196
 30
0.0
 10
11.3992429111
 20
36.479624816
 30
0.0
 10
11.2728820008
 20
36.6322883652
 30
0.0
  0
SPLINE
  5
30C
100
AcDbEntity
  8
0
100
AcDbSpline
 62
7
  6
BYLAYER
 70
0
 71
3
 72
25
 73
21
 74
0
 42
0.0000001
 43
0.0000001
 44
0.0000000001
 40
0.0
 40
0.0
 40
0.0
 40
0.0
 40
0.0738329985
 40
0.1486561008
 40
0.2237741785
 40
0.2985350056
 40
0.3722689335
 40
0.4443426094
 40
0.5141697824
 40
0.5812322132
 40
0.6451032142
 40
0.7054736344
 40
0.7621835835
 40
0.8152567539
 40
0.8649374603
 40
0.9117232373
 40
0.9342834602
 40
0.9564274162
 40
0.9782862422
 40
1.0
 40
1.0
 40
1.0
 40
1.0
 10
15.9231468304
 20
42.4543473254
 30
0.0
 10
16.052726028
 20
42.2977955868
 30
0.0
 10
16.3024666082
 20
41.9731924645
 30
0.0
 10
16.6442718087
 20
41.460280081
 30
0.0
 10
16.9523069943
 20
40.9234262433
 30
0.0
 10
17.2224681385
 20
40.3698871101
 30
0.0
 10
17.4511472963
 20
39.806972288
 30
0.0
 10
17.6353022194
 20
39.2421928172
 30
0.0
 10
17.772488656
 20
38.6830433406
 30
0.0
 10
17.8608734901
 20
38.1369211682
 30
0.0
 10
17.8992539228
 20
37.6110205423
 30
0.0
 10
17.8870422614
 20
37.1122272073
 30
0.0
 10
17.8242716665
 20
36.6470435767
 30
0.0
 10
17.7114815132
 20
36.2215011904
 30
0.0
 10
17.5498103338
 20
35.8413052477
 30
0.0
 10
17.3732969505
 20
35.5631487059
 30
0.0
 10
17.210134247
 20
35.37091291
 30
0.0
 10
17.0786605408
 20
35.2428902691
 30
0.0
 10
16.9371267905
 20
35.1298060073
 30
0.0
 10
16.8362067552
 20
35.0645662698
 30
0.0
 10
16.7844470141
 20
35.0346844432
 30
0.0
  0
SPLINE
  5
30D
100
AcDbEntity
  8
0
100
AcDbSpline
 62
7
  6
BYLAYER
 70
0
 71
3
 72
19
 73
15
 74
0
 42
0.0000001
 43
0.0000001
 44
0.0000000001
 40
0.0
 40
0.0
 40
0.0
 40
0.0
 40
0.1569986078
 40
0.3066953435
 40
0.4471181793
 40
0.5769104817
 40
0.6376876102
 40
0.6957230253
 40
0.7511452353
 40
0.8041717831
 40
0.855117365
 40
0.9043935906
 40
0.9524987045
 40
1.0
 40
1.0
 40
1.0
 40
1.0
 10
16.6031185241
 20
43.058243731
 30
0.0
 10
16.4073573688
 20
43.2947535241
 30
0.0
 10
16.0025017508
 20
43.7388491534
 30
0.0
 10
15.3476424354
 20
44.3208394526
 30
0.0
 10
14.6726193602
 20
44.7919974221
 30
0.0
 10
14.0943738143
 20
45.0887194555
 30
0.0
 10
13.6373479005
 20
45.2560294585
 30
0.0
 10
13.307798158
 20
45.3445036424
 30
0.0
 10
12.986112072
 20
45.3981260081
 30
0.0
 10
12.6743018759
 20
45.4164246431
 30
0.0
 10
12.374390976
 20
45.3991657429
 30
0.0
 10
12.0883515649
 20
45.3463255305
 30
0.0
 10
11.818233578
 20
45.2581294972
 30
0.0
 10
11.6495389067
 20
45.1758856101
 30
0.0
 10
11.5690931898
 20
45.1294404713
 30
0.0
  0
SPLINE
  5
30E
100
AcDbEntity
  8
0
100
AcDbSpline
 62
7
  6
BYLAYER
 70
0
 71
3
 72
21
 73
17
 74
0
 42
0.0000001
 43
0.0000001
 44
0.0000000001
 40
0.0
 40
0.0
 40
0.0
 40
0.0
 40
0.0503716893
 40
0.1003837113
 40
0.1506636198
 40
0.2018227432
 40
0.2544208247
 40
0.3089375858
 40
0.3657608661
 40
0.4251759268
 40
0.4873751798
 40
0.552456689
 40
0.6204424651
 40
0.691278939
 40
0.8409318
 40
1.0
 40
1.0
 40
1.0
 40
1.0
 10
14.9517592704
 20
34.2874156718
 30
0.0
 10
15.0268556635
 20
34.3114081886
 30
0.0
 10
15.1735376501
 20
34.3692633392
 30
0.0
 10
15.3795662247
 20
34.485427737
 30
0.0
 10
15.5686532208
 20
34.6296022287
 30
0.0
 10
15.739490768
 20
34.8006919545
 30
0.0
 10
15.8909654865
 20
34.9975048997
 30
0.0
 10
16.0222128831
 20
35.2186397597
 30
0.0
 10
16.1324341243
 20
35.4626523127
 30
0.0
 10
16.2210822988
 20
35.7279431754
 30
0.0
 10
16.2876147308
 20
36.012856706
 30
0.0
 10
16.3317308986
 20
36.3156003366
 30
0.0
 10
16.3531459393
 20
36.6343070638
 30
0.0
 10
16.3512853357
 20
37.0861144688
 30
0.0
 10
16.289334015
 20
37.6785384587
 30
0.0
 10
16.1845666395
 20
38.1512812889
 30
0.0
 10
16.1185932316
 20
38.3913358848
 30
0.0
  0
SPLINE
  5
30F
100
AcDbEntity
  8
0
100
AcDbSpline
 62
7
  6
BYLAYER
 70
0
 71
3
 72
9
 73
5
 74
0
 42
0.0000001
 43
0.0000001
 44
0.0000000001
 40
0.0
 40
0.0
 40
0.0
 40
0.0
 40
0.2458431538
 40
1.0
 40
1.0
 40
1.0
 40
1.0
 10
16.1185932316
 20
38.3913358848
 30
0.0
 10
16.0973312898
 20
38.4687007959
 30
0.0
 10
16.0057407657
 20
38.7819749821
 30
0.0
 10
15.8943031298
 20
39.0893872236
 30
0.0
 10
15.8004166222
 20
39.3169035848
 30
0.0
  0
SPLINE
  5
310
100
AcDbEntity
  8
0
100
AcDbSpline
 62
7
  6
BYLAYER
 70
0
 71
3
 72
25
 73
21
 74
0
 42
0.0000001
 43
0.0000001
 44
0.0000000001
 40
0.0
 40
0.0
 40
0.0
 40
0.0
 40
0.0217137578
 40
0.0435725838
 40
0.0657165398
 40
0.0882767627
 40
0.1350625397
 40
0.1847432461
 40
0.2378164165
 40
0.2945263656
 40
0.3548967858
 40
0.4187677868
 40
0.4858302176
 40
0.5556573906
 40
0.6277310665
 40
0.7014649944
 40
0.7762258215
 40
0.8513438992
 40
0.9261670015
 40
1.0
 40
1.0
 40
1.0
 40
1.0
 10
16.3248295199
 20
34.7693257431
 30
0.0
 10
16.376589261
 20
34.7992075698
 30
0.0
 10
16.4775092963
 20
34.8644473073
 30
0.0
 10
16.6190430466
 20
34.9775315691
 30
0.0
 10
16.7505167528
 20
35.10555421
 30
0.0
 10
16.9136794564
 20
35.2977900058
 30
0.0
 10
17.0901928396
 20
35.5759465477
 30
0.0
 10
17.251864019
 20
35.9561424904
 30
0.0
 10
17.3646541723
 20
36.3816848767
 30
0.0
 10
17.4274247672
 20
36.8468685073
 30
0.0
 10
17.4396364286
 20
37.3456618423
 30
0.0
 10
17.4012559959
 20
37.8715624681
 30
0.0
 10
17.3128711618
 20
38.4176846406
 30
0.0
 10
17.1756847252
 20
38.9768341172
 30
0.0
 10
16.9915298021
 20
39.541613588
 30
0.0
 10
16.7628506443
 20
40.1045284101
 30
0.0
 10
16.4926895001
 20
40.6580675433
 30
0.0
 10
16.1846543145
 20
41.194921381
 30
0.0
 10
15.8428491141
 20
41.7078337645
 30
0.0
 10
15.5931085338
 20
42.0324368868
 30
0.0
 10
15.4635293362
 20
42.1889886254
 30
0.0
  0
SPLINE
  5
311
100
AcDbEntity
  8
0
100
AcDbSpline
 62
7
  6
BYLAYER
 70
0
 71
3
 72
19
 73
15
 74
0
 42
0.0000001
 43
0.0000001
 44
0.0000000001
 40
0.0
 40
0.0
 40
0.0
 40
0.0
 40
0.0475012066
 40
0.0956066237
 40
0.1448823715
 40
0.1958284648
 40
0.2488545671
 40
0.3042770612
 40
0.3623124663
 40
0.4230894397
 40
0.5528816787
 40
0.6933043473
 40
0.8430021569
 40
1.0
 40
1.0
 40
1.0
 40
1.0
 10
11.4344775157
 20
44.3011587461
 30
0.0
 10
11.5062090652
 20
44.3425706558
 30
0.0
 10
11.6566183078
 20
44.4159281599
 30
0.0
 10
11.8974837109
 20
44.4945381625
 30
0.0
 10
12.1525300991
 20
44.5416817768
 30
0.0
 10
12.4199522067
 20
44.5570493341
 30
0.0
 10
12.6979834202
 20
44.5407470885
 30
0.0
 10
12.9848195486
 20
44.4929270924
 30
0.0
 10
13.2786677314
 20
44.414037399
 30
0.0
 10
13.6861838206
 20
44.2648570011
 30
0.0
 10
14.2017848939
 20
44.0002785884
 30
0.0
 10
14.8036822791
 20
43.5801629341
 30
0.0
 10
15.3875970399
 20
43.0612194355
 30
0.0
 10
15.748593986
 20
42.6652341944
 30
0.0
 10
15.9231468304
 20
42.4543473254
 30
0.0
  0
SPLINE
  5
312
100
AcDbEntity
  8
0
100
AcDbSpline
 62
7
  6
BYLAYER
 70
0
 71
3
 72
15
 73
11
 74
0
 42
0.0000001
 43
0.0000001
 44
0.0000000001
 40
0.0
 40
0.0
 40
0.0
 40
0.0
 40
0.1293701092
 40
0.2605070034
 40
0.3918462069
 40
0.521833703
 40
0.6489540356
 40
0.7718041401
 40
0.8891501374
 40
1.0
 40
1.0
 40
1.0
 40
1.0
 10
20.4921896288
 20
45.3035865773
 30
0.0
 10
20.6600572108
 20
45.1007765406
 30
0.0
 10
20.9814263415
 20
44.6783147712
 30
0.0
 10
21.4136504942
 20
44.0073084612
 30
0.0
 10
21.7936585037
 20
43.3039230355
 30
0.0
 10
22.1147005369
 20
42.5806629947
 30
0.0
 10
22.3711106657
 20
41.8502767042
 30
0.0
 10
22.5583653465
 20
41.125596802
 30
0.0
 10
22.6731442708
 20
40.4194584657
 30
0.0
 10
22.7008030146
 20
39.9548036649
 30
0.0
 10
22.700804604
 20
39.7292220698
 30
0.0
  0
SPLINE
  5
313
100
AcDbEntity
  8
0
100
AcDbSpline
 62
7
  6
BYLAYER
 70
0
 71
3
 72
11
 73
7
 74
0
 42
0.0000001
 43
0.0000001
 44
0.0000000001
 40
0.0
 40
0.0
 40
0.0
 40
0.0
 40
0.2654226625
 40
0.5219876773
 40
0.7674185833
 40
1.0
 40
1.0
 40
1.0
 40
1.0
 10
20.7314529234
 20
45.2304075717
 30
0.0
 10
20.5950381039
 20
45.3952178003
 30
0.0
 10
20.3144772419
 20
45.7094323611
 30
0.0
 10
19.8662990399
 20
46.1367966212
 30
0.0
 10
19.4033667555
 20
46.5071784987
 30
0.0
 10
19.0802202876
 20
46.7184752807
 30
0.0
 10
18.9178652317
 20
46.8122101447
 30
0.0
  0
SPLINE
  5
314
100
AcDbEntity
  8
0
100
AcDbSpline
 62
7
  6
BYLAYER
 70
0
 71
3
 72
10
 73
6
 74
0
 42
0.0000001
 43
0.0000001
 44
0.0000000001
 40
0.0
 40
0.0
 40
0.0
 40
0.0
 40
0.5065026238
 40
0.7550786724
 40
1.0
 40
1.0
 40
1.0
 40
1.0
 10
44.5204356297
 20
72.4354040983
 30
0.0
 10
44.431737277
 20
71.5936191986
 30
0.0
 10
44.3199810552
 20
70.3362716883
 30
0.0
 10
44.2297232239
 20
68.6674209692
 30
0.0
 10
44.20656034
 20
67.8429104711
 30
0.0
 10
44.2008509748
 20
67.433648476
 30
0.0
  0
SPLINE
  5
315
100
AcDbEntity
  8
0
100
AcDbSpline
 62
7
  6
BYLAYER
 70
0
 71
3
 72
9
 73
5
 74
0
 42
0.0000001
 43
0.0000001
 44
0.0000000001
 40
0.0
 40
0.0
 40
0.0
 40
0.0
 40
0.4826207019
 40
1.0
 40
1.0
 40
1.0
 40
1.0
 10
56.924635454
 20
51.0028537625
 30
0.0
 10
57.6324876628
 20
51.0660872155
 30
0.0
 10
59.0963752328
 20
51.2290054392
 30
0.0
 10
60.5542476839
 20
51.4372742499
 30
0.0
 10
61.307356496
 20
51.5523760355
 30
0.0
  0
SPLINE
  5
316
100
AcDbEntity
  8
0
100
AcDbSpline
 62
7
  6
BYLAYER
 70
0
 71
3
 72
10
 73
6
 74
0
 42
0.0000001
 43
0.0000001
 44
0.0000000001
 40
0.0
 40
0.0
 40
0.0
 40
0.0
 40
0.501682654
 40
0.7513563919
 40
1.0
 40
1.0
 40
1.0
 40
1.0
 10
54.6632248539
 20
74.0606917013
 30
0.0
 10
55.434894178
 20
73.2836220006
 30
0.0
 10
56.5682702319
 20
72.0969560732
 30
0.0
 10
58.0112309728
 20
70.4586638452
 30
0.0
 10
58.7058889414
 20
69.621303403
 30
0.0
 10
59.0459466893
 20
69.198269546
 30
0.0
  0
SPLINE
  5
317
100
AcDbEntity
  8
0
100
AcDbSpline
 62
7
  6
BYLAYER
 70
0
 71
3
 72
9
 73
5
 74
0
 42
0.0000001
 43
0.0000001
 44
0.0000000001
 40
0.0
 40
0.0
 40
0.0
 40
0.0
 40
0.52157565
 40
1.0
 40
1.0
 40
1.0
 40
1.0
 10
50.5606296007
 20
74.0971591091
 30
0.0
 10
51.1902442658
 20
74.1534035057
 30
0.0
 10
52.3996855676
 20
74.2376746971
 30
0.0
 10
53.611618118
 20
74.2689506631
 30
0.0
 10
54.1914330448
 20
74.2723336523
 30
0.0
  0
SPLINE
  5
318
100
AcDbEntity
  8
0
100
AcDbSpline
 62
7
  6
BYLAYER
 70
0
 71
3
 72
11
 73
7
 74
0
 42
0.0000001
 43
0.0000001
 44
0.0000000001
 40
0.0
 40
0.0
 40
0.0
 40
0.0
 40
0.2438900395
 40
0.4915597988
 40
0.7434928325
 40
1.0
 40
1.0
 40
1.0
 40
1.0
 10
62.982937208
 20
63.3356508588
 30
0.0
 10
63.0309575294
 20
62.9251266333
 30
0.0
 10
63.1178209876
 20
62.0965103882
 30
0.0
 10
63.2149334866
 20
60.8400806641
 30
0.0
 10
63.2752227523
 20
59.5599136701
 30
0.0
 10
63.2886047991
 20
58.6981890551
 30
0.0
 10
63.2886047991
 20
58.2634834364
 30
0.0
  0
SPLINE
  5
319
100
AcDbEntity
  8
0
100
AcDbSpline
 62
7
  6
BYLAYER
 70
0
 71
3
 72
10
 73
6
 74
0
 42
0.0000001
 43
0.0000001
 44
0.0000000001
 40
0.0
 40
0.0
 40
0.0
 40
0.0
 40
0.2518560427
 40
0.5024554617
 40
1.0
 40
1.0
 40
1.0
 40
1.0
 10
59.0459466893
 20
69.198269546
 30
0.0
 10
59.3844017393
 20
68.7772294954
 30
0.0
 10
60.0467648363
 20
67.9268099756
 30
0.0
 10
61.3133245861
 20
66.1954774877
 30
0.0
 10
62.2063385473
 20
64.8611675321
 30
0.0
 10
62.7811165636
 20
63.9619868078
 30
0.0
  0
SPLINE
  5
31A
100
AcDbEntity
  8
0
100
AcDbSpline
 62
7
  6
BYLAYER
 70
0
 71
3
 72
10
 73
6
 74
0
 42
0.0000001
 43
0.0000001
 44
0.0000000001
 40
0.0
 40
0.0
 40
0.0
 40
0.0
 40
0.2442477126
 40
0.4926260224
 40
1.0
 40
1.0
 40
1.0
 40
1.0
 10
63.2886047991
 20
58.2634834364
 30
0.0
 10
63.2886047974
 20
57.8209210786
 30
0.0
 10
63.2745005471
 20
56.9282536596
 30
0.0
 10
63.1927784439
 20
55.1179682881
 30
0.0
 10
63.0771787781
 20
53.7528522856
 30
0.0
 10
62.982937208
 20
52.8383639083
 30
0.0
  0
SPLINE
  5
31B
100
AcDbEntity
  8
0
100
AcDbSpline
 62
7
  6
BYLAYER
 70
0
 71
3
 72
9
 73
5
 74
0
 42
0.0000001
 43
0.0000001
 44
0.0000000001
 40
0.0
 40
0.0
 40
0.0
 40
0.0
 40
0.4778366112
 40
1.0
 40
1.0
 40
1.0
 40
1.0
 10
53.1894648421
 20
50.8271930175
 30
0.0
 10
53.785193652
 20
50.8292694915
 30
0.0
 10
55.0319883257
 20
50.8589918395
 30
0.0
 10
56.276221643
 20
50.944930006
 30
0.0
 10
56.924635454
 20
51.0028537625
 30
0.0
  0
SPLINE
  5
31C
100
AcDbEntity
  8
0
100
AcDbSpline
 62
7
  6
BYLAYER
 70
0
 71
3
 72
9
 73
5
 74
0
 42
0.0000001
 43
0.0000001
 44
0.0000000001
 40
0.0
 40
0.0
 40
0.0
 40
0.0
 40
0.517023146
 40
1.0
 40
1.0
 40
1.0
 40
1.0
 10
46.3184913321
 20
73.5690323675
 30
0.0
 10
47.0469984018
 20
73.6794309732
 30
0.0
 10
48.4581984948
 20
73.8792144674
 30
0.0
 10
49.8750554509
 20
74.0359157854
 30
0.0
 10
50.5606296007
 20
74.0971591091
 30
0.0
  0
SPLINE
  5
31D
100
AcDbEntity
  8
0
100
AcDbSpline
 62
7
  6
BYLAYER
 70
0
 71
3
 72
10
 73
6
 74
0
 42
0.0000001
 43
0.0000001
 44
0.0000000001
 40
0.0
 40
0.0
 40
0.0
 40
0.0
 40
0.5016826546
 40
0.7513563919
 40
1.0
 40
1.0
 40
1.0
 40
1.0
 10
61.3073565002
 20
63.1111161693
 30
0.0
 10
60.5356869081
 20
63.8881861409
 30
0.0
 10
59.4023104622
 20
65.0748524822
 30
0.0
 10
57.9593492722
 20
66.7131453238
 30
0.0
 10
57.2646910788
 20
67.5505060675
 30
0.0
 10
56.9246332073
 20
67.9735400667
 30
0.0
  0
SPLINE
  5
31E
100
AcDbEntity
  8
0
100
AcDbSpline
 62
7
  6
BYLAYER
 70
0
 71
3
 72
10
 73
6
 74
0
 42
0.0000001
 43
0.0000001
 44
0.0000000001
 40
0.0
 40
0.0
 40
0.0
 40
0.0
 40
0.2442476753
 40
0.4926259593
 40
1.0
 40
1.0
 40
1.0
 40
1.0
 10
61.167293286
 20
57.0387509895
 30
0.0
 10
61.167293286
 20
57.4813133072
 30
0.0
 10
61.1813968584
 20
58.3739806749
 30
0.0
 10
61.2631189515
 20
60.1842661761
 30
0.0
 10
61.3787192894
 20
61.5493822705
 30
0.0
 10
61.4729608769
 20
62.4638708182
 30
0.0
  0
SPLINE
  5
31F
100
AcDbEntity
  8
0
100
AcDbSpline
 62
7
  6
BYLAYER
 70
0
 71
3
 72
15
 73
11
 74
0
 42
0.0000001
 43
0.0000001
 44
0.0000000001
 40
0.0
 40
0.0
 40
0.0
 40
0.0
 40
0.1491363323
 40
0.2932607275
 40
0.4309986234
 40
0.5612444633
 40
0.6832502651
 40
0.7967301515
 40
0.9019803555
 40
1.0
 40
1.0
 40
1.0
 40
1.0
 10
56.9246349633
 20
67.9735376528
 30
0.0
 10
56.6083133652
 20
68.3670432755
 30
0.0
 10
55.955853387
 20
69.1170243626
 30
0.0
 10
54.9086603159
 20
70.1355607503
 30
0.0
 10
53.8234557052
 20
71.0156677163
 30
0.0
 10
52.7183027163
 20
71.74244775
 30
0.0
 10
51.6113266842
 20
72.3036266843
 30
0.0
 10
50.5201712829
 20
72.6893590141
 30
0.0
 10
49.4627779418
 20
72.8922268472
 30
0.0
 10
48.7698351913
 20
72.9019523368
 30
0.0
 10
48.4393182439
 20
72.8724267432
 30
0.0
  0
SPLINE
  5
320
100
AcDbEntity
  8
0
100
AcDbSpline
 62
7
  6
BYLAYER
 70
0
 71
3
 72
15
 73
11
 74
0
 42
0.0000001
 43
0.0000001
 44
0.0000000001
 40
0.0
 40
0.0
 40
0.0
 40
0.0
 40
0.1108410465
 40
0.2280578195
 40
0.3507093999
 40
0.4776259686
 40
0.6074737795
 40
0.7388131743
 40
0.8701524763
 40
1.0
 40
1.0
 40
1.0
 40
1.0
 10
61.1672932908
 20
57.0387510597
 30
0.0
 10
61.1672932907
 20
57.4796855606
 30
0.0
 10
61.1144788427
 20
58.3874327024
 30
0.0
 10
60.8948828554
 20
59.7671381511
 30
0.0
 10
60.536359674
 20
61.183421065
 30
0.0
 10
60.0449899761
 20
62.6122690574
 30
0.0
 10
59.4290803828
 20
64.0296739628
 30
0.0
 10
58.6990189229
 20
65.4116998823
 30
0.0
 10
57.867233765
 20
66.7348765926
 30
0.0
 10
57.2482627097
 20
67.5709428719
 30
0.0
 10
56.9246349633
 20
67.9735376528
 30
0.0
  0
SPLINE
  5
321
100
AcDbEntity
  8
0
100
AcDbSpline
 62
7
  6
BYLAYER
 70
0
 71
3
 72
15
 73
11
 74
0
 42
0.0000001
 43
0.0000001
 44
0.0000000001
 40
0.0
 40
0.0
 40
0.0
 40
0.0
 40
0.1229786487
 40
0.2423714895
 40
0.3602463089
 40
0.478881239
 40
0.6004493361
 40
0.7268721977
 40
0.8596900093
 40
1.0
 40
1.0
 40
1.0
 40
1.0
 10
56.9246350912
 20
51.0028536684
 30
0.0
 10
57.160198841
 20
51.0238968856
 30
0.0
 10
57.6223476452
 20
51.099765856
 30
0.0
 10
58.281790872
 20
51.322014816
 30
0.0
 10
58.8870446347
 20
51.648767621
 30
0.0
 10
59.4310746474
 20
52.0762649806
 30
0.0
 10
59.9081250343
 20
52.5995428627
 30
0.0
 10
60.3136828025
 20
53.2125627198
 30
0.0
 10
60.6442898051
 20
53.9086307871
 30
0.0
 10
60.808329265
 20
54.4091545435
 30
0.0
 10
60.8781695727
 20
54.6697914424
 30
0.0
  0
SPLINE
  5
322
100
AcDbEntity
  8
0
100
AcDbSpline
 62
7
  6
BYLAYER
 70
0
 71
3
 72
9
 73
5
 74
0
 42
0.0000001
 43
0.0000001
 44
0.0000000001
 40
0.0
 40
0.0
 40
0.0
 40
0.0
 40
0.4820362512
 40
1.0
 40
1.0
 40
1.0
 40
1.0
 10
60.8822542819
 20
54.6851011669
 30
0.0
 10
60.980265077
 20
55.0540461195
 30
0.0
 10
61.1244689719
 20
55.8357646397
 30
0.0
 10
61.1672932854
 20
56.6285574188
 30
0.0
 10
61.1672932908
 20
57.0387510597
 30
0.0
  0
SPLINE
  5
323
100
AcDbEntity
  8
0
100
AcDbSpline
 62
7
  6
BYLAYER
 70
0
 71
3
 72
11
 73
7
 74
0
 42
0.0000001
 43
0.0000001
 44
0.0000000001
 40
0.0
 40
0.0
 40
0.0
 40
0.0
 40
0.2744645876
 40
0.5318276174
 40
0.7730164755
 40
1.0
 40
1.0
 40
1.0
 40
1.0
 10
53.2786811868
 20
51.8193777604
 30
0.0
 10
53.5885077941
 20
51.6657223383
 30
0.0
 10
54.2046998275
 20
51.3982626074
 30
0.0
 10
55.1404186194
 20
51.1185906627
 30
0.0
 10
56.0466745026
 20
50.9772910536
 30
0.0
 10
56.6397615029
 20
50.977405446
 30
0.0
 10
56.9246350912
 20
51.0028536684
 30
0.0
  0
SPLINE
  5
324
100
AcDbEntity
  8
0
100
AcDbSpline
 62
7
  6
BYLAYER
 70
0
 71
3
 72
20
 73
16
 74
0
 42
0.0000001
 43
0.0000001
 44
0.0000000001
 40
0.0
 40
0.0
 40
0.0
 40
0.0
 40
0.0593673979
 40
0.1174681751
 40
0.174629593
 40
0.2312464451
 40
0.2877430755
 40
0.344540573
 40
0.4020449074
 40
0.4606389176
 40
0.5206695804
 40
0.5824400089
 40
0.7120557378
 40
0.8510135927
 40
1.0
 40
1.0
 40
1.0
 40
1.0
 10
48.4393182439
 20
72.8724267432
 30
0.0
 10
48.2917569036
 20
72.8592448923
 30
0.0
 10
48.0007760439
 20
72.8196495032
 30
0.0
 10
47.5761096985
 20
72.7187893416
 30
0.0
 10
47.1703498251
 20
72.5773857489
 30
0.0
 10
46.7852063193
 20
72.3960393148
 30
0.0
 10
46.4221964921
 20
72.175404066
 30
0.0
 10
46.0827078605
 20
71.9164104124
 30
0.0
 10
45.7680941592
 20
71.6200615274
 30
0.0
 10
45.479546871
 20
71.2875832189
 30
0.0
 10
45.2181108088
 20
70.9202813559
 30
0.0
 10
44.9019538548
 20
70.3775101457
 30
0.0
 10
44.5818066048
 20
69.6135279325
 30
0.0
 10
44.3259045181
 20
68.6002572089
 30
0.0
 10
44.2411791247
 20
67.8846257662
 30
0.0
 10
44.2176923517
 20
67.5135787943
 30
0.0
  0
SPLINE
  5
325
100
AcDbEntity
  8
0
100
AcDbSpline
 62
7
  6
BYLAYER
 70
0
 71
3
 72
9
 73
5
 74
0
 42
0.0000001
 43
0.0000001
 44
0.0000000001
 40
0.0
 40
0.0
 40
0.0
 40
0.0
 40
0.5170231461
 40
1.0
 40
1.0
 40
1.0
 40
1.0
 10
52.681456514
 20
73.4005535593
 30
0.0
 10
51.952949474
 20
73.2901549591
 30
0.0
 10
50.5417494394
 20
73.0903714705
 30
0.0
 10
49.1248925415
 20
72.9336701606
 30
0.0
 10
48.4393184202
 20
72.8724268388
 30
0.0
  0
SPLINE
  5
326
100
AcDbEntity
  8
0
100
AcDbSpline
 62
7
  6
BYLAYER
 70
0
 71
3
 72
10
 73
6
 74
0
 42
0.0000001
 43
0.0000001
 44
0.0000000001
 40
0.0
 40
0.0
 40
0.0
 40
0.0
 40
0.2518560413
 40
0.5024554603
 40
1.0
 40
1.0
 40
1.0
 40
1.0
 10
56.9246332073
 20
67.9735400667
 30
0.0
 10
56.5861783489
 20
68.3945800131
 30
0.0
 10
55.923815513
 20
69.2449992293
 30
0.0
 10
54.6572562794
 20
70.9763311208
 30
0.0
 10
53.7642426548
 20
72.3106405952
 30
0.0
 10
53.1894648471
 20
73.2098209917
 30
0.0
  0
SPLINE
  5
327
100
AcDbEntity
  8
0
100
AcDbSpline
 62
7
  6
BYLAYER
 70
0
 71
3
 72
9
 73
5
 74
0
 42
0.0000001
 43
0.0000001
 44
0.0000000001
 40
0.0
 40
0.0
 40
0.0
 40
0.0
 40
0.5215756506
 40
1.0
 40
1.0
 40
1.0
 40
1.0
 10
48.4393184202
 20
72.8724268388
 30
0.0
 10
47.8097037667
 20
72.8161824427
 30
0.0
 10
46.6002624886
 20
72.7319112496
 30
0.0
 10
45.3883299617
 20
72.7006352862
 30
0.0
 10
44.8085150469
 20
72.6972522959
 30
0.0
  0
SPLINE
  5
328
100
AcDbEntity
  8
0
100
AcDbSpline
 62
7
  6
BYLAYER
 70
0
 71
3
 72
11
 73
7
 74
0
 42
0.0000001
 43
0.0000001
 44
0.0000000001
 40
0.0
 40
0.0
 40
0.0
 40
0.0
 40
0.2438900587
 40
0.4915598051
 40
0.7434928373
 40
1.0
 40
1.0
 40
1.0
 40
1.0
 10
61.4729608769
 20
51.9665838741
 30
0.0
 10
61.4249405547
 20
52.3771081065
 30
0.0
 10
61.338077454
 20
53.2057243465
 30
0.0
 10
61.2409645755
 20
54.4621539677
 30
0.0
 10
61.1806753712
 20
55.7423208568
 30
0.0
 10
61.1672932875
 20
56.6040454058
 30
0.0
 10
61.167293286
 20
57.0387509895
 30
0.0
  0
SPLINE
  5
329
100
AcDbEntity
  8
0
100
AcDbSpline
 62
7
  6
BYLAYER
 70
0
 71
3
 72
11
 73
7
 74
0
 42
0.0000001
 43
0.0000001
 44
0.0000000001
 40
0.0
 40
0.0
 40
0.0
 40
0.0
 40
0.2224420291
 40
0.4618007538
 40
0.720675398
 40
1.0
 40
1.0
 40
1.0
 40
1.0
 10
60.9673221135
 20
76.8200332084
 30
0.0
 10
61.2227070028
 20
76.8522558977
 30
0.0
 10
61.761333281
 20
76.8605367652
 30
0.0
 10
62.5868454447
 20
76.7174319195
 30
0.0
 10
63.4408580465
 20
76.4240617196
 30
0.0
 10
63.9987218424
 20
76.1428988749
 30
0.0
 10
64.2786424801
 20
75.9812673759
 30
0.0
  0
SPLINE
  5
32A
100
AcDbEntity
  8
0
100
AcDbSpline
 62
7
  6
BYLAYER
 70
0
 71
3
 72
15
 73
11
 74
0
 42
0.0000001
 43
0.0000001
 44
0.0000000001
 40
0.0
 40
0.0
 40
0.0
 40
0.0
 40
0.1297765088
 40
0.2610958843
 40
0.3924234298
 40
0.5222944072
 40
0.6492404977
 40
0.7719223222
 40
0.8891591894
 40
1.0
 40
1.0
 40
1.0
 40
1.0
 10
67.5096169515
 20
73.1675736016
 30
0.0
 10
67.7484455847
 20
72.8719099112
 30
0.0
 10
68.2053409951
 20
72.2576121557
 30
0.0
 10
68.8193781987
 20
71.2848816138
 30
0.0
 10
69.358412924
 20
70.268274187
 30
0.0
 10
69.8133121846
 20
69.2252739946
 30
0.0
 10
70.1762774363
 20
68.1735029819
 30
0.0
 10
70.4411409965
 20
67.1308113581
 30
0.0
 10
70.6033964071
 20
66.1150040558
 30
0.0
 10
70.6424648719
 20
65.4466570688
 30
0.0
 10
70.6424563805
 20
65.1220398144
 30
0.0
  0
SPLINE
  5
32B
100
AcDbEntity
  8
0
100
AcDbSpline
 62
7
  6
BYLAYER
 70
0
 71
3
 72
17
 73
13
 74
0
 42
0.0000001
 43
0.0000001
 44
0.0000000001
 40
0.0
 40
0.0
 40
0.0
 40
0.0
 40
0.0474229707
 40
0.0955727881
 40
0.144982918
 40
0.1961209685
 40
0.3048558029
 40
0.4238956361
 40
0.5538278764
 40
0.694138121
 40
0.8435146556
 40
1.0
 40
1.0
 40
1.0
 40
1.0
 10
21.8980591114
 20
53.0540355068
 30
0.0
 10
22.0018558702
 20
53.1092892132
 30
0.0
 10
22.2190039497
 20
53.2063411025
 30
0.0
 10
22.5649378498
 20
53.3077272756
 30
0.0
 10
22.93015212
 20
53.3651583611
 30
0.0
 10
23.4498663839
 20
53.3829777445
 30
0.0
 10
24.1403858785
 20
53.2872763037
 30
0.0
 10
24.9845191994
 20
53.0020481666
 30
0.0
 10
25.8428421933
 20
52.5532349311
 30
0.0
 10
26.6953812434
 20
51.952249427
 30
0.0
 10
27.5220252131
 20
51.2138773593
 30
0.0
 10
28.0335543451
 20
50.6519873007
 30
0.0
 10
28.2809597518
 20
50.3530832538
 30
0.0
  0
SPLINE
  5
32C
100
AcDbEntity
  8
0
100
AcDbSpline
 62
7
  6
BYLAYER
 70
0
 71
3
 72
14
 73
10
 74
0
 42
0.0000001
 43
0.0000001
 44
0.0000000001
 40
0.0
 40
0.0
 40
0.0
 40
0.0
 40
0.1104334995
 40
0.2225080439
 40
0.337840192
 40
0.4577653323
 40
0.5833689737
 40
0.7154191444
 40
1.0
 40
1.0
 40
1.0
 40
1.0
 10
27.5407020232
 20
38.5312243193
 30
0.0
 10
27.4089415419
 20
38.455152824
 30
0.0
 10
27.1298478404
 20
38.3242467219
 30
0.0
 10
26.6796132693
 20
38.1987579624
 30
0.0
 10
26.2023425874
 20
38.1441161785
 30
0.0
 10
25.7038663795
 20
38.1597635052
 30
0.0
 10
25.189180216
 20
38.2442558791
 30
0.0
 10
24.4700842058
 20
38.4513040863
 30
0.0
 10
23.9467806177
 20
38.6982726876
 30
0.0
 10
23.6067402701
 20
38.8934341514
 30
0.0
  0
SPLINE
  5
32D
100
AcDbEntity
  8
0
100
AcDbSpline
 62
7
  6
BYLAYER
 70
0
 71
3
 72
14
 73
10
 74
0
 42
0.0000001
 43
0.0000001
 44
0.0000000001
 40
0.0
 40
0.0
 40
0.0
 40
0.0
 40
0.2849092831
 40
0.4170472062
 40
0.5426742071
 40
0.6625615306
 40
0.7777946456
 40
0.8897281991
 40
1.0
 40
1.0
 40
1.0
 40
1.0
 10
18.1874283948
 20
48.2416246139
 30
0.0
 10
18.1863609788
 20
48.637780941
 30
0.0
 10
18.2315988439
 20
49.2206499406
 30
0.0
 10
18.4101520309
 20
49.9551273582
 30
0.0
 10
18.5939093365
 20
50.4485463018
 30
0.0
 10
18.8300427681
 20
50.8929040531
 30
0.0
 10
19.117251759
 20
51.2830716938
 30
0.0
 10
19.4531394359
 20
51.6135356137
 30
0.0
 10
19.7079489567
 20
51.7913709765
 30
0.0
 10
19.8407364951
 20
51.8680354399
 30
0.0
  0
SPLINE
  5
32E
100
AcDbEntity
  8
0
100
AcDbSpline
 62
7
  6
BYLAYER
 70
0
 71
3
 72
20
 73
16
 74
0
 42
0.0000001
 43
0.0000001
 44
0.0000000001
 40
0.0
 40
0.0
 40
0.0
 40
0.0
 40
0.1481338156
 40
0.2975252565
 40
0.4430016084
 40
0.5127982846
 40
0.5799021086
 40
0.643887469
 40
0.704440198
 40
0.7613898531
 40
0.8147372404
 40
0.86469237
 40
0.9117096543
 40
0.9564980423
 40
1.0
 40
1.0
 40
1.0
 40
1.0
 10
28.2809597518
 20
50.3530832538
 30
0.0
 10
28.6523102974
 20
49.9044342836
 30
0.0
 10
29.3354181352
 20
48.9496417393
 30
0.0
 10
30.1572668021
 20
47.4089577589
 30
0.0
 10
30.6600749207
 20
46.0607199054
 30
0.0
 10
30.9304305718
 20
44.9829980839
 30
0.0
 10
31.0617818483
 20
44.2032746108
 30
0.0
 10
31.1227546868
 20
43.4512716244
 30
0.0
 10
31.1124190078
 20
42.7366060095
 30
0.0
 10
31.0308040494
 20
42.0684145282
 30
0.0
 10
30.8785783989
 20
41.4552061851
 30
0.0
 10
30.6571304173
 20
40.9049385733
 30
0.0
 10
30.3685794081
 20
40.4249814494
 30
0.0
 10
30.0161408987
 20
40.0225991688
 30
0.0
 10
29.7392642905
 20
39.8088346213
 30
0.0
 10
29.5940847791
 20
39.7184220301
 30
0.0
  0
SPLINE
  5
32F
100
AcDbEntity
  8
0
100
AcDbSpline
 62
7
  6
BYLAYER
 70
0
 71
3
 72
11
 73
7
 74
0
 42
0.0000001
 43
0.0000001
 44
0.0000000001
 40
0.0
 40
0.0
 40
0.0
 40
0.0
 40
0.2325802766
 40
0.4780002557
 40
0.734607181
 40
1.0
 40
1.0
 40
1.0
 40
1.0
 10
64.4200596151
 20
75.8996108657
 30
0.0
 10
64.6871007788
 20
75.7454163282
 30
0.0
 10
65.2186327049
 20
75.3978984455
 30
0.0
 10
65.9801193323
 20
74.7886412781
 30
0.0
 10
66.71728723
 20
74.0856647215
 30
0.0
 10
67.1787993738
 20
73.5688317746
 30
0.0
 10
67.403157138
 20
73.2977728493
 30
0.0
  0
SPLINE
  5
330
100
AcDbEntity
  8
0
100
AcDbSpline
 62
7
  6
BYLAYER
 70
0
 71
3
 72
9
 73
5
 74
0
 42
0.0000001
 43
0.0000001
 44
0.0000000001
 40
0.0
 40
0.0
 40
0.0
 40
0.0
 40
0.4937444
 40
1.0
 40
1.0
 40
1.0
 40
1.0
 10
59.9888161053
 20
76.5376624508
 30
0.0
 10
60.1406274996
 20
76.6099706764
 30
0.0
 10
60.4609548267
 20
76.7306700404
 30
0.0
 10
60.7962651885
 20
76.7984504352
 30
0.0
 10
60.9673221135
 20
76.8200332084
 30
0.0
  0
SPLINE
  5
331
100
AcDbEntity
  8
0
100
AcDbSpline
 62
7
  6
BYLAYER
 70
0
 71
3
 72
12
 73
8
 74
0
 42
0.0000001
 43
0.0000001
 44
0.0000000001
 40
0.0
 40
0.0
 40
0.0
 40
0.0
 40
0.1157347205
 40
0.2324709922
 40
0.4723741696
 40
0.7266693248
 40
1.0
 40
1.0
 40
1.0
 40
1.0
 10
24.4940275789
 20
56.0556850273
 30
0.0
 10
24.3947182923
 20
55.998342703
 30
0.0
 10
24.2016678767
 20
55.8715656652
 30
0.0
 10
23.8415126129
 20
55.5713440722
 30
0.0
 10
23.4449007942
 20
55.107230424
 30
0.0
 10
23.0755254944
 20
54.4375982149
 30
0.0
 10
22.9062068739
 20
53.9400941703
 30
0.0
 10
22.8377961359
 20
53.678047581
 30
0.0
  0
SPLINE
  5
332
100
AcDbEntity
  8
0
100
AcDbSpline
 62
7
  6
BYLAYER
 70
0
 71
3
 72
15
 73
11
 74
0
 42
0.0000001
 43
0.0000001
 44
0.0000000001
 40
0.0
 40
0.0
 40
0.0
 40
0.0
 40
0.1486048756
 40
0.2894990555
 40
0.4227228722
 40
0.5486415478
 40
0.6680011944
 40
0.7819377907
 40
0.8919873963
 40
1.0
 40
1.0
 40
1.0
 40
1.0
 10
70.6424636101
 20
64.9587406935
 30
0.0
 10
70.6424575274
 20
64.7243170548
 30
0.0
 10
70.623583207
 20
64.2673169003
 30
0.0
 10
70.533596411
 20
63.6055140472
 30
0.0
 10
70.3833521765
 20
62.9912638259
 30
0.0
 10
70.1739152946
 20
62.4304787457
 30
0.0
 10
69.907013545
 20
61.9285627618
 30
0.0
 10
69.5845675974
 20
61.490727631
 30
0.0
 10
69.2097443554
 20
61.1217532653
 30
0.0
 10
68.9260076809
 20
60.9238218349
 30
0.0
 10
68.7784499746
 20
60.8386203181
 30
0.0
  0
SPLINE
  5
333
100
AcDbEntity
  8
0
100
AcDbSpline
 62
7
  6
BYLAYER
 70
0
 71
3
 72
13
 73
9
 74
0
 42
0.0000001
 43
0.0000001
 44
0.0000000001
 40
0.0
 40
0.0
 40
0.0
 40
0.0
 40
0.2732992519
 40
0.5275202511
 40
0.64901214
 40
0.7676546902
 40
0.8843304949
 40
1.0
 40
1.0
 40
1.0
 40
1.0
 10
30.6013688725
 20
40.2232144001
 30
0.0
 10
30.8629937346
 20
40.1510387986
 30
0.0
 10
31.3792667779
 20
40.0481007453
 30
0.0
 10
32.0278408439
 20
40.0351876007
 30
0.0
 10
32.5151599286
 20
40.1008785269
 30
0.0
 10
32.8599771109
 20
40.1855149691
 30
0.0
 10
33.1878463519
 20
40.3058295484
 30
0.0
 10
33.3944952659
 20
40.4098000518
 30
0.0
 10
33.4939684976
 20
40.4672370399
 30
0.0
  0
SPLINE
  5
334
100
AcDbEntity
  8
0
100
AcDbSpline
 62
7
  6
BYLAYER
 70
0
 71
3
 72
20
 73
16
 74
0
 42
0.0000001
 43
0.0000001
 44
0.0000000001
 40
0.0
 40
0.0
 40
0.0
 40
0.0
 40
0.0435319296
 40
0.0882088047
 40
0.1350232257
 40
0.1847355329
 40
0.2378426083
 40
0.2945854869
 40
0.3549865212
 40
0.4188863053
 40
0.4859744122
 40
0.5558237074
 40
0.7015767244
 40
0.8513984802
 40
1.0
 40
1.0
 40
1.0
 40
1.0
 10
29.5954394946
 20
39.7175544971
 30
0.0
 10
29.7445059693
 20
39.8039990416
 30
0.0
 10
30.0295417645
 20
40.0104323573
 30
0.0
 10
30.3944802228
 20
40.4051422897
 30
0.0
 10
30.6947740238
 20
40.8799083914
 30
0.0
 10
30.9269121265
 20
41.427322791
 30
0.0
 10
31.0886396328
 20
42.0398199522
 30
0.0
 10
31.1784912614
 20
42.7092668503
 30
0.0
 10
31.1956733603
 20
43.4269761569
 30
0.0
 10
31.1400987399
 20
44.1835987575
 30
0.0
 10
31.012664076
 20
44.9692801746
 30
0.0
 10
30.7454471019
 20
46.0569130331
 30
0.0
 10
30.2426632449
 20
47.4190041818
 30
0.0
 10
29.4159696899
 20
48.9760042597
 30
0.0
 10
28.7267383137
 20
49.9407672232
 30
0.0
 10
28.3516701355
 20
50.3939076692
 30
0.0
  0
SPLINE
  5
335
100
AcDbEntity
  8
0
100
AcDbSpline
 62
7
  6
BYLAYER
 70
0
 71
3
 72
23
 73
19
 74
0
 42
0.0000001
 43
0.0000001
 44
0.0000000001
 40
0.0
 40
0.0
 40
0.0
 40
0.0
 40
0.0826705191
 40
0.1625013818
 40
0.2387163285
 40
0.3107788852
 40
0.3783017161
 40
0.4411611755
 40
0.4995457776
 40
0.5540139143
 40
0.6055375349
 40
0.6554679507
 40
0.7053919529
 40
0.7568976686
 40
0.811338185
 40
0.8696881489
 40
0.9325120475
 40
1.0
 40
1.0
 40
1.0
 40
1.0
 10
26.091846948
 20
49.0241853443
 30
0.0
 10
25.8953691009
 20
49.261561012
 30
0.0
 10
25.4909690877
 20
49.7135052436
 30
0.0
 10
24.8442044544
 20
50.3260940027
 30
0.0
 10
24.1759984701
 20
50.8538767672
 30
0.0
 10
23.4972682823
 20
51.2882730986
 30
0.0
 10
22.8185748574
 20
51.6221744761
 30
0.0
 10
22.1504975522
 20
51.8499366675
 30
0.0
 10
21.5032943791
 20
51.9672789843
 30
0.0
 10
20.8870989389
 20
51.9710036806
 30
0.0
 10
20.3124564877
 20
51.8592691614
 30
0.0
 10
19.7906441375
 20
51.6325417978
 30
0.0
 10
19.3328409048
 20
51.2948448748
 30
0.0
 10
18.9481901422
 20
50.8537957269
 30
0.0
 10
18.6427089506
 20
50.3189849903
 30
0.0
 10
18.4200580009
 20
49.7004258769
 30
0.0
 10
18.2825937621
 20
49.0085726409
 30
0.0
 10
18.2498746868
 20
48.5225970268
 30
0.0
 10
18.2465806809
 20
48.2710683227
 30
0.0
  0
SPLINE
  5
336
100
AcDbEntity
  8
0
100
AcDbSpline
 62
7
  6
BYLAYER
 70
0
 71
3
 72
28
 73
24
 74
0
 42
0.0000001
 43
0.0000001
 44
0.0000000001
 40
0.0
 40
0.0
 40
0.0
 40
0.0
 40
0.0615799475
 40
0.0903362315
 40
0.1177698748
 40
0.1689917795
 40
0.1931927906
 40
0.2167256954
 40
0.2398653864
 40
0.2629121814
 40
0.2861718385
 40
0.3099372037
 40
0.3344688022
 40
0.3599862418
 40
0.4145350248
 40
0.474446417
 40
0.5398082602
 40
0.610175689
 40
0.684709785
 40
0.7622966088
 40
0.8416387017
 40
0.9213479479
 40
1.0
 40
1.0
 40
1.0
 40
1.0
 10
23.6797022901
 20
38.9207797587
 30
0.0
 10
23.9561827333
 20
38.7690063992
 30
0.0
 10
24.378433239
 20
38.5736137209
 30
0.0
 10
24.9552691216
 20
38.3945824391
 30
0.0
 10
25.4942709856
 20
38.2818735168
 30
0.0
 10
26.0258754737
 20
38.2539807163
 30
0.0
 10
26.5291484079
 20
38.3236437196
 30
0.0
 10
26.8800871364
 20
38.4208471569
 30
0.0
 10
27.2087422791
 20
38.5634735685
 30
0.0
 10
27.5126726712
 20
38.7505487775
 30
0.0
 10
27.7896460916
 20
38.9806138019
 30
0.0
 10
28.0376332728
 20
39.2519446274
 30
0.0
 10
28.2550958514
 20
39.5624265151
 30
0.0
 10
28.5079234963
 20
40.0359987571
 30
0.0
 10
28.736088285
 20
40.7214421574
 30
0.0
 10
28.8641128671
 20
41.6374937652
 30
0.0
 10
28.8518260556
 20
42.6427266735
 30
0.0
 10
28.7001856391
 20
43.7115074623
 30
0.0
 10
28.4135063568
 20
44.8166517456
 30
0.0
 10
27.9992894565
 20
45.9294944374
 30
0.0
 10
27.4683861017
 20
47.021087365
 30
0.0
 10
26.8347594736
 20
48.0626506961
 30
0.0
 10
26.3487064114
 20
48.7138593327
 30
0.0
 10
26.091846948
 20
49.0241853443
 30
0.0
  0
SPLINE
  5
337
100
AcDbEntity
  8
0
100
AcDbSpline
 62
7
  6
BYLAYER
 70
0
 71
3
 72
17
 73
13
 74
0
 42
0.0000001
 43
0.0000001
 44
0.0000000001
 40
0.0
 40
0.0
 40
0.0
 40
0.0
 40
0.1570329619
 40
0.3067830496
 40
0.447238153
 40
0.5770674791
 40
0.6957943117
 40
0.8041183553
 40
0.8550785523
 40
0.9043673917
 40
0.9524860681
 40
1.0
 40
1.0
 40
1.0
 40
1.0
 10
26.3010690076
 20
49.2099996229
 30
0.0
 10
26.0498555058
 20
49.5135044385
 30
0.0
 10
25.5302651514
 20
50.0834300029
 30
0.0
 10
24.6899241442
 20
50.8303193827
 30
0.0
 10
23.8234884165
 20
51.4350344196
 30
0.0
 10
22.9519720168
 20
51.8822153278
 30
0.0
 10
22.0962157453
 20
52.1600824818
 30
0.0
 10
21.3978183713
 20
52.2443039069
 30
0.0
 10
20.8742142036
 20
52.2142022665
 30
0.0
 10
20.5071233887
 20
52.1463369522
 30
0.0
 10
20.1604597038
 20
52.0332093984
 30
0.0
 10
19.9439797453
 20
51.9276307177
 30
0.0
 10
19.8407445328
 20
51.8680215186
 30
0.0
  0
SPLINE
  5
338
100
AcDbEntity
  8
0
100
AcDbSpline
 62
7
  6
BYLAYER
 70
0
 71
3
 72
17
 73
13
 74
0
 42
0.0000001
 43
0.0000001
 44
0.0000000001
 40
0.0
 40
0.0
 40
0.0
 40
0.0
 40
0.1570329619
 40
0.3067830496
 40
0.447238153
 40
0.5770674791
 40
0.6957943117
 40
0.8041183553
 40
0.8550785523
 40
0.9043673917
 40
0.9524860681
 40
1.0
 40
1.0
 40
1.0
 40
1.0
 10
32.0450561857
 20
52.9489061882
 30
0.0
 10
31.7514300149
 20
53.3036520765
 30
0.0
 10
31.1441166136
 20
53.9697988401
 30
0.0
 10
30.161899852
 20
54.8427864269
 30
0.0
 10
29.1491827677
 20
55.5495962103
 30
0.0
 10
28.1305272355
 20
56.0722751938
 30
0.0
 10
27.1302926324
 20
56.3970549842
 30
0.0
 10
26.3139840135
 20
56.495495611
 30
0.0
 10
25.7019791422
 20
56.4603118755
 30
0.0
 10
25.2729119559
 20
56.3809887809
 30
0.0
 10
24.8677206359
 20
56.2487617699
 30
0.0
 10
24.614692113
 20
56.1253581171
 30
0.0
 10
24.4940275789
 20
56.0556850273
 30
0.0
  0
SPLINE
  5
339
100
AcDbEntity
  8
0
100
AcDbSpline
 62
7
  6
BYLAYER
 70
0
 71
3
 72
17
 73
13
 74
0
 42
0.0000001
 43
0.0000001
 44
0.0000000001
 40
0.0
 40
0.0
 40
0.0
 40
0.0
 40
0.0475139319
 40
0.0956326083
 40
0.1449214477
 40
0.1958816447
 40
0.3042056883
 40
0.4229325209
 40
0.552761847
 40
0.6932169504
 40
0.8429670381
 40
1.0
 40
1.0
 40
1.0
 40
1.0
 10
24.2247883236
 20
54.3991352726
 30
0.0
 10
24.328023536
 20
54.4587444717
 30
0.0
 10
24.5445034945
 20
54.5643231524
 30
0.0
 10
24.8911671794
 20
54.6774507063
 30
0.0
 10
25.2582579944
 20
54.7453160205
 30
0.0
 10
25.781862162
 20
54.7754176609
 30
0.0
 10
26.480259536
 20
54.6911962358
 30
0.0
 10
27.3360158075
 20
54.4133290818
 30
0.0
 10
28.2075322073
 20
53.9661481736
 30
0.0
 10
29.0739679349
 20
53.3614331367
 30
0.0
 10
29.9143089421
 20
52.6145437569
 30
0.0
 10
30.4338992965
 20
52.0446181925
 30
0.0
 10
30.6851127983
 20
51.741113377
 30
0.0
  0
LINE
  5
33A
100
AcDbEntity
  8
0
100
AcDbLine
 62
7
  6
BYLAYER
 10
28.3516701355
 20
50.3939076692
 11
28.3369287043
 21
50.4116833975
  0
SPLINE
  5
33B
100
AcDbEntity
  8
0
100
AcDbSpline
 62
7
  6
BYLAYER
 70
0
 71
3
 72
17
 73
13
 74
0
 42
0.0000001
 43
0.0000001
 44
0.0000000001
 40
0.0
 40
0.0
 40
0.0
 40
0.0
 40
0.1569706199
 40
0.3066476519
 40
0.447048665
 40
0.5768564165
 40
0.6956060127
 40
0.8039921394
 40
0.8549902611
 40
0.9043163852
 40
0.9524664003
 40
1.0
 40
1.0
 40
1.0
 40
1.0
 10
28.3369287043
 20
50.4116833975
 30
0.0
 10
28.0863425205
 20
50.7132685512
 30
0.0
 10
27.5682782416
 20
51.279551211
 30
0.0
 10
26.7308856322
 20
52.0216271225
 30
0.0
 10
25.8678642887
 20
52.6224843567
 30
0.0
 10
24.9999652989
 20
53.066994268
 30
0.0
 10
24.1477807109
 20
53.3435305743
 30
0.0
 10
23.4522424143
 20
53.427882959
 30
0.0
 10
22.9305499109
 20
53.3987172033
 30
0.0
 10
22.5646621911
 20
53.3319172798
 30
0.0
 10
22.2189887139
 20
53.2202209606
 30
0.0
 10
22.0029718799
 20
53.1158249063
 30
0.0
 10
21.8999179864
 20
53.0568473943
 30
0.0
  0
SPLINE
  5
33C
100
AcDbEntity
  8
0
100
AcDbSpline
 62
7
  6
BYLAYER
 70
0
 71
3
 72
16
 73
12
 74
0
 42
0.0000001
 43
0.0000001
 44
0.0000000001
 40
0.0
 40
0.0
 40
0.0
 40
0.0
 40
0.1368251384
 40
0.2754153956
 40
0.4129156185
 40
0.546534881
 40
0.673744431
 40
0.7924646866
 40
0.8482173585
 40
0.9014076087
 40
1.0
 40
1.0
 40
1.0
 40
1.0
 10
28.3347198124
 20
50.3678663072
 30
0.0
 10
28.6173450249
 20
50.0264112804
 30
0.0
 10
29.1493687595
 20
49.3077821186
 30
0.0
 10
29.8330749393
 20
48.1555640237
 30
0.0
 10
30.3925935568
 20
46.9494054221
 30
0.0
 10
30.8108353752
 20
45.7259596075
 30
0.0
 10
31.0750982912
 20
44.5222853387
 30
0.0
 10
31.1621234243
 20
43.5454038792
 30
0.0
 10
31.1431601137
 20
42.8072984739
 30
0.0
 10
31.070753502
 20
42.1385530055
 30
0.0
 10
30.9527879808
 20
41.6567452881
 30
0.0
 10
30.841464797
 20
41.3573819776
 30
0.0
  0
SPLINE
  5
33D
100
AcDbEntity
  8
0
100
AcDbSpline
 62
7
  6
BYLAYER
 70
0
 71
3
 72
15
 73
11
 74
0
 42
0.0000001
 43
0.0000001
 44
0.0000000001
 40
0.0
 40
0.0
 40
0.0
 40
0.0
 40
0.0981209612
 40
0.2032695628
 40
0.3165323734
 40
0.4382996653
 40
0.5683751847
 40
0.7060706708
 40
0.8504107911
 40
1.0
 40
1.0
 40
1.0
 40
1.0
 10
22.9635922744
 20
53.347047501
 30
0.0
 10
23.1697169123
 20
53.3704798987
 30
0.0
 10
23.6025285733
 20
53.3747547287
 30
0.0
 10
24.2651854283
 20
53.2630457414
 30
0.0
 10
24.950466299
 20
53.0368382589
 30
0.0
 10
25.6473412167
 20
52.7004600978
 30
0.0
 10
26.3449124738
 20
52.2597190986
 30
0.0
 10
27.0321498519
 20
51.7219544216
 30
0.0
 10
27.6977128461
 20
51.0960108663
 30
0.0
 10
28.1138813995
 20
50.6334291071
 30
0.0
 10
28.3161256691
 20
50.390276169
 30
0.0
  0
SPLINE
  5
33E
100
AcDbEntity
  8
0
100
AcDbSpline
 62
7
  6
BYLAYER
 70
0
 71
3
 72
11
 73
7
 74
0
 42
0.0000001
 43
0.0000001
 44
0.0000000001
 40
0.0
 40
0.0
 40
0.0
 40
0.0
 40
0.2336341691
 40
0.4793276755
 40
0.7355342609
 40
1.0
 40
1.0
 40
1.0
 40
1.0
 10
64.4145764316
 20
75.9010991269
 30
0.0
 10
64.6754612311
 20
75.7440213866
 30
0.0
 10
65.1942351098
 20
75.3938341516
 30
0.0
 10
65.9379805575
 20
74.7871163105
 30
0.0
 10
66.6580217553
 20
74.09329505
 30
0.0
 10
67.1097427515
 20
73.5858357587
 30
0.0
 10
67.3295376627
 20
73.3202894664
 30
0.0
  0
SPLINE
  5
33F
100
AcDbEntity
  8
0
100
AcDbSpline
 62
7
  6
BYLAYER
 70
0
 71
3
 72
21
 73
17
 74
0
 42
0.0000001
 43
0.0000001
 44
0.0000000001
 40
0.0
 40
0.0
 40
0.0
 40
0.0
 40
0.1486131144
 40
0.2984447805
 40
0.3722003739
 40
0.4442941055
 40
0.5141401833
 40
0.581220959
 40
0.6451098845
 40
0.7054965973
 40
0.762222306
 40
0.8153106142
 40
0.8650043572
 40
0.9118029506
 40
0.9564696755
 40
1.0
 40
1.0
 40
1.0
 40
1.0
 10
30.6851127983
 20
51.741113377
 30
0.0
 10
31.0603958253
 20
51.2877133603
 30
0.0
 10
31.7498871762
 20
50.3225223643
 30
0.0
 10
32.4431776175
 20
49.016532661
 30
0.0
 10
32.8842835721
 20
47.9308944836
 30
0.0
 10
33.1493473178
 20
47.1180104223
 30
0.0
 10
33.3467755889
 20
46.3132564411
 30
0.0
 10
33.4739810246
 20
45.5272489365
 30
0.0
 10
33.5292341793
 20
44.770346889
 30
0.0
 10
33.511644434
 20
44.0524586701
 30
0.0
 10
33.4213014637
 20
43.3829373961
 30
0.0
 10
33.2590066875
 20
42.770484333
 30
0.0
 10
33.0262292841
 20
42.2232437033
 30
0.0
 10
32.7252356157
 20
41.7487919603
 30
0.0
 10
32.359551559
 20
41.3545487705
 30
0.0
 10
32.074033862
 20
41.1485572716
 30
0.0
 10
31.9247377762
 20
41.0623519945
 30
0.0
  0
SPLINE
  5
340
100
AcDbEntity
  8
0
100
AcDbSpline
 62
7
  6
BYLAYER
 70
0
 71
3
 72
14
 73
10
 74
0
 42
0.0000001
 43
0.0000001
 44
0.0000000001
 40
0.0
 40
0.0
 40
0.0
 40
0.0
 40
0.2604088989
 40
0.3914472358
 40
0.5211098175
 40
0.6479995202
 40
0.7708333881
 40
0.8884769557
 40
1.0
 40
1.0
 40
1.0
 40
1.0
 10
67.4723608164
 20
73.1449488451
 30
0.0
 10
67.9492103066
 20
72.5500980285
 30
0.0
 10
68.5978860188
 20
71.5984559367
 30
0.0
 10
69.314536573
 20
70.2506445042
 30
0.0
 10
69.7718347974
 20
69.2108499181
 30
0.0
 10
70.1399657902
 20
68.1617400256
 30
0.0
 10
70.4130594633
 20
67.1201240827
 30
0.0
 10
70.5866842016
 20
66.1029737394
 30
0.0
 10
70.6356190417
 20
65.4324329892
 30
0.0
 10
70.6412009028
 20
65.1059801689
 30
0.0
  0
SPLINE
  5
341
100
AcDbEntity
  8
0
100
AcDbSpline
 62
7
  6
BYLAYER
 70
0
 71
3
 72
21
 73
17
 74
0
 42
0.0000001
 43
0.0000001
 44
0.0000000001
 40
0.0
 40
0.0
 40
0.0
 40
0.0
 40
0.0435303245
 40
0.0881970494
 40
0.1349956428
 40
0.1846893858
 40
0.237777694
 40
0.2945034027
 40
0.3548901155
 40
0.418779041
 40
0.4858598167
 40
0.5557058945
 40
0.6277996261
 40
0.7015552195
 40
0.8513868856
 40
1.0
 40
1.0
 40
1.0
 40
1.0
 10
27.5406939855
 20
38.5312382405
 30
0.0
 10
27.6899900713
 20
38.6174435176
 30
0.0
 10
27.9755077683
 20
38.8234350165
 30
0.0
 10
28.3411918249
 20
39.2176782063
 30
0.0
 10
28.6421854934
 20
39.6921299493
 30
0.0
 10
28.8749628968
 20
40.239370579
 30
0.0
 10
29.0372576729
 20
40.8518236421
 30
0.0
 10
29.1276006433
 20
41.5213449161
 30
0.0
 10
29.1451903886
 20
42.239233135
 30
0.0
 10
29.0899372339
 20
42.9961351825
 30
0.0
 10
28.9627317982
 20
43.7821426871
 30
0.0
 10
28.7653035271
 20
44.5868966683
 30
0.0
 10
28.5002397814
 20
45.3997807296
 30
0.0
 10
28.0591338268
 20
46.485418907
 30
0.0
 10
27.3658433855
 20
47.7914086103
 30
0.0
 10
26.6763520345
 20
48.7565996063
 30
0.0
 10
26.3010690076
 20
49.2099996229
 30
0.0
  0
SPLINE
  5
342
100
AcDbEntity
  8
0
100
AcDbSpline
 62
7
  6
BYLAYER
 70
0
 71
3
 72
21
 73
17
 74
0
 42
0.0000001
 43
0.0000001
 44
0.0000000001
 40
0.0
 40
0.0
 40
0.0
 40
0.0
 40
0.0435303245
 40
0.0881970494
 40
0.1349956428
 40
0.1846893858
 40
0.237777694
 40
0.2945034027
 40
0.3548901155
 40
0.418779041
 40
0.4858598167
 40
0.5557058945
 40
0.6277996261
 40
0.7015552195
 40
0.8513868856
 40
1.0
 40
1.0
 40
1.0
 40
1.0
 10
33.4939684976
 20
40.4672370399
 30
0.0
 10
33.6684704161
 20
40.5679964547
 30
0.0
 10
34.0021923996
 20
40.8087657391
 30
0.0
 10
34.4296153229
 20
41.2695694674
 30
0.0
 10
34.7814261042
 20
41.8241234528
 30
0.0
 10
35.0535035887
 20
42.4637553576
 30
0.0
 10
35.2431987816
 20
43.1796095872
 30
0.0
 10
35.3487944613
 20
43.9621669204
 30
0.0
 10
35.3693539038
 20
44.8012570464
 30
0.0
 10
35.3047722944
 20
45.6859477513
 30
0.0
 10
35.1560906163
 20
46.6046578216
 30
0.0
 10
34.9253302995
 20
47.5452793581
 30
0.0
 10
34.6155155318
 20
48.4954035856
 30
0.0
 10
34.0999371433
 20
49.7643313254
 30
0.0
 10
33.2895976664
 20
51.2908127968
 30
0.0
 10
32.4836986848
 20
52.4189581168
 30
0.0
 10
32.0450561857
 20
52.9489061882
 30
0.0
  0
ELLIPSE
  5
343
100
AcDbEntity
  8
0
100
AcDbEllipse
 62
7
  6
BYLAYER
 10
57.4642480343
 20
60.7523414154
 30
0.0
 11
0.6775884151
 21
13.7096263296
 31
0.0
 40
0.0556094299
 41
-0.58685261
 42
-0.5418766919
  0
ELLIPSE
  5
344
100
AcDbEntity
  8
0
100
AcDbEllipse
 62
7
  6
BYLAYER
 10
57.3865139042
 20
60.345966682
 30
0.0
 11
1.3296585074
 21
14.1661309836
 31
0.0
 40
0.1089869747
 41
-0.672656568
 42
-0.6276806499
  0
ELLIPSE
  5
345
100
AcDbEntity
  8
0
100
AcDbEllipse
 62
7
  6
BYLAYER
 10
57.2584357046
 20
59.9842340089
 30
0.0
 11
1.9687174295
 21
14.5679056351
 31
0.0
 40
0.1599359076
 41
-0.7520571518
 42
-0.7070812337
  0
ELLIPSE
  5
346
100
AcDbEntity
  8
0
100
AcDbEllipse
 62
7
  6
BYLAYER
 10
57.0822048889
 20
59.6733327426
 30
0.0
 11
2.6045512229
 21
14.9072674593
 31
0.0
 40
0.2085393773
 41
-0.825969979
 42
-0.7809940609
  0
ELLIPSE
  5
347
100
AcDbEntity
  8
0
100
AcDbEllipse
 62
7
  6
BYLAYER
 10
56.8608368153
 20
59.4185824898
 30
0.0
 11
3.2449535743
 21
15.1768781678
 31
0.0
 40
0.2550159655
 41
-0.8949939425
 42
-0.8500180243
  0
ELLIPSE
  5
348
100
AcDbEntity
  8
0
100
AcDbEllipse
 62
7
  6
BYLAYER
 10
56.5981191529
 20
59.2243420981
 30
0.0
 11
3.8964150721
 21
15.3697175322
 31
0.0
 40
0.2996310152
 41
-0.9594709466
 42
-0.9144950285
  0
ELLIPSE
  5
349
100
AcDbEntity
  8
0
100
AcDbEllipse
 62
7
  6
BYLAYER
 10
56.2985470737
 20
59.0939350743
 30
0.0
 11
4.5647144603
 21
15.4789339848
 31
0.0
 40
0.3426419623
 41
-1.019523302
 42
-0.9745473839
  0
ELLIPSE
  5
34A
100
AcDbEntity
  8
0
100
AcDbEllipse
 62
7
  6
BYLAYER
 10
55.9672463391
 20
59.0295927188
 30
0.0
 11
5.2554352934
 21
15.4975747121
 31
0.0
 40
0.384261262
 41
-1.0750709669
 42
-1.0300950488
  0
ELLIPSE
  5
34B
100
AcDbEntity
  8
0
100
AcDbEllipse
 62
7
  6
BYLAYER
 10
55.6098855964
 20
59.0324159472
 30
0.0
 11
5.9744188766
 21
15.4181739787
 31
0.0
 40
0.4246262441
 41
-1.1258318434
 42
-1.0808559253
  0
ELLIPSE
  5
34C
100
AcDbEntity
  8
0
100
AcDbEllipse
 62
7
  6
BYLAYER
 10
55.2325793872
 20
59.1023564532
 30
0.0
 11
6.7281241514
 21
15.2321670698
 31
0.0
 40
0.4637684418
 41
-1.1713089434
 42
-1.1263330252
  0
ELLIPSE
  5
34D
100
AcDbEntity
  8
0
100
AcDbEllipse
 62
7
  6
BYLAYER
 10
54.8417835251
 20
59.2382175354
 30
0.0
 11
7.5237871239
 21
14.9291080088
 31
0.0
 40
0.5015766464
 41
-1.2107708716
 42
-1.1657949534
  0
ELLIPSE
  5
34E
100
AcDbEntity
  8
0
100
AcDbEllipse
 62
7
  6
BYLAYER
 10
54.0465857466
 20
66.6718732802
 30
0.0
 11
12.21174523
 21
-6.2680235371
 31
0.0
 40
0.0556166323
 41
0.5418884945
 42
0.5868644126
  0
ELLIPSE
  5
34F
100
AcDbEntity
  8
0
100
AcDbEllipse
 62
7
  6
BYLAYER
 10
53.6557898845
 20
66.8077343624
 30
0.0
 11
12.9331195969
 21
-5.9315691201
 31
0.0
 40
0.1089938613
 41
0.6276915302
 42
0.6726674484
  0
ELLIPSE
  5
350
100
AcDbEntity
  8
0
100
AcDbEllipse
 62
7
  6
BYLAYER
 10
53.2784836752
 20
66.8776748684
 30
0.0
 11
13.6005907232
 21
-5.5790156486
 31
0.0
 40
0.1599424749
 41
0.707091337
 42
0.7520672551
  0
ELLIPSE
  5
351
100
AcDbEntity
  8
0
100
AcDbEllipse
 62
7
  6
BYLAYER
 10
52.9211229326
 20
66.8804980968
 30
0.0
 11
14.2123980506
 21
-5.198047032
 31
0.0
 40
0.2085456475
 41
0.7810034854
 42
0.8259794035
  0
ELLIPSE
  5
352
100
AcDbEntity
  8
0
100
AcDbEllipse
 62
7
  6
BYLAYER
 10
52.589822198
 20
66.8161557413
 30
0.0
 11
14.7660832651
 21
-4.7782447927
 31
0.0
 40
0.2550219721
 41
0.8500268312
 42
0.8950027493
  0
ELLIPSE
  5
353
100
AcDbEntity
  8
0
100
AcDbEllipse
 62
7
  6
BYLAYER
 10
52.2902501188
 20
66.6857487175
 30
0.0
 11
15.2588119763
 21
-4.310477918
 31
0.0
 40
0.2996367937
 41
0.9145032477
 42
0.9594791658
  0
ELLIPSE
  5
354
100
AcDbEntity
  8
0
100
AcDbEllipse
 62
7
  6
BYLAYER
 10
52.0275324564
 20
66.4915083258
 30
0.0
 11
15.6875399451
 21
-3.7863161236
 31
0.0
 40
0.3426475445
 41
0.9745550181
 42
1.0195309362
  0
ELLIPSE
  5
355
100
AcDbEntity
  8
0
100
AcDbEllipse
 62
7
  6
BYLAYER
 10
51.8061643828
 20
66.236758073
 30
0.0
 11
16.0490376495
 21
-3.1974474626
 31
0.0
 40
0.3842666715
 41
1.0301020743
 42
1.0750779924
  0
ELLIPSE
  5
356
100
AcDbEntity
  8
0
100
AcDbEllipse
 62
7
  6
BYLAYER
 10
51.6299335671
 20
65.9258568066
 30
0.0
 11
16.3397602127
 21
-2.5350802267
 31
0.0
 40
0.4246314928
 41
1.080862291
 42
1.1258382091
  0
ELLIPSE
  5
357
100
AcDbEntity
  8
0
100
AcDbEllipse
 62
7
  6
BYLAYER
 10
51.5018553675
 20
65.5641241336
 30
0.0
 11
16.5555197785
 21
-1.7893382479
 31
0.0
 40
0.4637735253
 41
1.1263386505
 42
1.1713145686
  0
ELLIPSE
  5
358
100
AcDbEntity
  8
0
100
AcDbEllipse
 62
7
  6
BYLAYER
 10
51.4241212374
 20
65.1577494002
 30
0.0
 11
16.6908877101
 21
-0.9487317066
 31
0.0
 40
0.5015815387
 41
1.1657997255
 42
1.2107756436
  0
ELLIPSE
  5
359
100
AcDbEntity
  8
0
100
AcDbEllipse
 62
7
  6
BYLAYER
 10
51.3980612293
 20
64.7136857907
 30
0.0
 11
16.7382408644
 21
0.0000566019
 31
0.0
 40
0.5377539929
 41
1.1982675425
 42
1.2432434606
  0
ELLIPSE
  5
35A
100
AcDbEntity
  8
0
100
AcDbEllipse
 62
7
  6
BYLAYER
 10
51.4241212374
 20
64.2395313568
 30
0.0
 11
16.6864275756
 21
1.0715200677
 31
0.0
 40
0.5717395885
 41
1.2247899464
 42
1.2675199254
  0
ELLIPSE
  5
35B
100
AcDbEntity
  8
0
100
AcDbEllipse
 62
7
  6
BYLAYER
 10
51.5018553675
 20
63.7433990121
 30
0.0
 11
16.5193159623
 21
2.2787596211
 31
0.0
 40
0.6026731265
 41
1.2419420019
 42
1.282314114
  0
ELLIPSE
  5
35C
100
AcDbEntity
  8
0
100
AcDbEllipse
 62
7
  6
BYLAYER
 10
54.4441846358
 20
59.4376745729
 30
0.0
 11
8.3691291807
 21
14.4957367517
 31
0.0
 40
0.5377493467
 41
-1.2432396868
 42
-1.1982637687
  0
ELLIPSE
  5
35D
100
AcDbEntity
  8
0
100
AcDbEllipse
 62
7
  6
BYLAYER
 10
54.0465857466
 20
59.6973148007
 30
0.0
 11
9.2711262905
 21
13.9151494528
 31
0.0
 40
0.5717352805
 41
-1.2675173186
 42
-1.22478704
  0
ELLIPSE
  5
35E
100
AcDbEntity
  8
0
100
AcDbEllipse
 62
7
  6
BYLAYER
 10
53.6557898845
 20
60.0126957024
 30
0.0
 11
10.2330589334
 21
13.1668254015
 31
0.0
 40
0.6026692941
 41
-1.2823128393
 42
-1.2419403539
  0
ELLIPSE
  5
35F
100
AcDbEntity
  8
0
100
AcDbEllipse
 62
7
  6
BYLAYER
 10
53.2784836752
 20
60.3784210233
 30
0.0
 11
11.2490381238
 21
12.2291827176
 31
0.0
 40
0.6293304387
 41
4.9966140579
 42
5.0355741025
  0
ELLIPSE
  5
360
100
AcDbEntity
  8
0
100
AcDbEllipse
 62
7
  6
BYLAYER
 10
58.3488889138
 20
64.7416038055
 30
0.0
 11
-6.697911533
 21
9.0224519243
 31
0.0
 40
0.237653632
 41
-3.621220487
 42
-3.5761173952
  0
ELLIPSE
  5
361
100
AcDbEntity
  8
0
100
AcDbEllipse
 62
7
  6
BYLAYER
 10
58.587580177
 20
64.4196365635
 30
0.0
 11
-7.771919411
 21
8.4178689616
 31
0.0
 40
0.2080881539
 41
-3.776150951
 42
-3.7310478592
  0
ELLIPSE
  5
362
100
AcDbEntity
  8
0
100
AcDbEllipse
 62
7
  6
BYLAYER
 10
58.8450468172
 20
64.1243804641
 30
0.0
 11
8.7768884855
 21
-7.8725830182
 31
0.0
 40
0.1645667058
 41
-0.7761845743
 42
-0.7310814825
  0
ELLIPSE
  5
363
100
AcDbEntity
  8
0
100
AcDbEllipse
 62
7
  6
BYLAYER
 10
59.116883509
 20
63.8608874208
 30
0.0
 11
9.7084977198
 21
-7.3902123918
 31
0.0
 40
0.1126524607
 41
-0.9033914073
 42
-0.8582883155
  0
ELLIPSE
  5
364
100
AcDbEntity
  8
0
100
AcDbEllipse
 62
7
  6
BYLAYER
 10
59.3984390511
 20
63.6336658728
 30
0.0
 11
10.5718375853
 21
-6.960304009
 31
0.0
 40
0.0568047358
 41
-1.0174361609
 42
-0.9723330691
  0
ELLIPSE
  5
365
100
AcDbEntity
  8
0
100
AcDbEllipse
 62
7
  6
BYLAYER
 10
57.5090397809
 20
66.906183238
 30
0.0
 11
-0.7419176185
 21
12.6355676962
 31
0.0
 40
0.0568122221
 41
0.9723187931
 42
1.0174218849
  0
ELLIPSE
  5
366
100
AcDbEntity
  8
0
100
AcDbEllipse
 62
7
  6
BYLAYER
 10
57.5650446604
 20
66.5487362309
 30
0.0
 11
-1.5459112751
 21
12.1028473128
 31
0.0
 40
0.1126596549
 41
0.8582724333
 42
0.9033755251
  0
ELLIPSE
  5
367
100
AcDbEntity
  8
0
100
AcDbEllipse
 62
7
  6
BYLAYER
 10
57.6573207831
 20
66.1815708807
 30
0.0
 11
-2.4294755358
 21
11.5372356716
 31
0.0
 40
0.1645731193
 41
0.7310637474
 42
0.7761668392
  0
ELLIPSE
  5
368
100
AcDbEntity
  8
0
100
AcDbEllipse
 62
7
  6
BYLAYER
 10
57.7842892791
 20
65.8109694884
 30
0.0
 11
-3.4042068376
 21
10.9395507359
 31
0.0
 40
0.2080931049
 41
0.5894355681
 42
0.6262280121
  0
ELLIPSE
  5
369
100
AcDbEntity
  8
0
100
AcDbEllipse
 62
7
  6
BYLAYER
 10
57.9437776822
 20
65.4432731464
 30
0.0
 11
-4.4648080884
 21
10.3117260248
 31
0.0
 40
0.2376563695
 41
0.4345035838
 42
0.4553710265
  0
ELLIPSE
  5
36A
100
AcDbEntity
  8
0
100
AcDbEllipse
 62
7
  6
BYLAYER
 10
61.4260142181
 20
63.4328484269
 30
0.0
 11
15.4008967901
 21
-3.6210610279
 31
0.0
 40
0.3532012654
 41
1.6088361109
 42
1.6539392027
  0
ELLIPSE
  5
36B
100
AcDbEntity
  8
0
100
AcDbEllipse
 62
7
  6
BYLAYER
 10
52.9211229326
 20
60.7882331018
 30
0.0
 11
12.296402924
 21
11.0872384992
 31
0.0
 40
0.6501830562
 41
-1.2800991874
 42
-1.241923431
  0
ELLIPSE
  5
36C
100
AcDbEntity
  8
0
100
AcDbEllipse
 62
7
  6
BYLAYER
 10
61.5855026212
 20
63.6163875901
 30
0.0
 11
15.7381957576
 21
-3.0496530487
 31
0.0
 40
0.3966914607
 41
1.666141167
 42
1.7112442588
  0
ELLIPSE
  5
36D
100
AcDbEntity
  8
0
100
AcDbEllipse
 62
7
  6
BYLAYER
 10
61.0209029864
 20
67.2199030641
 30
0.0
 11
13.027932106
 21
9.5629382959
 31
0.0
 40
0.686380748
 41
-1.8866251986
 42
-1.8652219499
  0
ELLIPSE
  5
36E
100
AcDbEntity
  8
0
100
AcDbEllipse
 62
7
  6
BYLAYER
 10
60.7822117233
 20
67.541870306
 30
0.0
 11
12.0012584943
 21
10.8878046916
 31
0.0
 40
0.6724694506
 41
-1.9273383237
 42
-1.8822352318
  0
ELLIPSE
  5
36F
100
AcDbEntity
  8
0
100
AcDbEllipse
 62
7
  6
BYLAYER
 10
60.5247450831
 20
67.8371264055
 30
0.0
 11
10.9700225626
 21
12.0052300839
 31
0.0
 40
0.6508777042
 41
-1.9341274585
 42
-1.8890243667
  0
ELLIPSE
  5
370
100
AcDbEntity
  8
0
100
AcDbEllipse
 62
7
  6
BYLAYER
 10
60.2529083913
 20
68.1006194488
 30
0.0
 11
9.9804401156
 21
12.9133293138
 31
0.0
 40
0.6233201663
 41
-1.9292492886
 42
-1.8841461968
  0
ELLIPSE
  5
371
100
AcDbEntity
  8
0
100
AcDbEllipse
 62
7
  6
BYLAYER
 10
59.9713528492
 20
68.3278409968
 30
0.0
 11
9.0530561034
 21
13.6318776265
 31
0.0
 40
0.5913666693
 41
-1.9131516451
 42
-1.8680485533
  0
ELLIPSE
  5
372
100
AcDbEntity
  8
0
100
AcDbEllipse
 62
7
  6
BYLAYER
 10
59.6848959501
 20
68.5149032259
 30
0.0
 11
8.1904552171
 21
14.1862548219
 31
0.0
 40
0.5562374973
 41
-1.8871572184
 42
-1.8420541266
  0
ELLIPSE
  5
373
100
AcDbEntity
  8
0
100
AcDbEllipse
 62
7
  6
BYLAYER
 10
59.9713528492
 20
63.3029014201
 30
0.0
 11
12.1170997036
 21
-6.1913219507
 31
0.0
 40
0.0560681352
 41
1.1691665273
 42
1.2142696191
  0
ELLIPSE
  5
374
100
AcDbEntity
  8
0
100
AcDbEllipse
 62
7
  6
BYLAYER
 10
61.7124711172
 20
63.8403817085
 30
0.0
 11
16.0091655673
 21
-2.4137512819
 31
0.0
 40
0.43880298
 41
1.7187795629
 42
1.7638826547
  0
ELLIPSE
  5
375
100
AcDbEntity
  8
0
100
AcDbEllipse
 62
7
  6
BYLAYER
 10
61.8047472399
 20
64.1009981805
 30
0.0
 11
16.2102608323
 21
-1.7025354109
 31
0.0
 40
0.4795417348
 41
1.7662177942
 42
1.811320886
  0
ELLIPSE
  5
376
100
AcDbEntity
  8
0
100
AcDbEllipse
 62
7
  6
BYLAYER
 10
61.8607521193
 20
64.3937777861
 30
0.0
 11
16.336585227
 21
-0.9030705418
 31
0.0
 40
0.5187870566
 41
1.807666998
 42
1.8527700899
  0
ELLIPSE
  5
377
100
AcDbEntity
  8
0
100
AcDbEllipse
 62
7
  6
BYLAYER
 10
60.2529083913
 20
63.2050179869
 30
0.0
 11
12.8056374116
 21
-5.8198998215
 31
0.0
 40
0.1104854318
 41
1.2556308579
 42
1.3007339497
  0
ELLIPSE
  5
378
100
AcDbEntity
  8
0
100
AcDbEllipse
 62
7
  6
BYLAYER
 10
61.8795274965
 20
64.7137109851
 30
0.0
 11
16.3808846694
 21
0.0000570158
 31
0.0
 40
0.5562423032
 41
1.8420581444
 42
1.8871612363
  0
ELLIPSE
  5
379
100
AcDbEntity
  8
0
100
AcDbEllipse
 62
7
  6
BYLAYER
 10
61.8607521193
 20
65.0553236316
 30
0.0
 11
16.3320724217
 21
1.0242973174
 31
0.0
 40
0.5913711198
 41
1.8680513647
 42
1.9131544565
  0
ELLIPSE
  5
37A
100
AcDbEntity
  8
0
100
AcDbEllipse
 62
7
  6
BYLAYER
 10
60.5247450831
 20
63.1546281569
 30
0.0
 11
13.4392680365
 21
-5.439091141
 31
0.0
 40
0.1629030364
 41
1.3359258553
 42
1.3810289471
  0
ELLIPSE
  5
37B
100
AcDbEntity
  8
0
100
AcDbEllipse
 62
7
  6
BYLAYER
 10
61.8047472399
 20
65.4127706387
 30
0.0
 11
16.173473457
 21
2.1867295896
 31
0.0
 40
0.6233241255
 41
1.8841476047
 42
1.9292506965
  0
ELLIPSE
  5
37C
100
AcDbEntity
  8
0
100
AcDbEllipse
 62
7
  6
BYLAYER
 10
61.7124711172
 20
65.7799359889
 30
0.0
 11
15.8818151041
 21
3.4978039193
 31
0.0
 40
0.6508809859
 41
8.1722095415
 42
8.2070856742
  0
ELLIPSE
  5
37D
100
AcDbEntity
  8
0
100
AcDbEllipse
 62
7
  6
BYLAYER
 10
60.7822117233
 20
63.1525941138
 30
0.0
 11
14.0172550462
 21
-5.0379029907
 31
0.0
 40
0.2132593463
 41
1.410935015
 42
1.4560381068
  0
ELLIPSE
  5
37E
100
AcDbEntity
  8
0
100
AcDbEllipse
 62
7
  6
BYLAYER
 10
61.5855026212
 20
66.1505373812
 30
0.0
 11
15.4296988941
 21
4.9496122113
 31
0.0
 40
0.6724718307
 41
1.8822336013
 42
1.915007536
  0
ELLIPSE
  5
37F
100
AcDbEntity
  8
0
100
AcDbEllipse
 62
7
  6
BYLAYER
 10
61.4260142181
 20
66.5182337232
 30
0.0
 11
14.7956511638
 21
6.5011827944
 31
0.0
 40
0.6863820082
 41
1.8652191791
 42
1.8778932669
  0
ELLIPSE
  5
380
100
AcDbEntity
  8
0
100
AcDbEllipse
 62
7
  6
BYLAYER
 10
61.0209029864
 20
63.1989506609
 30
0.0
 11
14.5381489316
 21
-4.6068326535
 31
0.0
 40
0.2616495724
 41
1.4812398951
 42
1.5263429869
  0
ELLIPSE
  5
381
100
AcDbEntity
  8
0
100
AcDbEllipse
 62
7
  6
BYLAYER
 10
59.3984390511
 20
68.6586054495
 30
0.0
 11
7.3861833181
 21
14.5994409912
 31
0.0
 40
0.518781985
 41
-1.8527650572
 42
-1.8076619654
  0
ELLIPSE
  5
382
100
AcDbEntity
  8
0
100
AcDbEllipse
 62
7
  6
BYLAYER
 10
59.116883509
 20
68.7564888827
 30
0.0
 11
6.6306715163
 21
14.8897619847
 31
0.0
 40
0.479536451
 41
-1.8113149985
 42
-1.7662119067
  0
ELLIPSE
  5
383
100
AcDbEntity
  8
0
100
AcDbEllipse
 62
7
  6
BYLAYER
 10
58.8450468172
 20
68.8068787127
 30
0.0
 11
5.9141983598
 21
15.0712064093
 31
0.0
 40
0.4387975103
 41
-1.7638760346
 42
-1.7187729428
  0
ELLIPSE
  5
384
100
AcDbEntity
  8
0
100
AcDbEllipse
 62
7
  6
BYLAYER
 10
58.587580177
 20
68.8089127558
 30
0.0
 11
5.2280102737
 21
15.1544817399
 31
0.0
 40
0.3966858117
 41
-1.7112369927
 42
-1.6661339009
  0
ELLIPSE
  5
385
100
AcDbEntity
  8
0
100
AcDbEllipse
 62
7
  6
BYLAYER
 10
58.3488889138
 20
68.7625562087
 30
0.0
 11
4.5645094692
 21
15.1480683359
 31
0.0
 40
0.3531954297
 41
-1.6539313455
 42
-1.6088282537
  0
ELLIPSE
  5
386
100
AcDbEntity
  8
0
100
AcDbEllipse
 62
7
  6
BYLAYER
 10
58.1330571015
 20
68.6686022449
 30
0.0
 11
3.9170278359
 21
15.0590602294
 31
0.0
 40
0.3082317889
 41
-1.5922649381
 42
-1.5471618463
  0
ELLIPSE
  5
387
100
AcDbEntity
  8
0
100
AcDbEllipse
 62
7
  6
BYLAYER
 10
57.9437776822
 20
68.5286584427
 30
0.0
 11
3.2794335677
 21
14.893779084
 31
0.0
 40
0.2616433071
 41
-1.5263339993
 42
-1.4812309074
  0
ELLIPSE
  5
388
100
AcDbEntity
  8
0
100
AcDbEllipse
 62
7
  6
BYLAYER
 10
57.7842892791
 20
68.3451192795
 30
0.0
 11
2.6456676367
 21
14.6582013007
 31
0.0
 40
0.2132528315
 41
-1.456028525
 42
-1.4109254332
  0
ELLIPSE
  5
389
100
AcDbEntity
  8
0
100
AcDbEllipse
 62
7
  6
BYLAYER
 10
57.6573207831
 20
68.1211251611
 30
0.0
 11
2.0092326326
 21
14.3582391263
 31
0.0
 40
0.1628962535
 41
-1.3810187119
 42
-1.3359156201
  0
ELLIPSE
  5
38A
100
AcDbEntity
  8
0
100
AcDbEllipse
 62
7
  6
BYLAYER
 10
57.5650446604
 20
67.8605086891
 30
0.0
 11
1.362623573
 21
13.9998992874
 31
0.0
 40
0.1104783762
 41
-1.3007229657
 42
-1.2556198739
  0
ELLIPSE
  5
38B
100
AcDbEntity
  8
0
100
AcDbEllipse
 62
7
  6
BYLAYER
 10
57.5090397809
 20
67.5677290835
 30
0.0
 11
0.6966883468
 21
13.5893161587
 31
0.0
 40
0.0560608308
 41
-1.214257747
 42
-1.1691546551
  0
ELLIPSE
  5
38C
100
AcDbEntity
  8
0
100
AcDbEllipse
 62
7
  6
BYLAYER
 10
61.2367347987
 20
63.2929046247
 30
0.0
 11
15.0000782432
 21
-4.1372971579
 31
0.0
 40
0.3082378281
 41
1.5471702683
 42
1.5922733601
  0
ENDSEC
  0
SECTION
  2
OBJECTS
  0
DICTIONARY
  5
C
100
AcDbDictionary
280
0
281
1
  3
ACAD_GROUP
350
D
  3
ACAD_MLINESTYLE
350
17
  3
ACAD_LAYOUT
350
1A
  3
ACAD_PLOTSETTINGS
350
19
  3
ACAD_PLOTSTYLENAME
350
E
  0
DICTIONARY
  5
D
102
{ACAD_REACTORS
330
C
102
}
100
AcDbDictionary
280
0
281
1
  0
ACDBDICTIONARYWDFLT
  5
E
102
{ACAD_REACTORS
330
C
102
}
100
AcDbDictionary
281
1
  3
Normal
350
F
100
AcDbDictionaryWithDefault
340
F
  0
DICTIONARY
  5
17
102
{ACAD_REACTORS
330
C
102
}
100
AcDbDictionary
280
0
281
1
  3
Standard
350
18
  0
DICTIONARY
  5
19
102
{ACAD_REACTORS
330
C
102
}
100
AcDbDictionary
281
1
  0
DICTIONARY
  5
1A
102
{ACAD_REACTORS
330
C
102
}
100
AcDbDictionary
281
1
  3
Model
350
38D
  3
Layout1
350
38E
  0
ACDBPLACEHOLDER
  5
F
102
{ACAD_REACTORS
330
E
102
}
  0
MLINESTYLE
  5
18
102
{ACAD_REACTORS
330
17
102
}
100
AcDbMlineStyle
  2
STANDARD
 70
0
  3

 62
256
 51
90.0
 52
90.0
 71
2
 49
0.5
 62
256
  6
BYLAYER
 49
-0.5
 62
256
  6
BYLAYER
  0
LAYOUT
  5
38D
102
{ACAD_REACTORS
330
1A
102
}
100
AcDbPlotSettings
  1

  2
none_device
  4

  6

 40
0.0
 41
0.0
 42
0.0
 43
0.0
 44
210.0
 45
297.0
 46
0.0
 47
0.0
 48
0.0
 49
0.0
140
0.0
141
0.0
142
1.0
143
1.0
 70
1024
 72
1
 73
0
 74
0
  7

 75
0
147
1.0
148
0.0
149
0.0
100
AcDbLayout
  1
Model
 70
0
 71
0
 10
0.0
 20
0.0
 11
210.0
 21
297.0
 12
0.0
 22
0.0
 32
0.0
 14
0.0
 24
0.0
 34
0.0
 15
0.0
 25
0.0
 35
0.0
146
0.0
 13
0.0
 23
0.0
 33
0.0
 16
1.0
 26
0.0
 36
0.0
 17
0.0
 27
1.0
 37
0.0
 76
0
330
210
345
0
346
0
  0
LAYOUT
  5
38E
102
{ACAD_REACTORS
330
1A
102
}
100
AcDbPlotSettings
  1

  2
none_device
  4

  6

 40
0.0
 41
0.0
 42
0.0
 43
0.0
 44
210.0
 45
297.0
 46
0.0
 47
0.0
 48
0.0
 49
0.0
140
0.0
141
0.0
142
1.0
143
1.0
 70
0
 72
1
 73
0
 74
0
  7

 75
0
147
1.0
148
0.0
149
0.0
100
AcDbLayout
  1
Layout1
 70
0
 71
1
 10
0.0
 20
0.0
 11
210.0
 21
297.0
 12
0.0
 22
0.0
 32
0.0
 14
0.0
 24
0.0
 34
0.0
 15
0.0
 25
0.0
 35
0.0
146
0.0
 13
0.0
 23
0.0
 33
0.0
 16
1.0
 26
0.0
 36
0.0
 17
0.0
 27
1.0
 37
0.0
 76
0
330
211
345
0
346
0
  0
ENDSEC
  0
EOF
