999
DXF file: C:\Users\sesa63760\Dev\_Creo\CAD\MCADID0003694_3D-CAD\drw0001_1.dxf
999
Pro/ENGINEER 2019471 by Parametric Technology Corporation
  0
SECTION
  2
HEADER
  9
$ACADVER
  1
AC1024
  9
$DWGCODEPAGE
  3
ANSI_1252
  9
$EXTMAX
 10
104.1245857594
 20
147.2619141454
 30
0.0
  9
$EXTMIN
 10
0.0
 20
0.0
 30
0.0
  9
$LIMMIN
 10
0.0
 20
0.0
  9
$LIMMAX
 10
104.1245857594
 20
147.2619141454
  9
$VIEWCTR
 10
52.0622928797
 20
73.6309570727
  9
$VIEWSIZE
 40
147.2619141454
  9
$CLAYER
  8
0
  9
$LTSCALE
 40
9.5992951443
  9
$CELTYPE
  6
BYLAYER
  9
$DIMSCALE
 40
1.0
  9
$DIMASZ
 40
1.2395784019
  9
$DIMEXO
 40
1.0
  9
$DIMDLI
 40
6.6322402815
  9
$DIMEXE
 40
1.0
  9
$DIMCEN
 40
1.5707937509
  9
$DIMLFAC
 40
1.0
  9
$DIMBLK
  1
_FILLED
  9
$DIMALT
 70
0
  9
$DIMALTF
 40
0.0393700787
  9
$DIMTXT
 40
1.7354097627
  9
$DIMTOL
 70
1
  9
$DIMLIM
 70
0
  9
$DIMTFAC
 40
1.0
  9
$DIMTP
 40
0.01
  9
$DIMTM
 40
0.01
  9
$DIMGAP
 40
0.625
  9
$DIMDSEP
 70
46
  9
$AUNITS
 70
0
  9
$PDMODE
 70
3
  9
$PDSIZE
 40
0.3125
  9
$HANDSEED
  5
321
  9
$TILEMODE
 70
1
  9
$MEASUREMENT
 70
1
  9
$INSUNITS
 70
4
  0
ENDSEC
  0
SECTION
  2
CLASSES
  0
CLASS
  1
ACDBDICTIONARYWDFLT
  2
AcDbDictionaryWithDefault
  3
AutoCAD 2000
 90
0
 91
1
280
0
281
0
  0
CLASS
  1
ACDBPLACEHOLDER
  2
AcDbPlaceHolder
  3
AutoCAD 2000
 90
0
 91
1
280
0
281
0
  0
CLASS
  1
LAYOUT
  2
AcDbLayout
  3
AutoCAD 2000
 90
0
 91
0
280
0
281
0
  0
ENDSEC
  0
SECTION
  2
TABLES
  0
TABLE
  2
VPORT
  5
8
100
AcDbSymbolTable
 70
2
  0
VPORT
  5
1F4
100
AcDbSymbolTableRecord
100
AcDbViewportTableRecord
  2
*ACTIVE
 70
0
 10
0.0
 20
0.0
 11
1.0
 21
1.0
 12
52.0622928797
 22
73.6309570727
 13
0.0
 23
0.0
 14
1.0
 24
1.0
 15
0.0
 25
0.0
 16
0.0
 26
0.0
 36
1.0
 17
0.0
 27
0.0
 37
0.0
 40
147.2619141454
 41
0.7070707071
 42
50.0
 43
0.0
 44
0.0
 50
0.0
 51
0.0
 71
0
 72
100
 73
1
 74
1
 75
0
 76
0
 77
0
 78
0
  0
ENDTAB
  0
TABLE
  2
LTYPE
  5
5
100
AcDbSymbolTable
 70
6
  0
LTYPE
  5
14
100
AcDbSymbolTableRecord
100
AcDbLinetypeTableRecord
  2
BYBLOCK
 70
0
  3

 72
65
 73
0
 40
0.0
  0
LTYPE
  5
15
100
AcDbSymbolTableRecord
100
AcDbLinetypeTableRecord
  2
BYLAYER
 70
0
  3

 72
65
 73
0
 40
0.0
  0
LTYPE
  5
16
100
AcDbSymbolTableRecord
100
AcDbLinetypeTableRecord
  2
CONTINUOUS
 70
64
  3
Solid line
 72
65
 73
0
 40
0.0
  0
LTYPE
  5
1F5
100
AcDbSymbolTableRecord
100
AcDbLinetypeTableRecord
  2
CENTER
 70
64
  3
____ _ ____ _ ____ _ ____ _ ____ _ ____ _ ____
 72
65
 73
4
 40
0.6
 49
0.375
 74
0
 49
-0.075
 74
0
 49
0.075
 74
0
 49
-0.075
 74
0
  0
LTYPE
  5
1F6
100
AcDbSymbolTableRecord
100
AcDbLinetypeTableRecord
  2
HIDDEN
 70
64
  3
- - - - - - - - - - - - - - - - - - - -
 72
65
 73
2
 40
0.2
 49
0.1
 74
0
 49
-0.1
 74
0
  0
LTYPE
  5
1F7
100
AcDbSymbolTableRecord
100
AcDbLinetypeTableRecord
  2
PHANTOM
 70
64
  3
_____ _ _ _____ _ _ _____ _ _ _____
 72
65
 73
6
 40
0.8
 49
0.45
 74
0
 49
-0.05
 74
0
 49
0.1
 74
0
 49
-0.05
 74
0
 49
0.1
 74
0
 49
-0.05
 74
0
  0
LTYPE
  5
1F8
100
AcDbSymbolTableRecord
100
AcDbLinetypeTableRecord
  2
DOT
 70
64
  3
. . . . . . . . . . . . . . . . . . . .
 72
65
 73
2
 40
0.2
 49
0.1
 74
0
 49
-0.1
 74
0
  0
LTYPE
  5
1F9
100
AcDbSymbolTableRecord
100
AcDbLinetypeTableRecord
  2
DASHED
 70
64
  3
- - - - - - - - - - - - - - - - - - - -
 72
65
 73
2
 40
0.2
 49
0.1
 74
0
 49
-0.1
 74
0
  0
ENDTAB
  0
TABLE
  2
LAYER
  5
2
100
AcDbSymbolTable
 70
36
  0
LAYER
  5
10
100
AcDbSymbolTableRecord
100
AcDbLayerTableRecord
  2
0
 70
0
 62
7
  6
CONTINUOUS
370
-3
390
F
  0
LAYER
  5
1FA
100
AcDbSymbolTableRecord
100
AcDbLayerTableRecord
  2
DEFAULT_1
 70
0
 62
7
  6
CENTER
370
-3
390
F
  0
LAYER
  5
1FB
100
AcDbSymbolTableRecord
100
AcDbLayerTableRecord
  2
DEFAULT_2
 70
0
 62
7
  6
HIDDEN
370
-3
390
F
  0
LAYER
  5
1FC
100
AcDbSymbolTableRecord
100
AcDbLayerTableRecord
  2
DEFAULT_3
 70
0
 62
7
  6
PHANTOM
370
-3
390
F
  0
LAYER
  5
1FD
100
AcDbSymbolTableRecord
100
AcDbLayerTableRecord
  2
00_COMPONENTS
 70
0
 62
7
  6
CONTINUOUS
370
-3
390
F
  0
LAYER
  5
1FE
100
AcDbSymbolTableRecord
100
AcDbLayerTableRecord
  2
01_1_DEFAULT_DATUMS
 70
0
 62
7
  6
CONTINUOUS
370
-3
390
F
  0
LAYER
  5
1FF
100
AcDbSymbolTableRecord
100
AcDbLayerTableRecord
  2
01_PLANES
 70
0
 62
7
  6
CONTINUOUS
370
-3
390
F
  0
LAYER
  5
200
100
AcDbSymbolTableRecord
100
AcDbLayerTableRecord
  2
02_COORD_SYS
 70
0
 62
7
  6
CONTINUOUS
370
-3
390
F
  0
LAYER
  5
201
100
AcDbSymbolTableRecord
100
AcDbLayerTableRecord
  2
03_AXES
 70
0
 62
7
  6
CONTINUOUS
370
-3
390
F
  0
LAYER
  5
202
100
AcDbSymbolTableRecord
100
AcDbLayerTableRecord
  2
04_POINTS
 70
0
 62
7
  6
CONTINUOUS
370
-3
390
F
  0
LAYER
  5
203
100
AcDbSymbolTableRecord
100
AcDbLayerTableRecord
  2
05_CURVES
 70
0
 62
7
  6
CONTINUOUS
370
-3
390
F
  0
LAYER
  5
204
100
AcDbSymbolTableRecord
100
AcDbLayerTableRecord
  2
06_SURFS
 70
0
 62
7
  6
CONTINUOUS
370
-3
390
F
  0
LAYER
  5
205
100
AcDbSymbolTableRecord
100
AcDbLayerTableRecord
  2
07_COSMETICS
 70
0
 62
7
  6
CONTINUOUS
370
-3
390
F
  0
LAYER
  5
206
100
AcDbSymbolTableRecord
100
AcDbLayerTableRecord
  2
10_NOTES
 70
0
 62
7
  6
CONTINUOUS
370
-3
390
F
  0
LAYER
  5
207
100
AcDbSymbolTableRecord
100
AcDbLayerTableRecord
  2
11_NOTES_PUB
 70
0
 62
7
  6
CONTINUOUS
370
-3
390
F
  0
LAYER
  5
208
100
AcDbSymbolTableRecord
100
AcDbLayerTableRecord
  2
13_REF_GTOL
 70
0
 62
7
  6
CONTINUOUS
370
-3
390
F
  0
LAYER
  5
209
100
AcDbSymbolTableRecord
100
AcDbLayerTableRecord
  2
16_MISC
 70
0
 62
7
  6
CONTINUOUS
370
-3
390
F
  0
LAYER
  5
20A
100
AcDbSymbolTableRecord
100
AcDbLayerTableRecord
  2
17_NO_PRINT
 70
0
 62
7
  6
CONTINUOUS
370
-3
390
F
  0
LAYER
  5
20B
100
AcDbSymbolTableRecord
100
AcDbLayerTableRecord
  2
18_DATUM_CAMS_JOINTS
 70
0
 62
7
  6
CONTINUOUS
370
-3
390
F
  0
LAYER
  5
20C
100
AcDbSymbolTableRecord
100
AcDbLayerTableRecord
  2
19_DATUM_FUNCTIONAL
 70
0
 62
7
  6
CONTINUOUS
370
-3
390
F
  0
LAYER
  5
20D
100
AcDbSymbolTableRecord
100
AcDbLayerTableRecord
  2
20_DATUM_KINEMATIC_SCHEME
 70
0
 62
7
  6
CONTINUOUS
370
-3
390
F
  0
ENDTAB
  0
TABLE
  2
STYLE
  5
3
100
AcDbSymbolTable
 70
1
  0
STYLE
  5
11
100
AcDbSymbolTableRecord
100
AcDbTextStyleTableRecord
  2
STANDARD
 70
0
 40
0.0
 41
1.0
 50
0.0
 71
0
 42
0.2
  3
ARIAL.TTF
  4

  0
STYLE
  5
20E
100
AcDbSymbolTableRecord
100
AcDbTextStyleTableRecord
  2
TEXTSTYLE_1
 70
0
 40
0.0
 41
0.8
 50
0.0
 71
0
 42
0.2
  3
gdt
  4

  0
ENDTAB
  0
TABLE
  2
VIEW
  5
6
100
AcDbSymbolTable
 70
0
  0
ENDTAB
  0
TABLE
  2
UCS
  5
7
100
AcDbSymbolTable
 70
0
  0
ENDTAB
  0
TABLE
  2
APPID
  5
9
100
AcDbSymbolTable
 70
1
  0
APPID
  5
20F
100
AcDbSymbolTableRecord
100
AcDbRegAppTableRecord
  2
ACAD
 70
0
  0
ENDTAB
  0
TABLE
  2
BLOCK_RECORD
  5
1
100
AcDbSymbolTable
 70
0
  0
BLOCK_RECORD
  5
210
100
AcDbSymbolTableRecord
100
AcDbBlockTableRecord
  2
*Model_Space
  0
BLOCK_RECORD
  5
211
100
AcDbSymbolTableRecord
100
AcDbBlockTableRecord
  2
*Paper_Space
  0
BLOCK_RECORD
  5
212
100
AcDbSymbolTableRecord
100
AcDbBlockTableRecord
  2
_FILLED
  0
ENDTAB
  0
TABLE
  2
DIMSTYLE
  5
A
100
AcDbSymbolTable
 70
1
100
AcDbDimStyleTable
 71
0
  0
DIMSTYLE
105
213
100
AcDbSymbolTableRecord
100
AcDbDimStyleTableRecord
  2
STANDARD
 70
0
  3

  4

 40
1.0
 41
1.2395784019
 42
1.0
 43
0.38
 44
1.0
 45
0.0
 46
0.0
 47
0.01
 48
0.01
140
1.7354097627
141
0.09
142
0.0
143
25.4
144
1.0
145
0.0
146
1.0
147
0.625
 71
1
 72
0
 73
0
 74
0
 75
0
 76
0
 77
1
 78
8
 79
2
170
0
171
1
172
0
173
0
174
0
175
0
176
0
177
0
178
0
270
2
179
2
271
2
272
2
273
2
274
2
275
0
280
0
281
0
282
0
283
1
284
8
285
0
286
0
287
3
288
0
340
11
278
46
341
212
342
212
343
212
344
212
  0
ENDTAB
  0
ENDSEC
  0
SECTION
  2
BLOCKS
  0
BLOCK
  5
20
100
AcDbEntity
  8
0
100
AcDbBlockBegin
  2
*Model_Space
 70
0
 10
0.0
 20
0.0
 30
0.0
  3
*Model_Space
  1

  0
ENDBLK
  5
21
100
AcDbEntity
  8
0
100
AcDbBlockEnd
  0
BLOCK
  5
1C
100
AcDbEntity
  8
0
100
AcDbBlockBegin
  2
*Paper_Space
 70
0
 10
0.0
 20
0.0
 30
0.0
  3
*Paper_Space
  1

  0
ENDBLK
  5
1D
100
AcDbEntity
  8
0
100
AcDbBlockEnd
  0
BLOCK
  5
214
100
AcDbEntity
  8
0
100
AcDbBlockBegin
  2
_FILLED
 70
64
 10
0.0
 20
0.0
  3
_FILLED
  1

  0
SOLID
  5
215
100
AcDbEntity
  8
0
  6
BYBLOCK
 62
0
100
AcDbTrace
 10
0.0
 20
0.0
 11
-1.0
 21
0.25
 12
-1.0
 22
-0.25
 13
-1.0
 23
-0.25
  0
ENDBLK
  5
216
100
AcDbEntity
  8
0
  6
BYBLOCK
 62
0
100
AcDbBlockEnd
  0
ENDSEC
  0
SECTION
  2
ENTITIES
  0
LINE
  5
217
100
AcDbEntity
  8
0
100
AcDbLine
 62
7
  6
BYLAYER
 10
45.7432944835
 20
133.8896007297
 11
28.1222668601
 21
123.7161564152
  0
LINE
  5
218
100
AcDbEntity
  8
0
100
AcDbLine
 62
7
  6
BYLAYER
 10
51.1031714803
 20
132.8363480814
 11
52.9274993803
 21
133.8896179984
  0
LINE
  5
219
100
AcDbEntity
  8
0
100
AcDbLine
 62
7
  6
BYLAYER
 10
57.1137655911
 20
11.365852434
 11
20.3440598835
 21
32.5943716691
  0
LINE
  5
21A
100
AcDbEntity
  8
0
100
AcDbLine
 62
7
  6
BYLAYER
 10
23.5260524691
 20
33.329267386
 11
24.1624512217
 21
32.9618507069
  0
LINE
  5
21B
100
AcDbEntity
  8
0
100
AcDbLine
 62
7
  6
BYLAYER
 10
53.5782157878
 20
15.9790353189
 11
54.2146145404
 21
15.6116186398
  0
LINE
  5
21C
100
AcDbEntity
  8
0
100
AcDbLine
 62
7
  6
BYLAYER
 10
24.0917355388
 20
33.6558627091
 11
24.1624512217
 21
33.6150359142
  0
LINE
  5
21D
100
AcDbEntity
  8
0
100
AcDbLine
 62
7
  6
BYLAYER
 10
54.1438988576
 20
16.3056306419
 11
54.2146145404
 21
16.264803847
  0
LINE
  5
21E
100
AcDbEntity
  8
0
100
AcDbLine
 62
7
  6
BYLAYER
 10
22.00576656
 20
35.3500883922
 11
23.5260524691
 21
34.4723707699
  0
LINE
  5
21F
100
AcDbEntity
  8
0
100
AcDbLine
 62
7
  6
BYLAYER
 10
24.1624512217
 20
34.1049540909
 11
25.5413145526
 21
33.3088849851
  0
LINE
  5
220
100
AcDbEntity
  8
0
100
AcDbLine
 62
7
  6
BYLAYER
 10
52.0579298787
 20
17.9998563251
 11
53.5782157878
 21
17.1221387028
  0
LINE
  5
221
100
AcDbEntity
  8
0
100
AcDbLine
 62
7
  6
BYLAYER
 10
54.2146145404
 20
16.7547220238
 11
55.5972498445
 21
15.9564752175
  0
LINE
  5
222
100
AcDbEntity
  8
0
100
AcDbLine
 62
7
  6
BYLAYER
 10
55.5666189134
 20
16.1374600772
 11
54.2146145404
 21
16.9180225072
  0
LINE
  5
223
100
AcDbEntity
  8
0
100
AcDbLine
 62
7
  6
BYLAYER
 10
53.5782157878
 20
17.2854391863
 11
52.0579298787
 21
18.1631568085
  0
LINE
  5
224
100
AcDbEntity
  8
0
100
AcDbLine
 62
7
  6
BYLAYER
 10
25.5144555947
 20
33.4876921443
 11
24.1624512217
 21
34.2682545743
  0
LINE
  5
225
100
AcDbEntity
  8
0
100
AcDbLine
 62
7
  6
BYLAYER
 10
23.5260524691
 20
34.6356712534
 11
22.00576656
 21
35.5133888756
  0
LINE
  5
226
100
AcDbEntity
  8
0
100
AcDbLine
 62
7
  6
BYLAYER
 10
23.5967592314
 20
34.6764935779
 11
23.7381836202
 21
34.5948440161
  0
LINE
  5
227
100
AcDbEntity
  8
0
100
AcDbLine
 62
7
  6
BYLAYER
 10
53.6489225501
 20
17.3262615108
 11
53.790346939
 21
17.244611949
  0
LINE
  5
228
100
AcDbEntity
  8
0
100
AcDbLine
 62
7
  6
BYLAYER
 10
54.2146145404
 20
18.0611258912
 11
53.5782157878
 21
18.4285425702
  0
LINE
  5
229
100
AcDbEntity
  8
0
100
AcDbLine
 62
7
  6
BYLAYER
 10
24.1624512217
 20
35.4113579583
 11
23.5260524691
 21
35.7787746374
  0
LINE
  5
22A
100
AcDbEntity
  8
0
100
AcDbLine
 62
7
  6
BYLAYER
 10
78.1551564008
 20
135.9747960294
 11
63.7355899611
 21
127.6497051579
  0
LINE
  5
22B
100
AcDbEntity
  8
0
100
AcDbLine
 62
7
  6
BYLAYER
 10
28.1222668601
 20
106.4878002109
 11
24.1624206044
 21
104.201595556
  0
LINE
  5
22C
100
AcDbEntity
  8
0
100
AcDbLine
 62
7
  6
BYLAYER
 10
66.9565563272
 20
125.7901214287
 11
65.1322284272
 21
124.7368515118
  0
LINE
  5
22D
100
AcDbEntity
  8
0
100
AcDbLine
 62
7
  6
BYLAYER
 10
20.3440598835
 20
32.5943716691
 11
20.3440598835
 21
83.5022978096
  0
LINE
  5
22E
100
AcDbEntity
  8
0
100
AcDbLine
 62
7
  6
BYLAYER
 10
26.4251717249
 20
98.2819864848
 11
28.1222668601
 21
99.2617989692
  0
LINE
  5
22F
100
AcDbEntity
  8
0
100
AcDbLine
 62
7
  6
BYLAYER
 10
66.9565862379
 20
121.6423780941
 11
49.3355586145
 21
111.4689337796
  0
LINE
  5
230
100
AcDbEntity
  8
0
100
AcDbLine
 62
7
  6
BYLAYER
 10
21.8643457926
 20
35.4317400448
 11
21.8643457926
 21
35.2684395614
  0
LINE
  5
231
100
AcDbEntity
  8
0
100
AcDbLine
 62
7
  6
BYLAYER
 10
23.5260524691
 20
35.7787746374
 11
23.5260524691
 21
34.6356712534
  0
LINE
  5
232
100
AcDbEntity
  8
0
100
AcDbLine
 62
7
  6
BYLAYER
 10
23.5260524691
 20
34.4723707699
 11
23.5260524691
 21
33.329267386
  0
LINE
  5
233
100
AcDbEntity
  8
0
100
AcDbLine
 62
7
  6
BYLAYER
 10
23.7381836202
 20
34.7581444995
 11
23.7381836202
 21
34.5948440161
  0
LINE
  5
234
100
AcDbEntity
  8
0
100
AcDbLine
 62
7
  6
BYLAYER
 10
24.0917355388
 20
35.4521847532
 11
24.0917355388
 21
33.6558627091
  0
LINE
  5
235
100
AcDbEntity
  8
0
100
AcDbLine
 62
7
  6
BYLAYER
 10
24.1624206044
 20
104.201595556
 11
24.1624206044
 21
85.7486409289
  0
LINE
  5
236
100
AcDbEntity
  8
0
100
AcDbLine
 62
7
  6
BYLAYER
 10
24.1624512217
 20
32.9618507069
 11
24.1624512217
 21
34.1049540909
  0
LINE
  5
237
100
AcDbEntity
  8
0
100
AcDbLine
 62
7
  6
BYLAYER
 10
24.1624512217
 20
34.2682545743
 11
24.1624512217
 21
35.4113579583
  0
LINE
  5
238
100
AcDbEntity
  8
0
100
AcDbLine
 62
7
  6
BYLAYER
 10
66.9565862379
 20
119.111220601
 11
70.5486737309
 21
121.1851009027
  0
LINE
  5
239
100
AcDbEntity
  8
0
100
AcDbLine
 62
7
  6
BYLAYER
 10
84.1551295395
 20
125.5824756756
 11
70.5486737309
 21
117.7268316437
  0
LINE
  5
23A
100
AcDbEntity
  8
0
100
AcDbLine
 62
7
  6
BYLAYER
 10
30.03159142
 20
93.8321221007
 11
26.4251717249
 21
91.7499671477
  0
LINE
  5
23B
100
AcDbEntity
  8
0
100
AcDbLine
 62
7
  6
BYLAYER
 10
34.4508983114
 20
95.159076189
 11
34.3801879277
 21
95.1182517736
  0
LINE
  5
23C
100
AcDbEntity
  8
0
100
AcDbLine
 62
7
  6
BYLAYER
 10
25.5413163633
 20
33.1455876379
 11
25.5413163633
 21
33.3088881213
  0
LINE
  5
23D
100
AcDbEntity
  8
0
100
AcDbLine
 62
7
  6
BYLAYER
 10
26.4251717249
 20
98.2819864848
 11
26.4251717249
 21
91.7499671477
  0
LINE
  5
23E
100
AcDbEntity
  8
0
100
AcDbLine
 62
7
  6
BYLAYER
 10
28.1222668601
 20
94.9344462114
 11
28.1222668601
 21
97.4247785837
  0
LINE
  5
23F
100
AcDbEntity
  8
0
100
AcDbLine
 62
7
  6
BYLAYER
 10
28.1222668601
 20
97.5880790671
 11
28.1222668601
 21
123.7161564152
  0
LINE
  5
240
100
AcDbEntity
  8
0
100
AcDbLine
 62
7
  6
BYLAYER
 10
24.0917102207
 20
85.6659918251
 11
20.3440598835
 21
83.5022978096
  0
LINE
  5
241
100
AcDbEntity
  8
0
100
AcDbLine
 62
7
  6
BYLAYER
 10
24.2092688156
 20
85.7215937135
 11
24.1563042989
 21
85.691014818
  0
LINE
  5
242
100
AcDbEntity
  8
0
100
AcDbLine
 62
7
  6
BYLAYER
 10
34.720963065
 20
91.0839482467
 11
34.7563191622
 21
91.1043609771
  0
LINE
  5
243
100
AcDbEntity
  8
0
100
AcDbLine
 62
7
  6
BYLAYER
 10
30.1728532682
 20
89.5862911488
 11
30.1728532682
 21
93.7505663797
  0
LINE
  5
244
100
AcDbEntity
  8
0
100
AcDbLine
 62
7
  6
BYLAYER
 10
33.584657692
 20
91.7808047391
 11
33.584657692
 21
88.8616956943
  0
LINE
  5
245
100
AcDbEntity
  8
0
100
AcDbLine
 62
7
  6
BYLAYER
 10
34.3801879277
 20
98.3842614421
 11
34.3801879277
 21
95.1182517736
  0
LINE
  5
246
100
AcDbEntity
  8
0
100
AcDbLine
 62
7
  6
BYLAYER
 10
34.4508983114
 20
98.3434377066
 11
34.4508983114
 21
95.159076189
  0
LINE
  5
247
100
AcDbEntity
  8
0
100
AcDbLine
 62
7
  6
BYLAYER
 10
34.720963065
 20
83.2485712119
 11
34.720963065
 21
91.0839482467
  0
LINE
  5
248
100
AcDbEntity
  8
0
100
AcDbLine
 62
7
  6
BYLAYER
 10
34.720963065
 20
89.5177379913
 11
33.584657692
 21
88.8616956943
  0
LINE
  5
249
100
AcDbEntity
  8
0
100
AcDbLine
 62
7
  6
BYLAYER
 10
26.4411099991
 20
84.3475697852
 11
30.25947072
 21
86.5520882161
  0
LINE
  5
24A
100
AcDbEntity
  8
0
100
AcDbLine
 62
7
  6
BYLAYER
 10
24.2092688156
 20
85.7215937135
 11
24.2468198668
 21
85.7333317612
  0
LINE
  5
24B
100
AcDbEntity
  8
0
100
AcDbLine
 62
7
  6
BYLAYER
 10
33.0637383309
 20
82.2917447093
 11
34.7209773836
 21
83.2485464112
  0
LINE
  5
24C
100
AcDbEntity
  8
0
100
AcDbLine
 62
7
  6
BYLAYER
 10
39.9789190741
 20
85.0756015443
 11
37.3789071167
 21
83.5744438435
  0
LINE
  5
24D
100
AcDbEntity
  8
0
100
AcDbLine
 62
7
  6
BYLAYER
 10
42.7368624096
 20
86.4560712989
 11
42.7722185068
 21
86.4764840293
  0
LINE
  5
24E
100
AcDbEntity
  8
0
100
AcDbLine
 62
7
  6
BYLAYER
 10
40.0789212184
 20
84.9023977016
 11
37.4789075331
 21
83.4012390032
  0
LINE
  5
24F
100
AcDbEntity
  8
0
100
AcDbLine
 62
7
  6
BYLAYER
 10
42.7368624096
 20
86.4560712989
 11
42.7368624096
 21
78.6206942641
  0
LINE
  5
250
100
AcDbEntity
  8
0
100
AcDbLine
 62
7
  6
BYLAYER
 10
43.077637547
 20
90.096890493
 11
43.077637547
 21
93.3629001615
  0
LINE
  5
251
100
AcDbEntity
  8
0
100
AcDbLine
 62
7
  6
BYLAYER
 10
53.1539193355
 20
87.4637246207
 11
70.5486737309
 21
97.5065308059
  0
LINE
  5
252
100
AcDbEntity
  8
0
100
AcDbLine
 62
7
  6
BYLAYER
 10
53.1539193355
 20
84.8917420067
 11
49.3355586145
 21
82.6872235758
  0
LINE
  5
253
100
AcDbEntity
  8
0
100
AcDbLine
 62
7
  6
BYLAYER
 10
46.5552231305
 20
80.825212695
 11
42.7368624096
 21
78.6206942641
  0
LINE
  5
254
100
AcDbEntity
  8
0
100
AcDbLine
 62
7
  6
BYLAYER
 10
46.5552231305
 20
84.2924147016
 11
46.5552231305
 21
80.825212695
  0
LINE
  5
255
100
AcDbEntity
  8
0
100
AcDbLine
 62
7
  6
BYLAYER
 10
49.1410716453
 20
80.1764114175
 11
51.5098892245
 21
81.5440407208
  0
LINE
  5
256
100
AcDbEntity
  8
0
100
AcDbLine
 62
7
  6
BYLAYER
 10
51.5098892245
 20
81.2480283983
 11
49.1410716453
 21
79.8803990949
  0
LINE
  5
257
100
AcDbEntity
  8
0
100
AcDbLine
 62
7
  6
BYLAYER
 10
54.9216936483
 20
81.8298840776
 11
56.7765286758
 21
82.9007671877
  0
LINE
  5
258
100
AcDbEntity
  8
0
100
AcDbLine
 62
7
  6
BYLAYER
 10
44.3940871437
 20
75.7503127592
 11
48.2124478647
 21
77.9548311901
  0
LINE
  5
259
100
AcDbEntity
  8
0
100
AcDbLine
 62
7
  6
BYLAYER
 10
37.4737342755
 20
83.4101992984
 11
37.3847574039
 21
83.5643109053
  0
LINE
  5
25A
100
AcDbEntity
  8
0
100
AcDbLine
 62
7
  6
BYLAYER
 10
37.7324590353
 20
83.7785659205
 11
37.8324594517
 21
83.6053610801
  0
LINE
  5
25B
100
AcDbEntity
  8
0
100
AcDbLine
 62
7
  6
BYLAYER
 10
39.9840911991
 20
85.066643417
 11
40.0730680708
 21
84.9125318101
  0
LINE
  5
25C
100
AcDbEntity
  8
0
100
AcDbLine
 62
7
  6
BYLAYER
 10
49.1410716453
 20
80.1764114175
 11
49.1410716453
 21
79.8803990949
  0
LINE
  5
25D
100
AcDbEntity
  8
0
100
AcDbLine
 62
7
  6
BYLAYER
 10
49.3355586145
 20
111.4689337796
 11
49.3355586145
 21
85.3408564315
  0
LINE
  5
25E
100
AcDbEntity
  8
0
100
AcDbLine
 62
7
  6
BYLAYER
 10
49.3355586145
 20
85.1775559481
 11
49.3355586145
 21
82.6872235758
  0
LINE
  5
25F
100
AcDbEntity
  8
0
100
AcDbLine
 62
7
  6
BYLAYER
 10
51.5098892245
 20
78.5127925672
 11
51.5098892245
 21
82.554479532
  0
LINE
  5
260
100
AcDbEntity
  8
0
100
AcDbLine
 62
7
  6
BYLAYER
 10
51.9165091113
 20
18.0815079777
 11
51.9165091113
 21
17.9182074943
  0
LINE
  5
261
100
AcDbEntity
  8
0
100
AcDbLine
 62
7
  6
BYLAYER
 10
53.1539193355
 20
84.8917420067
 11
53.1539193355
 21
87.4637246207
  0
LINE
  5
262
100
AcDbEntity
  8
0
100
AcDbLine
 62
7
  6
BYLAYER
 10
78.3268807075
 20
93.0158825062
 11
60.9321263121
 21
82.973076321
  0
LINE
  5
263
100
AcDbEntity
  8
0
100
AcDbLine
 62
7
  6
BYLAYER
 10
58.6693751916
 20
77.4615767728
 11
54.9216936483
 21
75.2978647406
  0
LINE
  5
264
100
AcDbEntity
  8
0
100
AcDbLine
 62
7
  6
BYLAYER
 10
60.9321263121
 20
64.5201216938
 11
60.8852781009
 21
64.5471689093
  0
LINE
  5
265
100
AcDbEntity
  8
0
100
AcDbLine
 62
7
  6
BYLAYER
 10
24.2092688156
 20
85.7215937135
 11
24.1624206044
 21
85.7486409289
  0
LINE
  5
266
100
AcDbEntity
  8
0
100
AcDbLine
 62
7
  6
BYLAYER
 10
53.5782157878
 20
18.4285425702
 11
53.5782157878
 21
17.2854391863
  0
LINE
  5
267
100
AcDbEntity
  8
0
100
AcDbLine
 62
7
  6
BYLAYER
 10
53.5782157878
 20
17.1221387028
 11
53.5782157878
 21
15.9790353189
  0
LINE
  5
268
100
AcDbEntity
  8
0
100
AcDbLine
 62
7
  6
BYLAYER
 10
53.790346939
 20
17.4079124324
 11
53.790346939
 21
17.244611949
  0
LINE
  5
269
100
AcDbEntity
  8
0
100
AcDbLine
 62
7
  6
BYLAYER
 10
54.1438988576
 20
18.1019526861
 11
54.1438988576
 21
16.3056306419
  0
LINE
  5
26A
100
AcDbEntity
  8
0
100
AcDbLine
 62
7
  6
BYLAYER
 10
54.2146145404
 20
15.6116186398
 11
54.2146145404
 21
16.7547220238
  0
LINE
  5
26B
100
AcDbEntity
  8
0
100
AcDbLine
 62
7
  6
BYLAYER
 10
54.2146145404
 20
16.9180225072
 11
54.2146145404
 21
18.0611258912
  0
LINE
  5
26C
100
AcDbEntity
  8
0
100
AcDbLine
 62
7
  6
BYLAYER
 10
54.9216936483
 20
81.8298840776
 11
54.9216936483
 21
75.2978647406
  0
LINE
  5
26D
100
AcDbEntity
  8
0
100
AcDbLine
 62
7
  6
BYLAYER
 10
55.5934796821
 20
15.7953555708
 11
55.5934796821
 21
15.9586560542
  0
LINE
  5
26E
100
AcDbEntity
  8
0
100
AcDbLine
 62
7
  6
BYLAYER
 10
57.1137655911
 20
62.2737785746
 11
57.1137655911
 21
11.365852434
  0
LINE
  5
26F
100
AcDbEntity
  8
0
100
AcDbLine
 62
7
  6
BYLAYER
 10
51.0167154755
 20
70.1591583326
 11
54.8350761965
 21
72.3636767635
  0
LINE
  5
270
100
AcDbEntity
  8
0
100
AcDbLine
 62
7
  6
BYLAYER
 10
58.6693751916
 20
73.1341887416
 11
58.6693751916
 21
79.6662080786
  0
LINE
  5
271
100
AcDbEntity
  8
0
100
AcDbLine
 62
7
  6
BYLAYER
 10
60.8614159284
 20
64.4374725901
 11
60.8614159284
 21
13.5295464496
  0
LINE
  5
272
100
AcDbEntity
  8
0
100
AcDbLine
 62
7
  6
BYLAYER
 10
60.9321263121
 20
64.5201216938
 11
60.9321263121
 21
82.973076321
  0
LINE
  5
273
100
AcDbEntity
  8
0
100
AcDbLine
 62
7
  6
BYLAYER
 10
61.0028366958
 20
13.6111952803
 11
61.0028366958
 21
64.5609461092
  0
LINE
  5
274
100
AcDbEntity
  8
0
100
AcDbLine
 62
7
  6
BYLAYER
 10
34.720963065
 20
91.0839482467
 11
42.7368624096
 21
86.4560712989
  0
LINE
  5
275
100
AcDbEntity
  8
0
100
AcDbLine
 62
7
  6
BYLAYER
 10
49.3355586145
 20
82.6872235758
 11
28.1222668601
 21
94.9344462114
  0
LINE
  5
276
100
AcDbEntity
  8
0
100
AcDbLine
 62
7
  6
BYLAYER
 10
28.1222668601
 20
97.4247785837
 11
49.3355586145
 21
85.1775559481
  0
LINE
  5
277
100
AcDbEntity
  8
0
100
AcDbLine
 62
7
  6
BYLAYER
 10
49.3355586145
 20
85.3408564315
 11
28.1222668601
 21
97.5880790671
  0
LINE
  5
278
100
AcDbEntity
  8
0
100
AcDbLine
 62
7
  6
BYLAYER
 10
34.3801879277
 20
95.1182517736
 11
43.077637547
 21
90.096890493
  0
LINE
  5
279
100
AcDbEntity
  8
0
100
AcDbLine
 62
7
  6
BYLAYER
 10
34.4508983114
 20
95.159076189
 11
43.077637547
 21
90.1785386439
  0
LINE
  5
27A
100
AcDbEntity
  8
0
100
AcDbLine
 62
7
  6
BYLAYER
 10
65.1322284272
 20
123.3444910594
 11
65.1322284272
 21
124.7368515118
  0
LINE
  5
27B
100
AcDbEntity
  8
0
100
AcDbLine
 62
7
  6
BYLAYER
 10
66.9565563272
 20
123.9573946527
 11
66.9565563272
 21
125.7901214287
  0
LINE
  5
27C
100
AcDbEntity
  8
0
100
AcDbLine
 62
7
  6
BYLAYER
 10
66.9565862379
 20
121.6423780941
 11
66.9565862379
 21
119.111220601
  0
LINE
  5
27D
100
AcDbEntity
  8
0
100
AcDbLine
 62
7
  6
BYLAYER
 10
60.8323135842
 20
64.5165900138
 11
60.8852781009
 21
64.5471689093
  0
LINE
  5
27E
100
AcDbEntity
  8
0
100
AcDbLine
 62
7
  6
BYLAYER
 10
61.0028366958
 20
64.5609461092
 11
60.9321263121
 21
64.5201216938
  0
LINE
  5
27F
100
AcDbEntity
  8
0
100
AcDbLine
 62
7
  6
BYLAYER
 10
57.1137655911
 20
62.2737785746
 11
60.8614159284
 21
64.4374725901
  0
LINE
  5
280
100
AcDbEntity
  8
0
100
AcDbLine
 62
7
  6
BYLAYER
 10
60.9321263121
 20
82.973076321
 11
53.1539193355
 21
87.4637246207
  0
LINE
  5
281
100
AcDbEntity
  8
0
100
AcDbLine
 62
7
  6
BYLAYER
 10
28.1222668601
 20
101.9154289744
 11
24.1624206044
 21
104.201595556
  0
LINE
  5
282
100
AcDbEntity
  8
0
100
AcDbLine
 62
7
  6
BYLAYER
 10
43.077637547
 20
93.3629001615
 11
34.3801879277
 21
98.3842614421
  0
LINE
  5
283
100
AcDbEntity
  8
0
100
AcDbLine
 62
7
  6
BYLAYER
 10
68.90000274
 20
121.1850921324
 11
68.90000274
 21
122.8180969666
  0
LINE
  5
284
100
AcDbEntity
  8
0
100
AcDbLine
 62
7
  6
BYLAYER
 10
70.5486737309
 20
97.5065308059
 11
70.5486737309
 21
121.1851009027
  0
LINE
  5
285
100
AcDbEntity
  8
0
100
AcDbLine
 62
7
  6
BYLAYER
 10
22.00576656
 20
35.5133888756
 11
21.8643457926
 21
35.4317400448
  0
LINE
  5
286
100
AcDbEntity
  8
0
100
AcDbLine
 62
7
  6
BYLAYER
 10
22.1471909489
 20
35.4317393138
 11
21.8643457926
 21
35.2684395614
  0
LINE
  5
287
100
AcDbEntity
  8
0
100
AcDbLine
 62
7
  6
BYLAYER
 10
23.5260524691
 20
34.6356712534
 11
23.7381836202
 21
34.7581444995
  0
LINE
  5
288
100
AcDbEntity
  8
0
100
AcDbLine
 62
7
  6
BYLAYER
 10
23.7381836202
 20
34.5948440161
 11
23.5260524691
 21
34.4723707699
  0
LINE
  5
289
100
AcDbEntity
  8
0
100
AcDbLine
 62
7
  6
BYLAYER
 10
24.2092688156
 20
85.7215937135
 11
24.2477943324
 21
85.7313070878
  0
LINE
  5
28A
100
AcDbEntity
  8
0
100
AcDbLine
 62
7
  6
BYLAYER
 10
24.1624512217
 20
34.1049540909
 11
24.3038756106
 21
34.1866050125
  0
LINE
  5
28B
100
AcDbEntity
  8
0
100
AcDbLine
 62
7
  6
BYLAYER
 10
24.0917355388
 20
33.6558627091
 11
23.5260524691
 21
33.329267386
  0
LINE
  5
28C
100
AcDbEntity
  8
0
100
AcDbLine
 62
7
  6
BYLAYER
 10
78.3268807075
 20
23.6131770502
 11
78.3268807075
 21
93.0158825062
  0
LINE
  5
28D
100
AcDbEntity
  8
0
100
AcDbLine
 62
7
  6
BYLAYER
 10
78.3268807075
 20
93.0158825062
 11
70.5486737309
 21
97.5065308059
  0
LINE
  5
28E
100
AcDbEntity
  8
0
100
AcDbLine
 62
7
  6
BYLAYER
 10
28.1222668601
 20
123.7161564152
 11
49.3355586145
 21
111.4689337796
  0
LINE
  5
28F
100
AcDbEntity
  8
0
100
AcDbLine
 62
7
  6
BYLAYER
 10
52.0579298787
 20
18.1631568085
 11
51.9165091113
 21
18.0815079777
  0
LINE
  5
290
100
AcDbEntity
  8
0
100
AcDbLine
 62
7
  6
BYLAYER
 10
52.1993542676
 20
18.0815072466
 11
51.9165091113
 21
17.9182074943
  0
LINE
  5
291
100
AcDbEntity
  8
0
100
AcDbLine
 62
7
  6
BYLAYER
 10
53.5782157878
 20
17.2854391863
 11
53.790346939
 21
17.4079124324
  0
LINE
  5
292
100
AcDbEntity
  8
0
100
AcDbLine
 62
7
  6
BYLAYER
 10
53.790346939
 20
17.244611949
 11
53.5782157878
 21
17.1221387028
  0
LINE
  5
293
100
AcDbEntity
  8
0
100
AcDbLine
 62
7
  6
BYLAYER
 10
54.2146145404
 20
16.7547220238
 11
54.3560389293
 21
16.8363729454
  0
LINE
  5
294
100
AcDbEntity
  8
0
100
AcDbLine
 62
7
  6
BYLAYER
 10
54.1438988576
 20
16.3056306419
 11
53.5782157878
 21
15.9790353189
  0
LINE
  5
295
100
AcDbEntity
  8
0
100
AcDbLine
 62
7
  6
BYLAYER
 10
45.7432944835
 20
133.8896007297
 11
47.5676375744
 21
132.8363395831
  0
LINE
  5
296
100
AcDbEntity
  8
0
100
AcDbLine
 62
7
  6
BYLAYER
 10
65.132243147
 20
122.6956392408
 11
66.9565862379
 21
121.6423780941
  0
LINE
  5
297
100
AcDbEntity
  8
0
100
AcDbLine
 62
7
  6
BYLAYER
 10
70.5486737309
 20
121.1851009027
 11
68.90000274
 21
122.1369400096
  0
LINE
  5
298
100
AcDbEntity
  8
0
100
AcDbLine
 62
7
  6
BYLAYER
 10
66.9565563272
 20
125.7901214287
 11
52.9274993803
 21
133.8896179984
  0
LINE
  5
299
100
AcDbEntity
  8
0
100
AcDbLine
 62
7
  6
BYLAYER
 10
78.3268807075
 20
23.6131770502
 11
61.0028366958
 21
13.6111952803
  0
LINE
  5
29A
100
AcDbEntity
  8
0
100
AcDbLine
 62
7
  6
BYLAYER
 10
60.8614159284
 20
13.5295464496
 11
57.1137655911
 21
11.365852434
  0
LINE
  5
29B
100
AcDbEntity
  8
0
100
AcDbLine
 62
7
  6
BYLAYER
 10
76.2054161096
 20
132.8199412782
 11
76.2053793537
 21
132.8199618626
  0
ARC
  5
29C
100
AcDbEntity
  8
0
100
AcDbCircle
 62
7
  6
BYLAYER
 10
71.9233285269
 20
29.7580137721
 40
5.9718469315
100
AcDbArc
 50
113.7558787652
 51
117.098831642
  0
ARC
  5
29D
100
AcDbEntity
  8
0
100
AcDbCircle
 62
7
  6
BYLAYER
 10
69.760819274
 20
26.081959044
 40
5.9288105327
100
AcDbArc
 50
182.8511256982
 51
185.4785115766
  0
ARC
  5
29E
100
AcDbEntity
  8
0
100
AcDbCircle
 62
7
  6
BYLAYER
 10
69.5137117381
 20
26.0590846461
 40
5.6806479506
100
AcDbArc
 50
185.4868028556
 51
186.077579952
  0
ARC
  5
29F
100
AcDbEntity
  8
0
100
AcDbCircle
 62
7
  6
BYLAYER
 10
41.3740853023
 20
85.7509392432
 40
4.5492945134
100
AcDbArc
 50
208.3850484409
 51
208.7280057637
  0
ARC
  5
2A0
100
AcDbEntity
  8
0
100
AcDbCircle
 62
7
  6
BYLAYER
 10
41.3319634479
 20
85.7534885328
 40
4.5140820531
100
AcDbArc
 50
211.27233485
 51
211.8017771966
  0
ARC
  5
2A1
100
AcDbEntity
  8
0
100
AcDbCircle
 62
7
  6
BYLAYER
 10
52.1769682707
 20
16.4146129467
 40
3.0830620986
100
AcDbArc
 50
50.2736764211
 51
53.5297751736
  0
ARC
  5
2A2
100
AcDbEntity
  8
0
100
AcDbCircle
 62
7
  6
BYLAYER
 10
22.124804952
 20
33.7648450138
 40
3.0830620986
100
AcDbArc
 50
50.2736764211
 51
53.5297751736
  0
ARC
  5
2A3
100
AcDbEntity
  8
0
100
AcDbCircle
 62
7
  6
BYLAYER
 10
52.7329927731
 20
15.850670106
 40
2.8622815844
100
AcDbArc
 50
3.2952324888
 51
5.6190391909
  0
ARC
  5
2A4
100
AcDbEntity
  8
0
100
AcDbCircle
 62
7
  6
BYLAYER
 10
22.6808294544
 20
33.2009021731
 40
2.8622815844
100
AcDbArc
 50
3.2952324888
 51
5.6190391908
  0
ARC
  5
2A5
100
AcDbEntity
  8
0
100
AcDbCircle
 62
7
  6
BYLAYER
 10
52.9234806128
 20
15.8624264918
 40
2.6714330446
100
AcDbArc
 50
1.8773953941
 51
3.2783419876
  0
ARC
  5
2A6
100
AcDbEntity
  8
0
100
AcDbCircle
 62
7
  6
BYLAYER
 10
22.871317294
 20
33.2126585589
 40
2.6714330447
100
AcDbArc
 50
1.8773953941
 51
3.2783419876
  0
ARC
  5
2A7
100
AcDbEntity
  8
0
100
AcDbCircle
 62
7
  6
BYLAYER
 10
24.1106052062
 20
35.3471423288
 40
2.2475409208
100
AcDbArc
 50
175.0118153655
 51
178.0650712183
  0
ARC
  5
2A8
100
AcDbEntity
  8
0
100
AcDbCircle
 62
7
  6
BYLAYER
 10
54.1627685249
 20
17.9969102617
 40
2.2475409208
100
AcDbArc
 50
175.0118153656
 51
178.0650712182
  0
ARC
  5
2A9
100
AcDbEntity
  8
0
100
AcDbCircle
 62
7
  6
BYLAYER
 10
78.0022016906
 20
134.1883190903
 40
1.7008900432
100
AcDbArc
 50
297.0327969693
 51
298.1957301519
  0
ARC
  5
2AA
100
AcDbEntity
  8
0
100
AcDbCircle
 62
7
  6
BYLAYER
 10
78.0266066955
 20
134.1429926212
 40
1.6494110752
100
AcDbArc
 50
298.1924998161
 51
299.9941610987
  0
ARC
  5
2AB
100
AcDbEntity
  8
0
100
AcDbCircle
 62
7
  6
BYLAYER
 10
78.2244368748
 20
131.7269189688
 40
1.0833547952
100
AcDbArc
 50
60.0114058371
 51
62.5543640991
  0
ARC
  5
2AC
100
AcDbEntity
  8
0
100
AcDbCircle
 62
7
  6
BYLAYER
 10
24.7032529365
 20
32.8858761523
 40
0.8850129516
100
AcDbArc
 50
290.1038186472
 51
291.0058804515
  0
ARC
  5
2AD
100
AcDbEntity
  8
0
100
AcDbCircle
 62
7
  6
BYLAYER
 10
54.7554162552
 20
15.5356440852
 40
0.8850129516
100
AcDbArc
 50
290.1038186472
 51
291.0058804515
  0
ARC
  5
2AE
100
AcDbEntity
  8
0
100
AcDbCircle
 62
7
  6
BYLAYER
 10
24.5629861154
 20
32.7975473924
 40
0.8785331139
100
AcDbArc
 50
300.0414274617
 51
309.3548553502
  0
ARC
  5
2AF
100
AcDbEntity
  8
0
100
AcDbCircle
 62
7
  6
BYLAYER
 10
54.6151494342
 20
15.4473153252
 40
0.8785331139
100
AcDbArc
 50
300.0414274617
 51
309.3548553501
  0
ARC
  5
2B0
100
AcDbEntity
  8
0
100
AcDbCircle
 62
7
  6
BYLAYER
 10
52.8925360849
 20
18.4318703528
 40
0.8753702465
100
AcDbArc
 50
110.0931608765
 51
119.9870134397
  0
ARC
  5
2B1
100
AcDbEntity
  8
0
100
AcDbCircle
 62
7
  6
BYLAYER
 10
22.8403727661
 20
35.7821024199
 40
0.8753702465
100
AcDbArc
 50
110.0931608765
 51
119.9870134397
  0
ARC
  5
2B2
100
AcDbEntity
  8
0
100
AcDbCircle
 62
7
  6
BYLAYER
 10
37.8660443867
 20
85.7329099135
 40
0.8742529875
100
AcDbArc
 50
110.1449723488
 51
119.9981287144
  0
ARC
  5
2B3
100
AcDbEntity
  8
0
100
AcDbCircle
 62
7
  6
BYLAYER
 10
39.6962943257
 20
104.9385956872
 40
0.8512545569
100
AcDbArc
 50
290.0582834824
 51
291.3854890798
  0
ARC
  5
2B4
100
AcDbEntity
  8
0
100
AcDbCircle
 62
7
  6
BYLAYER
 10
39.5554873452
 20
104.8506681633
 40
0.8453781848
100
AcDbArc
 50
300.0554455183
 51
309.5534797242
  0
ARC
  5
2B5
100
AcDbEntity
  8
0
100
AcDbCircle
 62
7
  6
BYLAYER
 10
37.8989930124
 20
107.7213206694
 40
0.8402276285
100
AcDbArc
 50
110.151315915
 51
119.9951528606
  0
ARC
  5
2B6
100
AcDbEntity
  8
0
100
AcDbCircle
 62
7
  6
BYLAYER
 10
50.6666686921
 20
132.9589749639
 40
0.6686940304
100
AcDbArc
 50
0.9424276772
 51
6.9216427729
  0
ARC
  5
2B7
100
AcDbEntity
  8
0
100
AcDbCircle
 62
7
  6
BYLAYER
 10
61.0172613504
 20
64.5436195067
 40
0.1885602383
100
AcDbArc
 50
205.035434072
 51
214.2589278992
  0
SPLINE
  5
2B8
100
AcDbEntity
  8
0
100
AcDbSpline
 62
7
  6
BYLAYER
 70
0
 71
3
 72
9
 73
5
 74
0
 42
0.0000001
 43
0.0000001
 44
0.0000000001
 40
0.0
 40
0.0
 40
0.0
 40
0.0
 40
0.2049697501
 40
1.0
 40
1.0
 40
1.0
 40
1.0
 10
24.0917102207
 20
85.6659918251
 30
0.0
 10
24.0962235348
 20
85.6674226126
 30
0.0
 10
24.118095382
 20
85.6748663128
 30
0.0
 10
24.1394894826
 20
85.6836529948
 30
0.0
 10
24.1563142083
 20
85.6910144677
 30
0.0
  0
SPLINE
  5
2B9
100
AcDbEntity
  8
0
100
AcDbSpline
 62
7
  6
BYLAYER
 70
0
 71
3
 72
17
 73
13
 74
0
 42
0.0000001
 43
0.0000001
 44
0.0000000001
 40
0.0
 40
0.0
 40
0.0
 40
0.0
 40
0.0432238441
 40
0.0890272303
 40
0.1384448956
 40
0.1920272943
 40
0.3117686901
 40
0.4461304322
 40
0.5894209977
 40
0.7343625138
 40
0.8734128745
 40
1.0
 40
1.0
 40
1.0
 40
1.0
 10
37.6095340573
 20
108.5101146736
 30
0.0
 10
37.6749767358
 20
108.5341420748
 30
0.0
 10
37.8163094733
 20
108.5670778484
 30
0.0
 10
38.0410813825
 20
108.5688911282
 30
0.0
 10
38.2783113892
 20
108.5249069125
 30
0.0
 10
38.6175524033
 20
108.4029082115
 30
0.0
 10
39.043462439
 20
108.1378116709
 30
0.0
 10
39.5099439993
 20
107.6935064423
 30
0.0
 10
39.9178513254
 20
107.1435466892
 30
0.0
 10
40.236480615
 20
106.5290634343
 30
0.0
 10
40.4420577106
 20
105.8964776639
 30
0.0
 10
40.4966870502
 20
105.4675524046
 30
0.0
 10
40.4966870502
 20
105.2633847339
 30
0.0
  0
SPLINE
  5
2BA
100
AcDbEntity
  8
0
100
AcDbSpline
 62
7
  6
BYLAYER
 70
0
 71
3
 72
11
 73
7
 74
0
 42
0.0000001
 43
0.0000001
 44
0.0000000001
 40
0.0
 40
0.0
 40
0.0
 40
0.0
 40
0.2895453772
 40
0.5491366158
 40
0.7822776227
 40
1.0
 40
1.0
 40
1.0
 40
1.0
 10
51.5098892245
 20
78.5127925672
 30
0.0
 10
51.5098892245
 20
78.4279708583
 30
0.0
 10
51.496937458
 20
78.2665678191
 30
0.0
 10
51.4316892069
 20
78.0447688373
 30
0.0
 10
51.321616365
 20
77.86475186
 30
0.0
 10
51.2181780164
 20
77.7779523123
 30
0.0
 10
51.1629422821
 20
77.746060786
 30
0.0
  0
SPLINE
  5
2BB
100
AcDbEntity
  8
0
100
AcDbSpline
 62
7
  6
BYLAYER
 70
0
 71
3
 72
11
 73
7
 74
0
 42
0.0000001
 43
0.0000001
 44
0.0000000001
 40
0.0
 40
0.0
 40
0.0
 40
0.0
 40
0.2896413964
 40
0.5491107671
 40
0.7822355978
 40
1.0
 40
1.0
 40
1.0
 40
1.0
 10
58.6693751916
 20
73.1341887416
 30
0.0
 10
58.6693751916
 20
72.9999471195
 30
0.0
 10
58.6489704154
 20
72.7445877794
 30
0.0
 10
58.5456167725
 20
72.3937322534
 30
0.0
 10
58.3715179461
 20
72.1089630995
 30
0.0
 10
58.2078911374
 20
71.9715960902
 30
0.0
 10
58.1205047175
 20
71.9210969987
 30
0.0
  0
SPLINE
  5
2BC
100
AcDbEntity
  8
0
100
AcDbSpline
 62
7
  6
BYLAYER
 70
0
 71
3
 72
11
 73
7
 74
0
 42
0.0000001
 43
0.0000001
 44
0.0000000001
 40
0.0
 40
0.0
 40
0.0
 40
0.0
 40
0.2896413964
 40
0.5491107671
 40
0.7822355978
 40
1.0
 40
1.0
 40
1.0
 40
1.0
 10
30.1728532682
 20
89.5862911488
 30
0.0
 10
30.1728532682
 20
89.4520495266
 30
0.0
 10
30.152448492
 20
89.1966901866
 30
0.0
 10
30.0490948491
 20
88.8458346605
 30
0.0
 10
29.8749960226
 20
88.5610655067
 30
0.0
 10
29.711369214
 20
88.4236984974
 30
0.0
 10
29.6239827941
 20
88.3731994059
 30
0.0
  0
SPLINE
  5
2BD
100
AcDbEntity
  8
0
100
AcDbSpline
 62
7
  6
BYLAYER
 70
0
 71
3
 72
9
 73
5
 74
0
 42
0.0000001
 43
0.0000001
 44
0.0000000001
 40
0.0
 40
0.0
 40
0.0
 40
0.0
 40
0.5502228324
 40
1.0
 40
1.0
 40
1.0
 40
1.0
 10
49.3355586145
 20
85.3408564315
 30
0.0
 10
49.3438190855
 20
85.3456255882
 30
0.0
 10
49.3603460532
 20
85.3524269771
 30
0.0
 10
49.3788144515
 20
85.3497242801
 30
0.0
 10
49.3855658626
 20
85.3458238956
 30
0.0
  0
SPLINE
  5
2BE
100
AcDbEntity
  8
0
100
AcDbSpline
 62
7
  6
BYLAYER
 70
0
 71
3
 72
13
 73
9
 74
0
 42
0.0000001
 43
0.0000001
 44
0.0000000001
 40
0.0
 40
0.0
 40
0.0
 40
0.0
 40
0.1142249338
 40
0.2375584468
 40
0.4999994088
 40
0.7624406902
 40
0.885774603
 40
1.0
 40
1.0
 40
1.0
 40
1.0
 10
51.1031714803
 20
132.8363480814
 30
0.0
 10
50.9821877931
 20
132.7664985341
 30
0.0
 10
50.7175074929
 20
132.6432810749
 30
0.0
 10
50.131004663
 20
132.4650853916
 30
0.0
 10
49.3354075141
 20
132.3785795513
 30
0.0
 10
48.5398094982
 20
132.4650816223
 30
0.0
 10
47.9533043118
 20
132.6432744732
 30
0.0
 10
47.6886222558
 20
132.7664906249
 30
0.0
 10
47.5676375744
 20
132.8363395831
 30
0.0
  0
SPLINE
  5
2BF
100
AcDbEntity
  8
0
100
AcDbSpline
 62
7
  6
BYLAYER
 70
0
 71
3
 72
9
 73
5
 74
0
 42
0.0000001
 43
0.0000001
 44
0.0000000001
 40
0.0
 40
0.0
 40
0.0
 40
0.0
 40
0.2567322476
 40
1.0
 40
1.0
 40
1.0
 40
1.0
 10
65.132243147
 20
122.6956392408
 30
0.0
 10
65.1116482197
 20
122.7075294586
 30
0.0
 10
65.0321462204
 20
122.7550668445
 30
0.0
 10
64.9555809816
 20
122.8075777447
 30
0.0
 10
64.9009984989
 20
122.8495398141
 30
0.0
  0
SPLINE
  5
2C0
100
AcDbEntity
  8
0
100
AcDbSpline
 62
7
  6
BYLAYER
 70
0
 71
3
 72
11
 73
7
 74
0
 42
0.0000001
 43
0.0000001
 44
0.0000000001
 40
0.0
 40
0.0
 40
0.0
 40
0.0
 40
0.2812990789
 40
0.5376342416
 40
0.7743036255
 40
1.0
 40
1.0
 40
1.0
 40
1.0
 10
64.9009984989
 20
122.8495398141
 30
0.0
 10
64.8240435886
 20
122.9087014192
 30
0.0
 10
64.6851554595
 20
123.0333598463
 30
0.0
 10
64.5233521939
 20
123.2484915768
 30
0.0
 10
64.4230440024
 20
123.4780408307
 30
0.0
 10
64.4000151929
 20
123.6383686529
 30
0.0
 10
64.4000152147
 20
123.7162496254
 30
0.0
  0
SPLINE
  5
2C1
100
AcDbEntity
  8
0
100
AcDbSpline
 62
7
  6
BYLAYER
 70
0
 71
3
 72
11
 73
7
 74
0
 42
0.0000001
 43
0.0000001
 44
0.0000000001
 40
0.0
 40
0.0
 40
0.0
 40
0.0
 40
0.2858898121
 40
0.5458450837
 40
0.7815844197
 40
1.0
 40
1.0
 40
1.0
 40
1.0
 10
40.4966870502
 20
105.2633847339
 30
0.0
 10
40.4966870502
 20
105.1516056998
 30
0.0
 10
40.4814970256
 20
104.9376705745
 30
0.0
 10
40.4062384637
 20
104.6395041047
 30
0.0
 10
40.2798992745
 20
104.3876595018
 30
0.0
 10
40.1596821089
 20
104.2532181337
 30
0.0
 10
40.0938226308
 20
104.1988557703
 30
0.0
  0
SPLINE
  5
2C2
100
AcDbEntity
  8
0
100
AcDbSpline
 62
7
  6
BYLAYER
 70
0
 71
3
 72
17
 73
13
 74
0
 42
0.0000001
 43
0.0000001
 44
0.0000000001
 40
0.0
 40
0.0
 40
0.0
 40
0.0
 40
0.0430435172
 40
0.0884530403
 40
0.1373829725
 40
0.1904839185
 40
0.3095185212
 40
0.4437118401
 40
0.5873447427
 40
0.7329638781
 40
0.8727815217
 40
1.0
 40
1.0
 40
1.0
 40
1.0
 10
51.3304892075
 20
133.0395605066
 30
0.0
 10
51.3237384005
 20
133.0951816456
 30
0.0
 10
51.2952872614
 20
133.2080962426
 30
0.0
 10
51.2128053407
 20
133.3682236396
 30
0.0
 10
51.0921026886
 20
133.5188612283
 30
0.0
 10
50.8762169249
 20
133.7107710843
 30
0.0
 10
50.5235185086
 20
133.9065814545
 30
0.0
 10
50.0268967616
 20
134.0584830249
 30
0.0
 10
49.477195287
 20
134.125883395
 30
0.0
 10
48.9166131914
 20
134.1034542339
 30
0.0
 10
48.3884196177
 20
133.9931794952
 30
0.0
 10
48.064590896
 20
133.8580779612
 30
0.0
 10
47.9211777171
 20
133.7752788179
 30
0.0
  0
SPLINE
  5
2C3
100
AcDbEntity
  8
0
100
AcDbSpline
 62
7
  6
BYLAYER
 70
0
 71
3
 72
9
 73
5
 74
0
 42
0.0000001
 43
0.0000001
 44
0.0000000001
 40
0.0
 40
0.0
 40
0.0
 40
0.0
 40
0.4995463565
 40
1.0
 40
1.0
 40
1.0
 40
1.0
 10
28.1222668601
 20
97.4247785837
 30
0.0
 10
28.143236504
 20
97.4368853409
 30
0.0
 10
28.176420734
 20
97.4751321283
 30
0.0
 10
28.1929772438
 20
97.5229956405
 30
0.0
 10
28.1929772438
 20
97.5472532408
 30
0.0
  0
SPLINE
  5
2C4
100
AcDbEntity
  8
0
100
AcDbSpline
 62
7
  6
BYLAYER
 70
0
 71
3
 72
11
 73
7
 74
0
 42
0.0000001
 43
0.0000001
 44
0.0000000001
 40
0.0
 40
0.0
 40
0.0
 40
0.0
 40
0.2231013618
 40
0.4586241994
 40
0.7159445774
 40
1.0
 40
1.0
 40
1.0
 40
1.0
 10
26.974042199
 20
99.4950782277
 30
0.0
 10
27.050718335
 20
99.5393880325
 30
0.0
 10
27.2233877309
 20
99.6064191833
 30
0.0
 10
27.5097993515
 20
99.6302669744
 30
0.0
 10
27.8166344695
 20
99.5805025503
 30
0.0
 10
28.0190582828
 20
99.5044935447
 30
0.0
 10
28.1212019808
 20
99.4567436874
 30
0.0
  0
SPLINE
  5
2C5
100
AcDbEntity
  8
0
100
AcDbSpline
 62
7
  6
BYLAYER
 70
0
 71
3
 72
17
 73
13
 74
0
 42
0.0000001
 43
0.0000001
 44
0.0000000001
 40
0.0
 40
0.0
 40
0.0
 40
0.0
 40
0.042857965
 40
0.0874854797
 40
0.1353180708
 40
0.1872814984
 40
0.3045423159
 40
0.4382097446
 40
0.5825520305
 40
0.7297107839
 40
0.8713099826
 40
1.0
 40
1.0
 40
1.0
 40
1.0
 10
55.4705641224
 20
83.0429758205
 30
0.0
 10
55.5358780628
 20
83.0807196101
 30
0.0
 10
55.6799017135
 20
83.140548833
 30
0.0
 10
55.9176087649
 20
83.1754130789
 30
0.0
 10
56.1728955627
 20
83.1566012186
 30
0.0
 10
56.5438293652
 20
83.0579679944
 30
0.0
 10
57.0180116561
 20
82.7986840563
 30
0.0
 10
57.5419049794
 20
82.3347271589
 30
0.0
 10
58.0050055806
 20
81.7419805178
 30
0.0
 10
58.369484612
 20
81.068325714
 30
0.0
 10
58.6060014613
 20
80.3690039441
 30
0.0
 10
58.6693751916
 20
79.892718766
 30
0.0
 10
58.6693751916
 20
79.6662080786
 30
0.0
  0
SPLINE
  5
2C6
100
AcDbEntity
  8
0
100
AcDbSpline
 62
7
  6
BYLAYER
 70
0
 71
3
 72
10
 73
6
 74
0
 42
0.0000001
 43
0.0000001
 44
0.0000000001
 40
0.0
 40
0.0
 40
0.0
 40
0.0
 40
0.5248281856
 40
0.7717243616
 40
1.0
 40
1.0
 40
1.0
 40
1.0
 10
51.1536986803
 20
83.7377108551
 30
0.0
 10
51.2640082373
 20
83.5494095783
 30
0.0
 10
51.3967373355
 20
83.2527757422
 30
0.0
 10
51.492126447
 20
82.847201856
 30
0.0
 10
51.5098892245
 20
82.6494005758
 30
0.0
 10
51.5098892245
 20
82.554479532
 30
0.0
  0
SPLINE
  5
2C7
100
AcDbEntity
  8
0
100
AcDbSpline
 62
7
  6
BYLAYER
 70
0
 71
3
 72
11
 73
7
 74
0
 42
0.0000001
 43
0.0000001
 44
0.0000000001
 40
0.0
 40
0.0
 40
0.0
 40
0.0
 40
0.2871466534
 40
0.54704674
 40
0.7819875018
 40
1.0
 40
1.0
 40
1.0
 40
1.0
 10
65.4857832897
 20
123.6345784757
 30
0.0
 10
65.4051589741
 20
123.5880302832
 30
0.0
 10
65.2577047454
 20
123.4877507197
 30
0.0
 10
65.0767034606
 20
123.3076876603
 30
0.0
 10
64.9532282177
 20
123.1094764814
 30
0.0
 10
64.9127144503
 20
122.9656314607
 30
0.0
 10
64.9045482729
 20
122.8954221973
 30
0.0
  0
SPLINE
  5
2C8
100
AcDbEntity
  8
0
100
AcDbSpline
 62
7
  6
BYLAYER
 70
0
 71
3
 72
9
 73
5
 74
0
 42
0.0000001
 43
0.0000001
 44
0.0000000001
 40
0.0
 40
0.0
 40
0.0
 40
0.0
 40
0.2598086755
 40
1.0
 40
1.0
 40
1.0
 40
1.0
 10
76.3290098109
 20
132.7607441584
 30
0.0
 10
76.3145884196
 20
132.7717009618
 30
0.0
 10
76.260021559
 20
132.8150803075
 30
0.0
 10
76.209338337
 20
132.8634774513
 30
0.0
 10
76.1751938967
 20
132.9021642694
 30
0.0
  0
SPLINE
  5
2C9
100
AcDbEntity
  8
0
100
AcDbSpline
 62
7
  6
BYLAYER
 70
0
 71
3
 72
9
 73
5
 74
0
 42
0.0000001
 43
0.0000001
 44
0.0000000001
 40
0.0
 40
0.0
 40
0.0
 40
0.0
 40
0.5234199209
 40
1.0
 40
1.0
 40
1.0
 40
1.0
 10
76.1751938967
 20
132.9021642694
 30
0.0
 10
76.1211640878
 20
132.9633818899
 30
0.0
 10
76.0324461002
 20
133.0955257221
 30
0.0
 10
75.9985539724
 20
133.2527334045
 30
0.0
 10
75.9985575139
 20
133.3270772317
 30
0.0
  0
SPLINE
  5
2CA
100
AcDbEntity
  8
0
100
AcDbSpline
 62
7
  6
BYLAYER
 70
0
 71
3
 72
9
 73
5
 74
0
 42
0.0000001
 43
0.0000001
 44
0.0000000001
 40
0.0
 40
0.0
 40
0.0
 40
0.0
 40
0.499998676
 40
1.0
 40
1.0
 40
1.0
 40
1.0
 10
61.0028366958
 20
13.6111952803
 30
0.0
 10
60.981848289
 20
13.6233126685
 30
0.0
 10
60.9321260571
 20
13.6329081835
 30
0.0
 10
60.8824037702
 20
13.6233125441
 30
0.0
 10
60.8614153396
 20
13.6111949404
 30
0.0
  0
SPLINE
  5
2CB
100
AcDbEntity
  8
0
100
AcDbSpline
 62
7
  6
BYLAYER
 70
0
 71
3
 72
11
 73
7
 74
0
 42
0.0000001
 43
0.0000001
 44
0.0000000001
 40
0.0
 40
0.0
 40
0.0
 40
0.0
 40
0.2222543714
 40
0.4573048447
 40
0.7149781861
 40
1.0
 40
1.0
 40
1.0
 40
1.0
 10
79.2406900543
 20
133.3270772335
 30
0.0
 10
79.2406874243
 20
133.2718668728
 30
0.0
 10
79.2228113308
 20
133.1576045898
 30
0.0
 10
79.1448147904
 20
132.9957242802
 30
0.0
 10
79.0200757611
 20
132.8461413978
 30
0.0
 10
78.9141668652
 20
132.7613779746
 30
0.0
 10
78.8556479546
 20
132.7215216571
 30
0.0
  0
SPLINE
  5
2CC
100
AcDbEntity
  8
0
100
AcDbSpline
 62
7
  6
BYLAYER
 70
0
 71
3
 72
9
 73
5
 74
0
 42
0.0000001
 43
0.0000001
 44
0.0000000001
 40
0.0
 40
0.0
 40
0.0
 40
0.0
 40
0.2432127936
 40
1.0
 40
1.0
 40
1.0
 40
1.0
 10
60.8323129773
 20
64.5165957357
 30
0.0
 10
60.8325714376
 20
64.5121595358
 30
0.0
 10
60.8347099074
 20
64.493984782
 30
0.0
 10
60.8405827714
 20
64.476360889
 30
0.0
 10
60.8464170537
 20
64.4638248341
 30
0.0
  0
SPLINE
  5
2CD
100
AcDbEntity
  8
0
100
AcDbSpline
 62
7
  6
BYLAYER
 70
0
 71
3
 72
11
 73
7
 74
0
 42
0.0000001
 43
0.0000001
 44
0.0000000001
 40
0.0
 40
0.0
 40
0.0
 40
0.0
 40
0.2897033281
 40
0.5490895198
 40
0.7822165953
 40
1.0
 40
1.0
 40
1.0
 40
1.0
 10
34.720963065
 20
83.2485712119
 30
0.0
 10
34.720963065
 20
83.1298223118
 30
0.0
 10
34.7029589847
 20
82.9039870715
 30
0.0
 10
34.6114984218
 20
82.5937012859
 30
0.0
 10
34.4575092092
 20
82.341921918
 30
0.0
 10
34.3128665981
 20
82.2203210661
 30
0.0
 10
34.2355572062
 20
82.1756867685
 30
0.0
  0
SPLINE
  5
2CE
100
AcDbEntity
  8
0
100
AcDbSpline
 62
7
  6
BYLAYER
 70
0
 71
3
 72
11
 73
7
 74
0
 42
0.0000001
 43
0.0000001
 44
0.0000000001
 40
0.0
 40
0.0
 40
0.0
 40
0.0
 40
0.2838153987
 40
0.5431037559
 40
0.7796640765
 40
1.0
 40
1.0
 40
1.0
 40
1.0
 10
25.5413163633
 20
33.15429835
 30
0.0
 10
25.5376226216
 20
33.0455362481
 30
0.0
 10
25.5160851741
 20
32.8374266874
 30
0.0
 10
25.4345088656
 20
32.5479693571
 30
0.0
 10
25.3052207257
 20
32.3030550081
 30
0.0
 10
25.1854211446
 20
32.1717949626
 30
0.0
 10
25.1200828179
 20
32.1182361998
 30
0.0
  0
SPLINE
  5
2CF
100
AcDbEntity
  8
0
100
AcDbSpline
 62
7
  6
BYLAYER
 70
0
 71
3
 72
10
 73
6
 74
0
 42
0.0000001
 43
0.0000001
 44
0.0000000001
 40
0.0
 40
0.0
 40
0.0
 40
0.0
 40
0.2813661141
 40
0.5415155854
 40
1.0
 40
1.0
 40
1.0
 40
1.0
 10
40.5673980227
 20
83.1769953959
 30
0.0
 10
40.5673980227
 20
83.0782754231
 30
0.0
 10
40.5557008582
 20
82.887769363
 30
0.0
 10
40.4847447566
 20
82.5439320497
 30
0.0
 10
40.3700178837
 20
82.3093024033
 30
0.0
 10
40.2661383964
 20
82.1864767005
 30
0.0
  0
SPLINE
  5
2D0
100
AcDbEntity
  8
0
100
AcDbSpline
 62
7
  6
BYLAYER
 70
0
 71
3
 72
9
 73
5
 74
0
 42
0.0000001
 43
0.0000001
 44
0.0000000001
 40
0.0
 40
0.0
 40
0.0
 40
0.0
 40
0.2548241123
 40
1.0
 40
1.0
 40
1.0
 40
1.0
 10
40.2661383964
 20
82.1864767005
 30
0.0
 10
40.249081255
 20
82.1663085669
 30
0.0
 10
40.1789791638
 20
82.0899083126
 30
0.0
 10
40.0957606001
 20
82.0254412159
 30
0.0
 10
40.0288828536
 20
81.9867932292
 30
0.0
  0
SPLINE
  5
2D1
100
AcDbEntity
  8
0
100
AcDbSpline
 62
7
  6
BYLAYER
 70
0
 71
3
 72
10
 73
6
 74
0
 42
0.0000001
 43
0.0000001
 44
0.0000000001
 40
0.0
 40
0.0
 40
0.0
 40
0.0
 40
0.5248929657
 40
0.7712499801
 40
1.0
 40
1.0
 40
1.0
 40
1.0
 10
40.0730680708
 20
84.9125318101
 30
0.0
 10
40.2261316333
 20
84.6332799662
 30
0.0
 10
40.4105908776
 20
84.1975386737
 30
0.0
 10
40.543093267
 20
83.60432966
 30
0.0
 10
40.5673980227
 20
83.3157766728
 30
0.0
 10
40.5673980227
 20
83.1769953959
 30
0.0
  0
SPLINE
  5
2D2
100
AcDbEntity
  8
0
100
AcDbSpline
 62
7
  6
BYLAYER
 70
0
 71
3
 72
11
 73
7
 74
0
 42
0.0000001
 43
0.0000001
 44
0.0000000001
 40
0.0
 40
0.0
 40
0.0
 40
0.0
 40
0.2838153987
 40
0.5431037559
 40
0.7796640765
 40
1.0
 40
1.0
 40
1.0
 40
1.0
 10
55.5934796821
 20
15.8040662829
 30
0.0
 10
55.5897859403
 20
15.695304181
 30
0.0
 10
55.5682484928
 20
15.4871946202
 30
0.0
 10
55.4866721844
 20
15.19773729
 30
0.0
 10
55.3573840445
 20
14.952822941
 30
0.0
 10
55.2375844634
 20
14.8215628955
 30
0.0
 10
55.1722461367
 20
14.7680041327
 30
0.0
  0
SPLINE
  5
2D3
100
AcDbEntity
  8
0
100
AcDbSpline
 62
7
  6
BYLAYER
 70
0
 71
3
 72
20
 73
16
 74
0
 42
0.0000001
 43
0.0000001
 44
0.0000000001
 40
0.0
 40
0.0
 40
0.0
 40
0.0
 40
0.0428306571
 40
0.0874316002
 40
0.1352354498
 40
0.1871656343
 40
0.2436367502
 40
0.3046201263
 40
0.3697441081
 40
0.4383815497
 40
0.582632984
 40
0.7296940657
 40
0.8711905272
 40
0.937600178
 40
1.0
 40
1.0
 40
1.0
 40
1.0
 10
78.155176954
 20
135.9747604295
 30
0.0
 10
78.3030940865
 20
136.0601584179
 30
0.0
 10
78.6291480095
 20
136.1957035152
 30
0.0
 10
79.1674026017
 20
136.2745931151
 30
0.0
 10
79.7453939583
 20
136.2320040124
 30
0.0
 10
80.350319537
 20
136.071341786
 30
0.0
 10
80.9702660115
 20
135.7973364577
 30
0.0
 10
81.5928793913
 20
135.416394
 30
0.0
 10
82.2056404588
 20
134.9367623684
 30
0.0
 10
83.0051856849
 20
134.1665258389
 30
0.0
 10
83.8937691216
 20
133.0286204063
 30
0.0
 10
84.7185704426
 20
131.5043452834
 30
0.0
 10
85.1750483679
 20
130.1549207397
 30
0.0
 10
85.3640021882
 20
129.092056229
 30
0.0
 10
85.397801321
 20
128.5780277245
 30
0.0
 10
85.397801321
 20
128.3291913254
 30
0.0
  0
SPLINE
  5
2D4
100
AcDbEntity
  8
0
100
AcDbSpline
 62
7
  6
BYLAYER
 70
0
 71
3
 72
11
 73
7
 74
0
 42
0.0000001
 43
0.0000001
 44
0.0000000001
 40
0.0
 40
0.0
 40
0.0
 40
0.0
 40
0.282634474
 40
0.5394036608
 40
0.7755535633
 40
1.0
 40
1.0
 40
1.0
 40
1.0
 10
69.5176261129
 20
35.2238670146
 30
0.0
 10
69.7848167822
 20
35.3412349854
 30
0.0
 10
70.3136468519
 20
35.5265361031
 30
0.0
 10
71.1126817389
 20
35.6392830656
 30
0.0
 10
71.8577829327
 20
35.5664450498
 30
0.0
 10
72.3072749552
 20
35.3888159435
 30
0.0
 10
72.5079908914
 20
35.2729648607
 30
0.0
  0
SPLINE
  5
2D5
100
AcDbEntity
  8
0
100
AcDbSpline
 62
7
  6
BYLAYER
 70
0
 71
3
 72
11
 73
7
 74
0
 42
0.0000001
 43
0.0000001
 44
0.0000000001
 40
0.0
 40
0.0
 40
0.0
 40
0.0
 40
0.2114851069
 40
0.4448316696
 40
0.7073181094
 40
1.0
 40
1.0
 40
1.0
 40
1.0
 10
52.5918047403
 20
19.2539614224
 30
0.0
 10
52.6922906444
 20
19.2907355206
 30
0.0
 10
52.9190280492
 20
19.3292412136
 30
0.0
 10
53.2775575919
 20
19.2795940028
 30
0.0
 10
53.6515553677
 20
19.1325889729
 30
0.0
 10
53.8904484729
 20
18.981900256
 30
0.0
 10
54.0095556812
 20
18.8939062506
 30
0.0
  0
SPLINE
  5
2D6
100
AcDbEntity
  8
0
100
AcDbSpline
 62
7
  6
BYLAYER
 70
0
 71
3
 72
9
 73
5
 74
0
 42
0.0000001
 43
0.0000001
 44
0.0000000001
 40
0.0
 40
0.0
 40
0.0
 40
0.0
 40
0.2433399789
 40
1.0
 40
1.0
 40
1.0
 40
1.0
 10
54.1474187352
 20
18.7858145136
 30
0.0
 10
54.1823740619
 20
18.7568076325
 30
0.0
 10
54.3235229545
 20
18.6346101842
 30
0.0
 10
54.4548138256
 20
18.5011426835
 30
0.0
 10
54.5484205218
 20
18.3953728144
 30
0.0
  0
SPLINE
  5
2D7
100
AcDbEntity
  8
0
100
AcDbSpline
 62
7
  6
BYLAYER
 70
0
 71
3
 72
11
 73
7
 74
0
 42
0.0000001
 43
0.0000001
 44
0.0000000001
 40
0.0
 40
0.0
 40
0.0
 40
0.0
 40
0.2548802316
 40
0.5135284572
 40
0.7650784736
 40
1.0
 40
1.0
 40
1.0
 40
1.0
 10
54.5484205218
 20
18.3953728144
 30
0.0
 10
54.6905853723
 20
18.2347351865
 30
0.0
 10
54.9517056474
 20
17.8879571181
 30
0.0
 10
55.2623426499
 20
17.3215100332
 30
0.0
 10
55.4818158853
 20
16.7316908761
 30
0.0
 10
55.5621865475
 20
16.3276929503
 30
0.0
 10
55.5815208615
 20
16.1309264145
 30
0.0
  0
SPLINE
  5
2D8
100
AcDbEntity
  8
0
100
AcDbSpline
 62
7
  6
BYLAYER
 70
0
 71
3
 72
14
 73
10
 74
0
 42
0.0000001
 43
0.0000001
 44
0.0000000001
 40
0.0
 40
0.0
 40
0.0
 40
0.0
 40
0.0918236271
 40
0.1914257361
 40
0.301671218
 40
0.4235307828
 40
0.5563673064
 40
0.6985305174
 40
1.0
 40
1.0
 40
1.0
 40
1.0
 10
37.5649545443
 20
86.5536797917
 30
0.0
 10
37.6521358687
 20
86.5856729519
 30
0.0
 10
37.8453377795
 20
86.6235403507
 30
0.0
 10
38.1523532677
 20
86.5991063102
 30
0.0
 10
38.4749379157
 20
86.4990998729
 30
0.0
 10
38.8036003832
 20
86.3276832435
 30
0.0
 10
39.1292501258
 20
86.0908336537
 30
0.0
 10
39.5539437187
 20
85.689835041
 30
0.0
 10
39.8258198784
 20
85.3272383438
 30
0.0
 10
39.9840911991
 20
85.066643417
 30
0.0
  0
SPLINE
  5
2D9
100
AcDbEntity
  8
0
100
AcDbSpline
 62
7
  6
BYLAYER
 70
0
 71
3
 72
11
 73
7
 74
0
 42
0.0000001
 43
0.0000001
 44
0.0000000001
 40
0.0
 40
0.0
 40
0.0
 40
0.0
 40
0.2114851069
 40
0.4448316696
 40
0.7073181094
 40
1.0
 40
1.0
 40
1.0
 40
1.0
 10
22.5396414215
 20
36.6041934895
 30
0.0
 10
22.6401273257
 20
36.6409675877
 30
0.0
 10
22.8668647304
 20
36.6794732807
 30
0.0
 10
23.2253942731
 20
36.6298260699
 30
0.0
 10
23.599392049
 20
36.48282104
 30
0.0
 10
23.8382851542
 20
36.3321323232
 30
0.0
 10
23.9573923624
 20
36.2441383177
 30
0.0
  0
SPLINE
  5
2DA
100
AcDbEntity
  8
0
100
AcDbSpline
 62
7
  6
BYLAYER
 70
0
 71
3
 72
9
 73
5
 74
0
 42
0.0000001
 43
0.0000001
 44
0.0000000001
 40
0.0
 40
0.0
 40
0.0
 40
0.0
 40
0.2433399789
 40
1.0
 40
1.0
 40
1.0
 40
1.0
 10
24.0952554164
 20
36.1360465807
 30
0.0
 10
24.1302107432
 20
36.1070396997
 30
0.0
 10
24.2713596357
 20
35.9848422514
 30
0.0
 10
24.4026505068
 20
35.8513747506
 30
0.0
 10
24.496257203
 20
35.7456048815
 30
0.0
  0
SPLINE
  5
2DB
100
AcDbEntity
  8
0
100
AcDbSpline
 62
7
  6
BYLAYER
 70
0
 71
3
 72
11
 73
7
 74
0
 42
0.0000001
 43
0.0000001
 44
0.0000000001
 40
0.0
 40
0.0
 40
0.0
 40
0.0
 40
0.2548802316
 40
0.5135284572
 40
0.7650784736
 40
1.0
 40
1.0
 40
1.0
 40
1.0
 10
24.496257203
 20
35.7456048815
 30
0.0
 10
24.6384220535
 20
35.5849672536
 30
0.0
 10
24.8995423287
 20
35.2381891852
 30
0.0
 10
25.2101793312
 20
34.6717421004
 30
0.0
 10
25.4296525666
 20
34.0819229432
 30
0.0
 10
25.5100232288
 20
33.6779250175
 30
0.0
 10
25.5293575427
 20
33.4811584816
 30
0.0
  0
SPLINE
  5
2DC
100
AcDbEntity
  8
0
100
AcDbSpline
 62
7
  6
BYLAYER
 70
0
 71
3
 72
11
 73
7
 74
0
 42
0.0000001
 43
0.0000001
 44
0.0000000001
 40
0.0
 40
0.0
 40
0.0
 40
0.0
 40
0.2242521616
 40
0.4603184852
 40
0.7172211228
 40
1.0
 40
1.0
 40
1.0
 40
1.0
 10
65.3200051771
 20
22.8227267463
 30
0.0
 10
65.118124012
 20
22.9392503867
 30
0.0
 10
64.7375203877
 20
23.2420271804
 30
0.0
 10
64.3003868554
 20
23.8558333247
 30
0.0
 10
63.9988845557
 20
24.6104159266
 30
0.0
 10
63.8961162043
 20
25.165367793
 30
0.0
 10
63.864992156
 20
25.4576461855
 30
0.0
  0
SPLINE
  5
2DD
100
AcDbEntity
  8
0
100
AcDbSpline
 62
7
  6
BYLAYER
 70
0
 71
3
 72
15
 73
11
 74
0
 42
0.0000001
 43
0.0000001
 44
0.0000000001
 40
0.0
 40
0.0
 40
0.0
 40
0.0
 40
0.11415277
 40
0.2373224585
 40
0.3669712759
 40
0.4999936133
 40
0.6330176716
 40
0.7626670726
 40
0.8858481117
 40
1.0
 40
1.0
 40
1.0
 40
1.0
 10
63.8312941911
 20
25.4504220398
 30
0.0
 10
63.8312901849
 20
25.8975799304
 30
0.0
 10
63.913185416
 20
26.8280853772
 30
0.0
 10
64.2396715126
 20
28.23186637
 30
0.0
 10
64.7627062322
 20
29.6537896162
 30
0.0
 10
65.4627199495
 20
31.0404047031
 30
0.0
 10
66.3135325082
 20
32.3399581763
 30
0.0
 10
67.2834175016
 20
33.503968803
 30
0.0
 10
68.335922418
 20
34.4886289518
 30
0.0
 10
69.1008350626
 20
35.0248484604
 30
0.0
 10
69.4880827424
 20
35.2484246779
 30
0.0
  0
SPLINE
  5
2DE
100
AcDbEntity
  8
0
100
AcDbSpline
 62
7
  6
BYLAYER
 70
0
 71
3
 72
17
 73
13
 74
0
 42
0.0000001
 43
0.0000001
 44
0.0000000001
 40
0.0
 40
0.0
 40
0.0
 40
0.0
 40
0.0428571351
 40
0.0874839364
 40
0.1353160071
 40
0.1872791416
 40
0.3045400115
 40
0.4382081091
 40
0.5825513186
 40
0.7297108723
 40
0.8713103985
 40
1.0
 40
1.0
 40
1.0
 40
1.0
 10
68.8999669647
 20
122.8180970307
 30
0.0
 10
68.8999898356
 20
122.8750283055
 30
0.0
 10
68.8847460019
 20
122.9917377845
 30
0.0
 10
68.8178321687
 20
123.1602572508
 30
0.0
 10
68.7092011843
 20
123.3200118448
 30
0.0
 10
68.5047569891
 20
123.5252319512
 30
0.0
 10
68.1563481271
 20
123.7373119695
 30
0.0
 10
67.6554050996
 20
123.9046486453
 30
0.0
 10
67.0932252704
 20
123.9836525357
 30
0.0
 10
66.5153800855
 20
123.9676671486
 30
0.0
 10
65.9690480831
 20
123.8583611792
 30
0.0
 10
65.6338312891
 20
123.7200535177
 30
0.0
 10
65.4857832897
 20
123.6345784757
 30
0.0
  0
SPLINE
  5
2DF
100
AcDbEntity
  8
0
100
AcDbSpline
 62
7
  6
BYLAYER
 70
0
 71
3
 72
11
 73
7
 74
0
 42
0.0000001
 43
0.0000001
 44
0.0000000001
 40
0.0
 40
0.0
 40
0.0
 40
0.0
 40
0.2896428702
 40
0.5491125874
 40
0.7822368
 40
1.0
 40
1.0
 40
1.0
 40
1.0
 10
47.9211777171
 20
133.7752788179
 30
0.0
 10
47.8334394211
 20
133.7246233915
 30
0.0
 10
47.6742402078
 20
133.6149289773
 30
0.0
 10
47.4839263143
 20
133.41498638
 30
0.0
 10
47.363500797
 20
133.1937438154
 30
0.0
 10
47.3354635421
 20
133.0349664683
 30
0.0
 10
47.3354329427
 20
132.9587972448
 30
0.0
  0
SPLINE
  5
2E0
100
AcDbEntity
  8
0
100
AcDbSpline
 62
7
  6
BYLAYER
 70
0
 71
3
 72
11
 73
7
 74
0
 42
0.0000001
 43
0.0000001
 44
0.0000000001
 40
0.0
 40
0.0
 40
0.0
 40
0.0
 40
0.2599720169
 40
0.5221470549
 40
0.771511589
 40
1.0
 40
1.0
 40
1.0
 40
1.0
 10
76.8664837167
 20
132.5779032488
 30
0.0
 10
77.0194224469
 20
132.6418493951
 30
0.0
 10
77.3349444764
 20
132.7513554003
 30
0.0
 10
77.8200809838
 20
132.8455019452
 30
0.0
 10
78.2958441748
 20
132.8434983065
 30
0.0
 10
78.5944790838
 20
132.7555156185
 30
0.0
 10
78.7237624459
 20
132.6883406174
 30
0.0
  0
SPLINE
  5
2E1
100
AcDbEntity
  8
0
100
AcDbSpline
 62
7
  6
BYLAYER
 70
0
 71
3
 72
9
 73
5
 74
0
 42
0.0000001
 43
0.0000001
 44
0.0000000001
 40
0.0
 40
0.0
 40
0.0
 40
0.0
 40
0.2388487723
 40
1.0
 40
1.0
 40
1.0
 40
1.0
 10
76.2054161096
 20
132.8199412782
 30
0.0
 10
76.2250124238
 20
132.8086275969
 30
0.0
 10
76.3079219194
 20
132.7627627207
 30
0.0
 10
76.3938860514
 20
132.7225138811
 30
0.0
 10
76.460359658
 20
132.6945681832
 30
0.0
  0
SPLINE
  5
2E2
100
AcDbEntity
  8
0
100
AcDbSpline
 62
7
  6
BYLAYER
 70
0
 71
3
 72
11
 73
7
 74
0
 42
0.0000001
 43
0.0000001
 44
0.0000000001
 40
0.0
 40
0.0
 40
0.0
 40
0.0
 40
0.255891839
 40
0.5190768124
 40
0.769734066
 40
1.0
 40
1.0
 40
1.0
 40
1.0
 10
76.460359658
 20
132.6945681832
 30
0.0
 10
76.6472630954
 20
132.6159934334
 30
0.0
 10
77.0443426913
 20
132.4981270507
 30
0.0
 10
77.6530111952
 20
132.4265468563
 30
0.0
 10
78.2450555953
 20
132.4705942605
 30
0.0
 10
78.612748623
 20
132.5903295833
 30
0.0
 10
78.7752569822
 20
132.6732572251
 30
0.0
  0
SPLINE
  5
2E3
100
AcDbEntity
  8
0
100
AcDbSpline
 62
7
  6
BYLAYER
 70
0
 71
3
 72
12
 73
8
 74
0
 42
0.0000001
 43
0.0000001
 44
0.0000000001
 40
0.0
 40
0.0
 40
0.0
 40
0.0
 40
0.2895543751
 40
0.5486508264
 40
0.7816328335
 40
0.8918400056
 40
1.0
 40
1.0
 40
1.0
 40
1.0
 10
85.397801321
 20
128.3291913254
 30
0.0
 10
85.397801321
 20
128.0251052292
 30
0.0
 10
85.3516717398
 20
127.4468721001
 30
0.0
 10
85.1179744699
 20
126.6528216729
 30
0.0
 10
84.7818455201
 20
126.105065943
 30
0.0
 10
84.4426552803
 20
125.7712633505
 30
0.0
 10
84.2534798019
 20
125.6393043571
 30
0.0
 10
84.1551089863
 20
125.5825112755
 30
0.0
  0
SPLINE
  5
2E4
100
AcDbEntity
  8
0
100
AcDbSpline
 62
7
  6
BYLAYER
 70
0
 71
3
 72
9
 73
5
 74
0
 42
0.0000001
 43
0.0000001
 44
0.0000000001
 40
0.0
 40
0.0
 40
0.0
 40
0.0
 40
0.4785013153
 40
1.0
 40
1.0
 40
1.0
 40
1.0
 10
30.25947072
 20
86.5520882161
 30
0.0
 10
30.9913301637
 20
86.5349520848
 30
0.0
 10
32.518983389
 20
86.3288547936
 30
0.0
 10
33.9808369128
 20
85.853376203
 30
0.0
 10
34.7198061893
 20
85.5525840404
 30
0.0
  0
SPLINE
  5
2E5
100
AcDbEntity
  8
0
100
AcDbSpline
 62
7
  6
BYLAYER
 70
0
 71
3
 72
9
 73
5
 74
0
 42
0.0000001
 43
0.0000001
 44
0.0000000001
 40
0.0
 40
0.0
 40
0.0
 40
0.0
 40
0.4896960303
 40
1.0
 40
1.0
 40
1.0
 40
1.0
 10
24.2468198668
 20
85.7333317612
 30
0.0
 10
25.1956082643
 20
86.0287144196
 30
0.0
 10
27.1889760756
 20
86.4628080092
 30
0.0
 10
29.2241159699
 20
86.5707867666
 30
0.0
 10
30.25947072
 20
86.5520882161
 30
0.0
  0
SPLINE
  5
2E6
100
AcDbEntity
  8
0
100
AcDbSpline
 62
7
  6
BYLAYER
 70
0
 71
3
 72
26
 73
22
 74
0
 42
0.0000001
 43
0.0000001
 44
0.0000000001
 40
0.0
 40
0.0
 40
0.0
 40
0.0
 40
0.0603499581
 40
0.1143433928
 40
0.1629025115
 40
0.1858700663
 40
0.2084120864
 40
0.2309540951
 40
0.2539219974
 40
0.2777010972
 40
0.3026123477
 40
0.3566030169
 40
0.4169552596
 40
0.4835115176
 40
0.5553250071
 40
0.6309160839
 40
0.7084740452
 40
0.7860329906
 40
0.861624351
 40
0.9334443695
 40
1.0
 40
1.0
 40
1.0
 40
1.0
 10
69.4880827424
 20
35.2484246779
 30
0.0
 10
69.8392224128
 20
35.451154051
 30
0.0
 10
70.537617916
 20
35.7834104105
 30
0.0
 10
71.6103098483
 20
36.0428017531
 30
0.0
 10
72.4668102715
 20
36.0200342092
 30
0.0
 10
73.078445008
 20
35.8506748145
 30
0.0
 10
73.4945627449
 20
35.655890884
 30
0.0
 10
73.871295534
 20
35.392945425
 30
0.0
 10
74.2045697562
 20
35.0649566913
 30
0.0
 10
74.4911624465
 20
34.6757692722
 30
0.0
 10
74.8160364617
 20
34.064820337
 30
0.0
 10
75.0837990707
 20
33.1581688001
 30
0.0
 10
75.180499228
 20
31.9401978089
 30
0.0
 10
75.0630051109
 20
30.6049635775
 30
0.0
 10
74.7364791697
 20
29.2008472937
 30
0.0
 10
74.2134540655
 20
27.7790255736
 30
0.0
 10
73.5134371908
 20
26.3923870863
 30
0.0
 10
72.6626263221
 20
25.0928450377
 30
0.0
 10
71.6927428093
 20
23.9288362568
 30
0.0
 10
70.6402402166
 20
22.9441796982
 30
0.0
 10
69.8753294434
 20
22.4079616564
 30
0.0
 10
69.4880827424
 20
22.1843860039
 30
0.0
  0
SPLINE
  5
2E7
100
AcDbEntity
  8
0
100
AcDbSpline
 62
7
  6
BYLAYER
 70
0
 71
3
 72
18
 73
14
 74
0
 42
0.0000001
 43
0.0000001
 44
0.0000000001
 40
0.0
 40
0.0
 40
0.0
 40
0.0
 40
0.144739745
 40
0.2742344201
 40
0.3906957692
 40
0.4457798011
 40
0.4998432418
 40
0.553906635
 40
0.6089914418
 40
0.6660217507
 40
0.7257673176
 40
0.8552550753
 40
1.0
 40
1.0
 40
1.0
 40
1.0
 10
69.4880827424
 20
22.1843860039
 30
0.0
 10
69.1369438766
 20
21.9816570954
 30
0.0
 10
68.4385499618
 20
21.6494013428
 30
0.0
 10
67.3658605063
 20
21.3900097112
 30
0.0
 10
66.5093618082
 20
21.412775754
 30
0.0
 10
65.8977278596
 20
21.5821331938
 30
0.0
 10
65.4816104925
 20
21.7769154676
 30
0.0
 10
65.104877742
 20
22.0398585842
 30
0.0
 10
64.7716034331
 20
22.3678462299
 30
0.0
 10
64.4850096969
 20
22.757026528
 30
0.0
 10
64.1601374149
 20
23.3679972732
 30
0.0
 10
63.8923478086
 20
24.2744208405
 30
0.0
 10
63.8312978239
 20
25.0449478978
 30
0.0
 10
63.8312941911
 20
25.4504220398
 30
0.0
  0
SPLINE
  5
2E8
100
AcDbEntity
  8
0
100
AcDbSpline
 62
7
  6
BYLAYER
 70
0
 71
3
 72
11
 73
7
 74
0
 42
0.0000001
 43
0.0000001
 44
0.0000000001
 40
0.0
 40
0.0
 40
0.0
 40
0.0
 40
0.2896413964
 40
0.5491107671
 40
0.7822355978
 40
1.0
 40
1.0
 40
1.0
 40
1.0
 10
36.9611384244
 20
107.3045885065
 30
0.0
 10
36.9611384244
 20
107.4312315462
 30
0.0
 10
36.9803882133
 20
107.672136584
 30
0.0
 10
37.07789165
 20
108.0031323633
 30
0.0
 10
37.2421358259
 20
108.2717825085
 30
0.0
 10
37.3965007397
 20
108.4013740267
 30
0.0
 10
37.4789407585
 20
108.449014679
 30
0.0
  0
SPLINE
  5
2E9
100
AcDbEntity
  8
0
100
AcDbSpline
 62
7
  6
BYLAYER
 70
0
 71
3
 72
12
 73
8
 74
0
 42
0.0000001
 43
0.0000001
 44
0.0000000001
 40
0.0
 40
0.0
 40
0.0
 40
0.0
 40
0.289568497
 40
0.5486375543
 40
0.781632668
 40
0.891836758
 40
1.0
 40
1.0
 40
1.0
 40
1.0
 10
68.9139980343
 20
23.1787243664
 30
0.0
 10
68.5984984774
 20
22.9965716995
 30
0.0
 10
67.9709846152
 20
22.6980403139
 30
0.0
 10
67.0071901782
 20
22.464958294
 30
0.0
 10
66.2375656696
 20
22.4854328018
 30
0.0
 10
65.6881015319
 20
22.637531756
 30
0.0
 10
65.4378625527
 20
22.7547007349
 30
0.0
 10
65.3200051771
 20
22.8227267463
 30
0.0
  0
SPLINE
  5
2EA
100
AcDbEntity
  8
0
100
AcDbSpline
 62
7
  6
BYLAYER
 70
0
 71
3
 72
11
 73
7
 74
0
 42
0.0000001
 43
0.0000001
 44
0.0000000001
 40
0.0
 40
0.0
 40
0.0
 40
0.0
 40
0.2472390219
 40
0.4996748053
 40
0.7522752846
 40
1.0
 40
1.0
 40
1.0
 40
1.0
 10
64.5442328132
 20
28.6966090453
 30
0.0
 10
64.8164153674
 20
28.9986199639
 30
0.0
 10
65.3331913292
 20
29.639743334
 30
0.0
 10
66.0086959024
 20
30.6784474505
 30
0.0
 10
66.5779652334
 20
31.7798587288
 30
0.0
 10
66.8804143071
 20
32.546909906
 30
0.0
 10
67.0088216962
 20
32.9335047169
 30
0.0
  0
SPLINE
  5
2EB
100
AcDbEntity
  8
0
100
AcDbSpline
 62
7
  6
BYLAYER
 70
0
 71
3
 72
17
 73
13
 74
0
 42
0.0000001
 43
0.0000001
 44
0.0000000001
 40
0.0
 40
0.0
 40
0.0
 40
0.0
 40
0.042857965
 40
0.0874854797
 40
0.1353180708
 40
0.1872814984
 40
0.3045423159
 40
0.4382097446
 40
0.5825520305
 40
0.7297107839
 40
0.8713099826
 40
1.0
 40
1.0
 40
1.0
 40
1.0
 10
39.9788847161
 20
104.1189585613
 30
0.0
 10
39.9172677913
 20
104.0833512126
 30
0.0
 10
39.7813964227
 20
104.0269085496
 30
0.0
 10
39.5571444874
 20
103.9940177515
 30
0.0
 10
39.3163078857
 20
104.0117647896
 30
0.0
 10
38.9663703362
 20
104.104815001
 30
0.0
 10
38.5190285523
 20
104.3494224898
 30
0.0
 10
38.0247895681
 20
104.787117676
 30
0.0
 10
37.5879022085
 20
105.3463126205
 30
0.0
 10
37.2440540656
 20
105.9818360204
 30
0.0
 10
37.0209249625
 20
106.6415735391
 30
0.0
 10
36.9611384244
 20
107.0908991788
 30
0.0
 10
36.9611384244
 20
107.3045885065
 30
0.0
  0
SPLINE
  5
2EC
100
AcDbEntity
  8
0
100
AcDbSpline
 62
7
  6
BYLAYER
 70
0
 71
3
 72
11
 73
7
 74
0
 42
0.0000001
 43
0.0000001
 44
0.0000000001
 40
0.0
 40
0.0
 40
0.0
 40
0.0
 40
0.2398040873
 40
0.5026001501
 40
0.7639639938
 40
1.0
 40
1.0
 40
1.0
 40
1.0
 10
34.7185397566
 20
86.8406920424
 30
0.0
 10
34.5562064925
 20
86.9424619369
 30
0.0
 10
34.2508540556
 20
87.2121704031
 30
0.0
 10
33.8951649977
 20
87.7135127603
 30
0.0
 10
33.6534517936
 20
88.2754019897
 30
0.0
 10
33.584657692
 20
88.6731098297
 30
0.0
 10
33.584657692
 20
88.8616956943
 30
0.0
  0
SPLINE
  5
2ED
100
AcDbEntity
  8
0
100
AcDbSpline
 62
7
  6
BYLAYER
 70
0
 71
3
 72
10
 73
6
 74
0
 42
0.0000001
 43
0.0000001
 44
0.0000000001
 40
0.0
 40
0.0
 40
0.0
 40
0.0
 40
0.2286333251
 40
0.475143725
 40
1.0
 40
1.0
 40
1.0
 40
1.0
 10
68.3142221903
 20
120.3686106233
 30
0.0
 10
68.2211667591
 20
120.3148853657
 30
0.0
 10
68.0180709639
 20
120.2195810364
 30
0.0
 10
67.5686614425
 20
120.079140554
 30
0.0
 10
67.2045829553
 20
120.0350725083
 30
0.0
 10
66.9579507572
 20
120.0309204644
 30
0.0
  0
SPLINE
  5
2EE
100
AcDbEntity
  8
0
100
AcDbSpline
 62
7
  6
BYLAYER
 70
0
 71
3
 72
11
 73
7
 74
0
 42
0.0000001
 43
0.0000001
 44
0.0000000001
 40
0.0
 40
0.0
 40
0.0
 40
0.0
 40
0.220438283
 40
0.4569543459
 40
0.7161445565
 40
1.0
 40
1.0
 40
1.0
 40
1.0
 10
52.4791738779
 20
19.1904949212
 30
0.0
 10
52.4142615597
 20
19.1372873251
 30
0.0
 10
52.2951441498
 20
19.0071068242
 30
0.0
 10
52.1661449538
 20
18.7642567625
 30
0.0
 10
52.0845198097
 20
18.4770222289
 30
0.0
 10
52.062958626
 20
18.2703878726
 30
0.0
 10
52.0592902084
 20
18.1623714395
 30
0.0
  0
SPLINE
  5
2EF
100
AcDbEntity
  8
0
100
AcDbSpline
 62
7
  6
BYLAYER
 70
0
 71
3
 72
17
 73
13
 74
0
 42
0.0000001
 43
0.0000001
 44
0.0000000001
 40
0.0
 40
0.0
 40
0.0
 40
0.0
 40
0.0428311829
 40
0.0873810832
 40
0.1350499951
 40
0.1867615742
 40
0.303309247
 40
0.4361901275
 40
0.5799916953
 40
0.7271654609
 40
0.8695566323
 40
1.0
 40
1.0
 40
1.0
 40
1.0
 10
55.0549659925
 20
14.6868011391
 30
0.0
 10
54.9918131491
 20
14.6503205665
 30
0.0
 10
54.8528230611
 20
14.5922297585
 30
0.0
 10
54.6235375326
 20
14.5573989593
 30
0.0
 10
54.3773088071
 20
14.5736107726
 30
0.0
 10
54.0195186125
 20
14.6653899119
 30
0.0
 10
53.5610111475
 20
14.9101619712
 30
0.0
 10
53.0521711652
 20
15.3513810804
 30
0.0
 10
52.5991113194
 20
15.9178859242
 30
0.0
 10
52.2376952664
 20
16.5651447171
 30
0.0
 10
51.9964719626
 20
17.2418826942
 30
0.0
 10
51.9237640452
 20
17.7049202205
 30
0.0
 10
51.9165091113
 20
17.9269185915
 30
0.0
  0
SPLINE
  5
2F0
100
AcDbEntity
  8
0
100
AcDbSpline
 62
7
  6
BYLAYER
 70
0
 71
3
 72
9
 73
5
 74
0
 42
0.0000001
 43
0.0000001
 44
0.0000000001
 40
0.0
 40
0.0
 40
0.0
 40
0.0
 40
0.2471980664
 40
1.0
 40
1.0
 40
1.0
 40
1.0
 10
37.4814891579
 20
86.5128078245
 30
0.0
 10
37.4680181536
 20
86.5026508985
 30
0.0
 10
37.4147044844
 20
86.4600120911
 30
0.0
 10
37.3663139461
 20
86.4112739719
 30
0.0
 10
37.3331344035
 20
86.3720462715
 30
0.0
  0
SPLINE
  5
2F1
100
AcDbEntity
  8
0
100
AcDbSpline
 62
7
  6
BYLAYER
 70
0
 71
3
 72
10
 73
6
 74
0
 42
0.0000001
 43
0.0000001
 44
0.0000000001
 40
0.0
 40
0.0
 40
0.0
 40
0.0
 40
0.458482681
 40
0.7186324824
 40
1.0
 40
1.0
 40
1.0
 40
1.0
 10
37.3331344035
 20
86.3720462715
 30
0.0
 10
37.229246151
 20
86.2492206707
 30
0.0
 10
37.1145085821
 20
86.0145843417
 30
0.0
 10
37.0435464285
 20
85.6707344679
 30
0.0
 10
37.0318482194
 20
85.4802204147
 30
0.0
 10
37.0318482194
 20
85.3814961502
 30
0.0
  0
SPLINE
  5
2F2
100
AcDbEntity
  8
0
100
AcDbSpline
 62
7
  6
BYLAYER
 70
0
 71
3
 72
14
 73
10
 74
0
 42
0.0000001
 43
0.0000001
 44
0.0000000001
 40
0.0
 40
0.0
 40
0.0
 40
0.0
 40
0.0914853086
 40
0.1890602939
 40
0.297051145
 40
0.4174041898
 40
0.5500064761
 40
0.6932436158
 40
1.0
 40
1.0
 40
1.0
 40
1.0
 10
40.0288828536
 20
81.9867932292
 30
0.0
 10
39.9459412107
 20
81.938862076
 30
0.0
 10
39.7563356654
 20
81.8687867796
 30
0.0
 10
39.4415093664
 20
81.8560206214
 30
0.0
 10
39.1052716798
 20
81.9301930244
 30
0.0
 10
38.7586551732
 20
82.0860148923
 30
0.0
 10
38.4122203661
 20
82.3172393462
 30
0.0
 10
37.9560943608
 20
82.7243694215
 30
0.0
 10
37.664822112
 20
83.1016608354
 30
0.0
 10
37.4955518802
 20
83.3746478348
 30
0.0
  0
SPLINE
  5
2F3
100
AcDbEntity
  8
0
100
AcDbSpline
 62
7
  6
BYLAYER
 70
0
 71
3
 72
11
 73
7
 74
0
 42
0.0000001
 43
0.0000001
 44
0.0000000001
 40
0.0
 40
0.0
 40
0.0
 40
0.0
 40
0.2896428702
 40
0.5491125874
 40
0.7822368
 40
1.0
 40
1.0
 40
1.0
 40
1.0
 10
68.3142221903
 20
122.0016154576
 30
0.0
 10
68.4019604863
 20
122.052270884
 30
0.0
 10
68.5611596997
 20
122.1619652982
 30
0.0
 10
68.7514735931
 20
122.3619078955
 30
0.0
 10
68.8718991104
 20
122.5831504601
 30
0.0
 10
68.8999363654
 20
122.7419278072
 30
0.0
 10
68.8999669647
 20
122.8180970307
 30
0.0
  0
SPLINE
  5
2F4
100
AcDbEntity
  8
0
100
AcDbSpline
 62
7
  6
BYLAYER
 70
0
 71
3
 72
11
 73
7
 74
0
 42
0.0000001
 43
0.0000001
 44
0.0000000001
 40
0.0
 40
0.0
 40
0.0
 40
0.0
 40
0.220438283
 40
0.4569543459
 40
0.7161445565
 40
1.0
 40
1.0
 40
1.0
 40
1.0
 10
22.4270105591
 20
36.5407269883
 30
0.0
 10
22.362098241
 20
36.4875193922
 30
0.0
 10
22.2429808311
 20
36.3573388913
 30
0.0
 10
22.1139816351
 20
36.1144888296
 30
0.0
 10
22.0323564909
 20
35.827254296
 30
0.0
 10
22.0107953073
 20
35.6206199397
 30
0.0
 10
22.0071268897
 20
35.5126035067
 30
0.0
  0
SPLINE
  5
2F5
100
AcDbEntity
  8
0
100
AcDbSpline
 62
7
  6
BYLAYER
 70
0
 71
3
 72
17
 73
13
 74
0
 42
0.0000001
 43
0.0000001
 44
0.0000000001
 40
0.0
 40
0.0
 40
0.0
 40
0.0
 40
0.0428311829
 40
0.0873810832
 40
0.1350499951
 40
0.1867615742
 40
0.303309247
 40
0.4361901275
 40
0.5799916953
 40
0.7271654609
 40
0.8695566323
 40
1.0
 40
1.0
 40
1.0
 40
1.0
 10
25.0028026738
 20
32.0370332062
 30
0.0
 10
24.9396498304
 20
32.0005526336
 30
0.0
 10
24.8006597424
 20
31.9424618256
 30
0.0
 10
24.5713742139
 20
31.9076310264
 30
0.0
 10
24.3251454884
 20
31.9238428397
 30
0.0
 10
23.9673552938
 20
32.015621979
 30
0.0
 10
23.5088478287
 20
32.2603940383
 30
0.0
 10
23.0000078464
 20
32.7016131476
 30
0.0
 10
22.5469480006
 20
33.2681179913
 30
0.0
 10
22.1855319476
 20
33.9153767842
 30
0.0
 10
21.9443086438
 20
34.5921147613
 30
0.0
 10
21.8716007264
 20
35.0551522876
 30
0.0
 10
21.8643457926
 20
35.2771506586
 30
0.0
  0
SPLINE
  5
2F6
100
AcDbEntity
  8
0
100
AcDbSpline
 62
7
  6
BYLAYER
 70
0
 71
3
 72
17
 73
13
 74
0
 42
0.0000001
 43
0.0000001
 44
0.0000000001
 40
0.0
 40
0.0
 40
0.0
 40
0.0
 40
0.1283776732
 40
0.2683184696
 40
0.413322099
 40
0.5560759428
 40
0.6896205913
 40
0.8085951172
 40
0.8618928799
 40
0.9111171843
 40
0.9568170124
 40
1.0
 40
1.0
 40
1.0
 40
1.0
 10
22.0071268897
 20
35.3493030232
 30
0.0
 10
22.0140443224
 20
35.1376320662
 30
0.0
 10
22.0817676071
 20
34.6964432197
 30
0.0
 10
22.305526562
 20
34.0493057118
 30
0.0
 10
22.6409432651
 20
33.4251724118
 30
0.0
 10
23.0638046189
 20
32.8696534311
 30
0.0
 10
23.5433374719
 20
32.4229348411
 30
0.0
 10
23.9789580186
 20
32.1578286349
 30
0.0
 10
24.3250408276
 20
32.0367228788
 30
0.0
 10
24.5670220367
 20
31.9936071139
 30
0.0
 10
24.7963088239
 20
31.9965458238
 30
0.0
 10
24.9405535497
 20
32.0302989497
 30
0.0
 10
25.0074516083
 20
32.0547858488
 30
0.0
  0
SPLINE
  5
2F7
100
AcDbEntity
  8
0
100
AcDbSpline
 62
7
  6
BYLAYER
 70
0
 71
3
 72
21
 73
17
 74
0
 42
0.0000001
 43
0.0000001
 44
0.0000000001
 40
0.0
 40
0.0
 40
0.0
 40
0.0
 40
0.0428258639
 40
0.0874195637
 40
0.1352158299
 40
0.1871401741
 40
0.2436019047
 40
0.3045761141
 40
0.3696932516
 40
0.4383203729
 40
0.5825528742
 40
0.7295922804
 40
0.8016007947
 40
0.8712151577
 40
0.9376045835
 40
1.0
 40
1.0
 40
1.0
 40
1.0
 10
72.5079908914
 20
35.2729648607
 30
0.0
 10
72.6852184212
 20
35.1706710338
 30
0.0
 10
73.0211110822
 20
34.9134930314
 30
0.0
 10
73.4254305214
 20
34.4023493397
 30
0.0
 10
73.7275169272
 20
33.7771605529
 30
0.0
 10
73.9230859483
 20
33.0532651407
 30
0.0
 10
74.0101975099
 20
32.2459286749
 30
0.0
 10
73.9879698209
 20
31.3717413796
 30
0.0
 10
73.8573010936
 20
30.4486868299
 30
0.0
 10
73.537122398
 20
29.15767173
 30
0.0
 10
72.8889134321
 20
27.5545025195
 30
0.0
 10
71.9754763846
 20
26.0682575564
 30
0.0
 10
71.106377169
 20
24.995221519
 30
0.0
 10
70.4118166851
 20
24.2820565417
 30
0.0
 10
69.6852256857
 20
23.6707258294
 30
0.0
 10
69.1721932032
 20
23.3277925268
 30
0.0
 10
68.9139980343
 20
23.1787243664
 30
0.0
  0
SPLINE
  5
2F8
100
AcDbEntity
  8
0
100
AcDbSpline
 62
7
  6
BYLAYER
 70
0
 71
3
 72
9
 73
5
 74
0
 42
0.0000001
 43
0.0000001
 44
0.0000000001
 40
0.0
 40
0.0
 40
0.0
 40
0.0
 40
0.5527438466
 40
1.0
 40
1.0
 40
1.0
 40
1.0
 10
76.2053799051
 20
132.8199621809
 30
0.0
 10
76.122502261
 20
132.8678130095
 30
0.0
 10
75.9783008343
 20
132.9652930916
 30
0.0
 10
75.8592516686
 20
133.0950862808
 30
0.0
 10
75.8186693629
 20
133.1610362237
 30
0.0
  0
SPLINE
  5
2F9
100
AcDbEntity
  8
0
100
AcDbSpline
 62
7
  6
BYLAYER
 70
0
 71
3
 72
14
 73
10
 74
0
 42
0.0000001
 43
0.0000001
 44
0.0000000001
 40
0.0
 40
0.0
 40
0.0
 40
0.0
 40
0.1092076111
 40
0.2094750459
 40
0.3101044752
 40
0.4189780507
 40
0.5408928952
 40
0.6782900931
 40
1.0
 40
1.0
 40
1.0
 40
1.0
 10
75.8186693629
 20
133.1610362237
 30
0.0
 10
75.7944942724
 20
133.2003229477
 30
0.0
 10
75.75658519
 20
133.2817879192
 30
0.0
 10
75.7401373513
 20
133.4140199014
 30
0.0
 10
75.7668300671
 20
133.5441845459
 30
0.0
 10
75.8310229003
 20
133.6699701385
 30
0.0
 10
75.928022008
 20
133.7924819287
 30
0.0
 10
76.1074608633
 20
133.9607783084
 30
0.0
 10
76.2703971453
 20
134.068563397
 30
0.0
 10
76.388080908
 20
134.1365077435
 30
0.0
  0
SPLINE
  5
2FA
100
AcDbEntity
  8
0
100
AcDbSpline
 62
7
  6
BYLAYER
 70
0
 71
3
 72
11
 73
7
 74
0
 42
0.0000001
 43
0.0000001
 44
0.0000000001
 40
0.0
 40
0.0
 40
0.0
 40
0.0
 40
0.2177843137
 40
0.4509117637
 40
0.7102976701
 40
1.0
 40
1.0
 40
1.0
 40
1.0
 10
34.2355572062
 20
82.1756867685
 30
0.0
 10
34.1582495585
 20
82.1310534778
 30
0.0
 10
33.980623219
 20
82.0665914245
 30
0.0
 10
33.685588896
 20
82.0591212123
 30
0.0
 10
33.3711514522
 20
82.1350522495
 30
0.0
 10
33.166575373
 20
82.2323730586
 30
0.0
 10
33.0637383309
 20
82.2917447093
 30
0.0
  0
SPLINE
  5
2FB
100
AcDbEntity
  8
0
100
AcDbSpline
 62
7
  6
BYLAYER
 70
0
 71
3
 72
10
 73
6
 74
0
 42
0.0000001
 43
0.0000001
 44
0.0000000001
 40
0.0
 40
0.0
 40
0.0
 40
0.0
 40
0.5248682722
 40
0.7714017575
 40
1.0
 40
1.0
 40
1.0
 40
1.0
 10
66.9517418999
 20
121.6638296163
 30
0.0
 10
67.1994687489
 20
121.6675547989
 30
0.0
 10
67.5652503667
 20
121.7113205015
 30
0.0
 10
68.0167506072
 20
121.8520110442
 30
0.0
 10
68.220772897
 20
121.947662805
 30
0.0
 10
68.3142221903
 20
122.0016154576
 30
0.0
  0
SPLINE
  5
2FC
100
AcDbEntity
  8
0
100
AcDbSpline
 62
7
  6
BYLAYER
 70
0
 71
3
 72
9
 73
5
 74
0
 42
0.0000001
 43
0.0000001
 44
0.0000000001
 40
0.0
 40
0.0
 40
0.0
 40
0.0
 40
0.5381942281
 40
1.0
 40
1.0
 40
1.0
 40
1.0
 10
47.9036296263
 20
82.6156638977
 30
0.0
 10
47.9036296263
 20
82.7621746414
 30
0.0
 10
47.931999581
 20
83.0361081501
 30
0.0
 10
48.0447764394
 20
83.2917773072
 30
0.0
 10
48.1195820161
 20
83.3928148398
 30
0.0
  0
SPLINE
  5
2FD
100
AcDbEntity
  8
0
100
AcDbSpline
 62
7
  6
BYLAYER
 70
0
 71
3
 72
11
 73
7
 74
0
 42
0.0000001
 43
0.0000001
 44
0.0000000001
 40
0.0
 40
0.0
 40
0.0
 40
0.0
 40
0.2177648073
 40
0.4508950352
 40
0.7103684932
 40
1.0
 40
1.0
 40
1.0
 40
1.0
 10
68.8999608164
 20
121.1850922673
 30
0.0
 10
68.8999305605
 20
121.1089225901
 30
0.0
 10
68.8719014939
 20
120.9501410289
 30
0.0
 10
68.7514668489
 20
120.7288976702
 30
0.0
 10
68.5611536898
 20
120.5289570231
 30
0.0
 10
68.4019569191
 20
120.4192639902
 30
0.0
 10
68.3142221903
 20
120.3686106233
 30
0.0
  0
SPLINE
  5
2FE
100
AcDbEntity
  8
0
100
AcDbSpline
 62
7
  6
BYLAYER
 70
0
 71
3
 72
11
 73
7
 74
0
 42
0.0000001
 43
0.0000001
 44
0.0000000001
 40
0.0
 40
0.0
 40
0.0
 40
0.0
 40
0.2478637569
 40
0.5105061283
 40
0.7675472397
 40
1.0
 40
1.0
 40
1.0
 40
1.0
 10
49.1410716453
 20
80.1764114175
 30
0.0
 10
48.9593382662
 20
80.3210681359
 30
0.0
 10
48.6233450961
 20
80.6683497622
 30
0.0
 10
48.2345203043
 20
81.2785443579
 30
0.0
 10
47.975502767
 20
81.9386660746
 30
0.0
 10
47.9036296263
 20
82.3978288187
 30
0.0
 10
47.9036296263
 20
82.6156638977
 30
0.0
  0
SPLINE
  5
2FF
100
AcDbEntity
  8
0
100
AcDbSpline
 62
7
  6
BYLAYER
 70
0
 71
3
 72
11
 73
7
 74
0
 42
0.0000001
 43
0.0000001
 44
0.0000000001
 40
0.0
 40
0.0
 40
0.0
 40
0.0
 40
0.2184187186
 40
0.4541654663
 40
0.7141229692
 40
1.0
 40
1.0
 40
1.0
 40
1.0
 10
37.5053923856
 20
108.4507365438
 30
0.0
 10
37.4395347472
 20
108.3963750686
 30
0.0
 10
37.3193287089
 20
108.261926646
 30
0.0
 10
37.1929965061
 20
108.0100859325
 30
0.0
 10
37.1177488928
 20
107.7119296504
 30
0.0
 10
37.1025591919
 20
107.498007171
 30
0.0
 10
37.1025591919
 20
107.3862373373
 30
0.0
  0
SPLINE
  5
300
100
AcDbEntity
  8
0
100
AcDbSpline
 62
7
  6
BYLAYER
 70
0
 71
3
 72
14
 73
10
 74
0
 42
0.0000001
 43
0.0000001
 44
0.0000000001
 40
0.0
 40
0.0
 40
0.0
 40
0.0
 40
0.301545172
 40
0.4436650884
 40
0.5764515381
 40
0.6982718377
 40
0.808504658
 40
0.9081279592
 40
1.0
 40
1.0
 40
1.0
 40
1.0
 10
37.6212901988
 20
83.4834432021
 30
0.0
 10
37.7790576966
 20
83.2236778236
 30
0.0
 10
38.0505750049
 20
82.8626200451
 30
0.0
 10
38.4746042856
 20
82.463877168
 30
0.0
 10
38.7994586115
 20
82.2285209827
 30
0.0
 10
39.1271674447
 20
82.0582598108
 30
0.0
 10
39.4487576337
 20
81.9590812165
 30
0.0
 10
39.7547924842
 20
81.935075794
 30
0.0
 10
39.9473664092
 20
81.972912524
 30
0.0
 10
40.0342941769
 20
82.0048127235
 30
0.0
  0
SPLINE
  5
301
100
AcDbEntity
  8
0
100
AcDbSpline
 62
7
  6
BYLAYER
 70
0
 71
3
 72
11
 73
7
 74
0
 42
0.0000001
 43
0.0000001
 44
0.0000000001
 40
0.0
 40
0.0
 40
0.0
 40
0.0
 40
0.2177821605
 40
0.4509085882
 40
0.7102951949
 40
1.0
 40
1.0
 40
1.0
 40
1.0
 10
64.4000152147
 20
123.7162496254
 30
0.0
 10
64.4000152414
 20
123.8114696342
 30
0.0
 10
64.4352033029
 20
124.0099381225
 30
0.0
 10
64.5856614717
 20
124.2864687387
 30
0.0
 10
64.8235147347
 20
124.536441638
 30
0.0
 10
65.0225318962
 20
124.6735185681
 30
0.0
 10
65.1322284272
 20
124.7368515118
 30
0.0
  0
SPLINE
  5
302
100
AcDbEntity
  8
0
100
AcDbSpline
 62
7
  6
BYLAYER
 70
0
 71
3
 72
8
 73
4
 74
0
 42
0.0000001
 43
0.0000001
 44
0.0000000001
 40
0.0
 40
0.0
 40
0.0
 40
0.0
 40
1.0
 40
1.0
 40
1.0
 40
1.0
 10
49.3855658626
 20
85.3458238956
 30
0.0
 10
49.3894446229
 20
85.3435830815
 30
0.0
 10
49.3929053685
 20
85.3404781904
 30
0.0
 10
49.3956414361
 20
85.3369313661
 30
0.0
  0
SPLINE
  5
303
100
AcDbEntity
  8
0
100
AcDbSpline
 62
7
  6
BYLAYER
 70
0
 71
3
 72
9
 73
5
 74
0
 42
0.0000001
 43
0.0000001
 44
0.0000000001
 40
0.0
 40
0.0
 40
0.0
 40
0.0
 40
0.2245358223
 40
1.0
 40
1.0
 40
1.0
 40
1.0
 10
49.3956414361
 20
85.3369313661
 30
0.0
 10
49.3974155011
 20
85.3346316068
 30
0.0
 10
49.4041315465
 20
85.3234694294
 30
0.0
 10
49.4062689982
 20
85.3100617271
 30
0.0
 10
49.4062689982
 20
85.3000306052
 30
0.0
  0
SPLINE
  5
304
100
AcDbEntity
  8
0
100
AcDbSpline
 62
7
  6
BYLAYER
 70
0
 71
3
 72
11
 73
7
 74
0
 42
0.0000001
 43
0.0000001
 44
0.0000000001
 40
0.0
 40
0.0
 40
0.0
 40
0.0
 40
0.2177416576
 40
0.4508857691
 40
0.7104589349
 40
1.0
 40
1.0
 40
1.0
 40
1.0
 10
75.9985575139
 20
133.3270772317
 30
0.0
 10
75.9985604546
 20
133.3888107438
 30
0.0
 10
76.0212551941
 20
133.5175174725
 30
0.0
 10
76.118887761
 20
133.6968782731
 30
0.0
 10
76.2732067107
 20
133.8588927982
 30
0.0
 10
76.4022185021
 20
133.9478417688
 30
0.0
 10
76.4733105309
 20
133.9888865258
 30
0.0
  0
SPLINE
  5
305
100
AcDbEntity
  8
0
100
AcDbSpline
 62
7
  6
BYLAYER
 70
0
 71
3
 72
11
 73
7
 74
0
 42
0.0000001
 43
0.0000001
 44
0.0000000001
 40
0.0
 40
0.0
 40
0.0
 40
0.0
 40
0.2896413964
 40
0.5491107671
 40
0.7822355978
 40
1.0
 40
1.0
 40
1.0
 40
1.0
 10
54.9216936483
 20
81.8298840776
 30
0.0
 10
54.9216936483
 20
81.9641256997
 30
0.0
 10
54.9420984245
 20
82.2194850398
 30
0.0
 10
55.0454520674
 20
82.5703405658
 30
0.0
 10
55.2195508939
 20
82.8551097197
 30
0.0
 10
55.3831777025
 20
82.992476729
 30
0.0
 10
55.4705641224
 20
83.0429758205
 30
0.0
  0
SPLINE
  5
306
100
AcDbEntity
  8
0
100
AcDbSpline
 62
7
  6
BYLAYER
 70
0
 71
3
 72
10
 73
6
 74
0
 42
0.0000001
 43
0.0000001
 44
0.0000000001
 40
0.0
 40
0.0
 40
0.0
 40
0.0
 40
0.228781559
 40
0.475093423
 40
1.0
 40
1.0
 40
1.0
 40
1.0
 10
37.0318482194
 20
85.3814961502
 30
0.0
 10
37.0318482194
 20
85.2435929877
 30
0.0
 10
37.0558778649
 20
84.9569180988
 30
0.0
 10
37.1866759345
 20
84.3673855719
 30
0.0
 10
37.3692117267
 20
83.9341019105
 30
0.0
 10
37.5212897825
 20
83.6566480425
 30
0.0
  0
SPLINE
  5
307
100
AcDbEntity
  8
0
100
AcDbSpline
 62
7
  6
BYLAYER
 70
0
 71
3
 72
17
 73
13
 74
0
 42
0.0000001
 43
0.0000001
 44
0.0000000001
 40
0.0
 40
0.0
 40
0.0
 40
0.0
 40
0.042857965
 40
0.0874854797
 40
0.1353180708
 40
0.1872814984
 40
0.3045423159
 40
0.4382097446
 40
0.5825520305
 40
0.7297107839
 40
0.8713099826
 40
1.0
 40
1.0
 40
1.0
 40
1.0
 10
29.6239827941
 20
88.3731994059
 30
0.0
 10
29.5586688538
 20
88.3354556162
 30
0.0
 10
29.414645203
 20
88.2756263934
 30
0.0
 10
29.1769381516
 20
88.2407621475
 30
0.0
 10
28.9216513538
 20
88.2595740078
 30
0.0
 10
28.5507175514
 20
88.3582072319
 30
0.0
 10
28.0765352605
 20
88.61749117
 30
0.0
 10
27.5526419372
 20
89.0814480675
 30
0.0
 10
27.089541336
 20
89.6741947086
 30
0.0
 10
26.7250623045
 20
90.3478495124
 30
0.0
 10
26.4885454553
 20
91.0471712823
 30
0.0
 10
26.4251717249
 20
91.5234564604
 30
0.0
 10
26.4251717249
 20
91.7499671477
 30
0.0
  0
SPLINE
  5
308
100
AcDbEntity
  8
0
100
AcDbSpline
 62
7
  6
BYLAYER
 70
0
 71
3
 72
11
 73
7
 74
0
 42
0.0000001
 43
0.0000001
 44
0.0000000001
 40
0.0
 40
0.0
 40
0.0
 40
0.0
 40
0.2896413964
 40
0.5491107671
 40
0.7822355978
 40
1.0
 40
1.0
 40
1.0
 40
1.0
 10
26.4251717249
 20
98.2819864848
 30
0.0
 10
26.4251717249
 20
98.4162281069
 30
0.0
 10
26.4455765011
 20
98.671587447
 30
0.0
 10
26.548930144
 20
99.022442973
 30
0.0
 10
26.7230289705
 20
99.3072121269
 30
0.0
 10
26.8866557791
 20
99.4445791362
 30
0.0
 10
26.974042199
 20
99.4950782277
 30
0.0
  0
SPLINE
  5
309
100
AcDbEntity
  8
0
100
AcDbSpline
 62
7
  6
BYLAYER
 70
0
 71
3
 72
9
 73
5
 74
0
 42
0.0000001
 43
0.0000001
 44
0.0000000001
 40
0.0
 40
0.0
 40
0.0
 40
0.0
 40
0.2468630449
 40
1.0
 40
1.0
 40
1.0
 40
1.0
 10
54.8350761965
 20
72.3636767635
 30
0.0
 10
55.3725379916
 20
71.7527899618
 30
0.0
 10
57.5096857809
 20
69.2432005661
 30
0.0
 10
59.4880908832
 20
66.5989770922
 30
0.0
 10
60.8852781009
 20
64.5471689093
 30
0.0
  0
SPLINE
  5
30A
100
AcDbEntity
  8
0
100
AcDbSpline
 62
7
  6
BYLAYER
 70
0
 71
3
 72
17
 73
13
 74
0
 42
0.0000001
 43
0.0000001
 44
0.0000000001
 40
0.0
 40
0.0
 40
0.0
 40
0.0
 40
0.1265639
 40
0.2655788565
 40
0.4104895962
 40
0.5537661511
 40
0.688138261
 40
0.8079084841
 40
0.86150924
 40
0.9109459792
 40
0.9567658613
 40
1.0
 40
1.0
 40
1.0
 40
1.0
 10
37.1025591919
 20
107.3862373373
 30
0.0
 10
37.1025591919
 20
107.1821719945
 30
0.0
 10
37.157131352
 20
106.7534774085
 30
0.0
 10
37.3625147304
 20
106.121205737
 30
0.0
 10
37.6808541061
 20
105.5069694342
 30
0.0
 10
38.0884418475
 20
104.9571172865
 30
0.0
 10
38.554623164
 20
104.5127425764
 30
0.0
 10
38.9803066568
 20
104.2474283428
 30
0.0
 10
39.3194303184
 20
104.1251394641
 30
0.0
 10
39.556616425
 20
104.0808762389
 30
0.0
 10
39.7813882639
 20
104.0823837296
 30
0.0
 10
39.922774155
 20
104.1150651428
 30
0.0
 10
39.9882540876
 20
104.1389746407
 30
0.0
  0
SPLINE
  5
30B
100
AcDbEntity
  8
0
100
AcDbSpline
 62
7
  6
BYLAYER
 70
0
 71
3
 72
17
 73
13
 74
0
 42
0.0000001
 43
0.0000001
 44
0.0000000001
 40
0.0
 40
0.0
 40
0.0
 40
0.0
 40
0.1283776732
 40
0.2683184696
 40
0.413322099
 40
0.5560759428
 40
0.6896205913
 40
0.8085951172
 40
0.8618928799
 40
0.9111171843
 40
0.9568170124
 40
1.0
 40
1.0
 40
1.0
 40
1.0
 10
52.0592902084
 20
17.9990709561
 30
0.0
 10
52.0662076411
 20
17.7873999991
 30
0.0
 10
52.1339309258
 20
17.3462111526
 30
0.0
 10
52.3576898808
 20
16.6990736447
 30
0.0
 10
52.6931065839
 20
16.0749403447
 30
0.0
 10
53.1159679377
 20
15.519421364
 30
0.0
 10
53.5955007907
 20
15.072702774
 30
0.0
 10
54.0311213373
 20
14.8075965678
 30
0.0
 10
54.3772041463
 20
14.6864908117
 30
0.0
 10
54.6191853555
 20
14.6433750468
 30
0.0
 10
54.8484721427
 20
14.6463137567
 30
0.0
 10
54.9927168684
 20
14.6800668826
 30
0.0
 10
55.059614927
 20
14.7045537817
 30
0.0
  0
SPLINE
  5
30C
100
AcDbEntity
  8
0
100
AcDbSpline
 62
7
  6
BYLAYER
 70
0
 71
3
 72
17
 73
13
 74
0
 42
0.0000001
 43
0.0000001
 44
0.0000000001
 40
0.0
 40
0.0
 40
0.0
 40
0.0
 40
0.042857965
 40
0.0874854797
 40
0.1353180708
 40
0.1872814984
 40
0.3045423159
 40
0.4382097446
 40
0.5825520305
 40
0.7297107839
 40
0.8713099826
 40
1.0
 40
1.0
 40
1.0
 40
1.0
 10
58.1205047175
 20
71.9210969987
 30
0.0
 10
58.0551907772
 20
71.8833532091
 30
0.0
 10
57.9111671264
 20
71.8235239862
 30
0.0
 10
57.673460075
 20
71.7886597403
 30
0.0
 10
57.4181732773
 20
71.8074716006
 30
0.0
 10
57.0472394748
 20
71.9061048248
 30
0.0
 10
56.5730571839
 20
72.1653887629
 30
0.0
 10
56.0491638606
 20
72.6293456603
 30
0.0
 10
55.5860632594
 20
73.2220923014
 30
0.0
 10
55.2215842279
 20
73.8957471053
 30
0.0
 10
54.9850673787
 20
74.5950688751
 30
0.0
 10
54.9216936483
 20
75.0713540532
 30
0.0
 10
54.9216936483
 20
75.2978647406
 30
0.0
  0
SPLINE
  5
30D
100
AcDbEntity
  8
0
100
AcDbSpline
 62
7
  6
BYLAYER
 70
0
 71
3
 72
9
 73
5
 74
0
 42
0.0000001
 43
0.0000001
 44
0.0000000001
 40
0.0
 40
0.0
 40
0.0
 40
0.0
 40
0.5104061779
 40
1.0
 40
1.0
 40
1.0
 40
1.0
 10
26.4411099991
 20
84.3475697852
 30
0.0
 10
25.3905517182
 20
84.3665429121
 30
0.0
 10
23.325772584
 20
84.2548355951
 30
0.0
 10
21.3048228713
 20
83.8068739173
 30
0.0
 10
20.3440598835
 20
83.5022978096
 30
0.0
  0
SPLINE
  5
30E
100
AcDbEntity
  8
0
100
AcDbSpline
 62
7
  6
BYLAYER
 70
0
 71
3
 72
9
 73
5
 74
0
 42
0.0000001
 43
0.0000001
 44
0.0000000001
 40
0.0
 40
0.0
 40
0.0
 40
0.0
 40
0.2746707261
 40
1.0
 40
1.0
 40
1.0
 40
1.0
 10
33.0637383309
 20
82.2917447093
 30
0.0
 10
32.5090512184
 20
82.6074759681
 30
0.0
 10
30.4424578497
 20
83.6611674597
 30
0.0
 10
28.1260915426
 20
84.3081167655
 30
0.0
 10
26.4411099991
 20
84.3475697852
 30
0.0
  0
SPLINE
  5
30F
100
AcDbEntity
  8
0
100
AcDbSpline
 62
7
  6
BYLAYER
 70
0
 71
3
 72
11
 73
7
 74
0
 42
0.0000001
 43
0.0000001
 44
0.0000000001
 40
0.0
 40
0.0
 40
0.0
 40
0.0
 40
0.2693887321
 40
0.5151810124
 40
0.7545651586
 40
1.0
 40
1.0
 40
1.0
 40
1.0
 10
79.0338314585
 20
134.4529178936
 30
0.0
 10
79.1436692414
 20
134.3895044547
 30
0.0
 10
79.3363549762
 20
134.2296039135
 30
0.0
 10
79.4932785413
 20
133.8986649102
 30
0.0
 10
79.5015673438
 20
133.5459298065
 30
0.0
 10
79.4222158894
 20
133.3264583482
 30
0.0
 10
79.3669085719
 20
133.2250027331
 30
0.0
  0
SPLINE
  5
310
100
AcDbEntity
  8
0
100
AcDbSpline
 62
7
  6
BYLAYER
 70
0
 71
3
 72
9
 73
5
 74
0
 42
0.0000001
 43
0.0000001
 44
0.0000000001
 40
0.0
 40
0.0
 40
0.0
 40
0.0
 40
0.4833212201
 40
1.0
 40
1.0
 40
1.0
 40
1.0
 10
79.3669085719
 20
133.2250027331
 30
0.0
 10
79.3104197915
 20
133.1213798451
 30
0.0
 10
79.1588814243
 20
132.9247999387
 30
0.0
 10
78.9604291527
 20
132.777559045
 30
0.0
 10
78.8511666601
 20
132.7144766921
 30
0.0
  0
SPLINE
  5
311
100
AcDbEntity
  8
0
100
AcDbSpline
 62
7
  6
BYLAYER
 70
0
 71
3
 72
13
 73
9
 74
0
 42
0.0000001
 43
0.0000001
 44
0.0000000001
 40
0.0
 40
0.0
 40
0.0
 40
0.0
 40
0.1142250362
 40
0.2375584228
 40
0.4999988469
 40
0.762439898
 40
0.8857740437
 40
1.0
 40
1.0
 40
1.0
 40
1.0
 10
44.3940871437
 20
75.7503127592
 30
0.0
 10
44.2806685178
 20
75.8157935521
 30
0.0
 10
44.0565659915
 20
75.9729208043
 30
0.0
 10
43.636978712
 20
76.3655545434
 30
0.0
 10
43.1938234396
 20
76.9709253363
 30
0.0
 10
42.8911310755
 20
77.6573937721
 30
0.0
 10
42.760889785
 20
78.2170856085
 30
0.0
 10
42.7368624096
 20
78.4897294014
 30
0.0
 10
42.7368624096
 20
78.6206942641
 30
0.0
  0
SPLINE
  5
312
100
AcDbEntity
  8
0
100
AcDbSpline
 62
7
  6
BYLAYER
 70
0
 71
3
 72
11
 73
7
 74
0
 42
0.0000001
 43
0.0000001
 44
0.0000000001
 40
0.0
 40
0.0
 40
0.0
 40
0.0
 40
0.2643179326
 40
0.5201701272
 40
0.7658525202
 40
1.0
 40
1.0
 40
1.0
 40
1.0
 10
51.0167154755
 20
70.1591583326
 30
0.0
 10
50.5090060961
 20
70.7335095968
 30
0.0
 10
49.4712650434
 20
71.8304894567
 30
0.0
 10
47.8308627264
 20
73.3310326175
 30
0.0
 10
46.1474744912
 20
74.6455830172
 30
0.0
 10
44.9801176519
 20
75.4072104334
 30
0.0
 10
44.3940871437
 20
75.7503127592
 30
0.0
  0
SPLINE
  5
313
100
AcDbEntity
  8
0
100
AcDbSpline
 62
7
  6
BYLAYER
 70
0
 71
3
 72
9
 73
5
 74
0
 42
0.0000001
 43
0.0000001
 44
0.0000000001
 40
0.0
 40
0.0
 40
0.0
 40
0.0
 40
0.2528304946
 40
1.0
 40
1.0
 40
1.0
 40
1.0
 10
57.1137655911
 20
62.2737785746
 30
0.0
 10
56.6414750645
 20
62.96884346
 30
0.0
 10
54.7319909297
 20
65.6894917462
 30
0.0
 10
52.6571099849
 20
68.2946623543
 30
0.0
 10
51.0167154755
 20
70.1591583326
 30
0.0
  0
SPLINE
  5
314
100
AcDbEntity
  8
0
100
AcDbSpline
 62
7
  6
BYLAYER
 70
0
 71
3
 72
11
 73
7
 74
0
 42
0.0000001
 43
0.0000001
 44
0.0000000001
 40
0.0
 40
0.0
 40
0.0
 40
0.0
 40
0.2840727969
 40
0.5415462226
 40
0.7770015454
 40
1.0
 40
1.0
 40
1.0
 40
1.0
 10
21.8715765097
 20
35.5425667054
 30
0.0
 10
21.8812932858
 20
35.6531842581
 30
0.0
 10
21.9160129897
 20
35.8633066898
 30
0.0
 10
22.0243057403
 20
36.1496393333
 30
0.0
 10
22.1851837274
 20
36.3825277169
 30
0.0
 10
22.327378314
 20
36.4966923821
 30
0.0
 10
22.4028594821
 20
36.5402944765
 30
0.0
  0
SPLINE
  5
315
100
AcDbEntity
  8
0
100
AcDbSpline
 62
7
  6
BYLAYER
 70
0
 71
3
 72
9
 73
5
 74
0
 42
0.0000001
 43
0.0000001
 44
0.0000000001
 40
0.0
 40
0.0
 40
0.0
 40
0.0
 40
0.2286014044
 40
1.0
 40
1.0
 40
1.0
 40
1.0
 10
49.4062689982
 20
85.3000306052
 30
0.0
 10
49.4062689982
 20
85.2927381724
 30
0.0
 10
49.4025088727
 20
85.2609031435
 30
0.0
 10
49.3879127743
 20
85.2307883936
 30
0.0
 10
49.3728289387
 20
85.2113456418
 30
0.0
  0
SPLINE
  5
316
100
AcDbEntity
  8
0
100
AcDbSpline
 62
7
  6
BYLAYER
 70
0
 71
3
 72
9
 73
5
 74
0
 42
0.0000001
 43
0.0000001
 44
0.0000000001
 40
0.0
 40
0.0
 40
0.0
 40
0.0
 40
0.2671861545
 40
1.0
 40
1.0
 40
1.0
 40
1.0
 10
49.3728289387
 20
85.2113456418
 30
0.0
 10
49.3700738073
 20
85.2077943346
 30
0.0
 10
49.3592123985
 20
85.194966131
 30
0.0
 10
49.3462347456
 20
85.1837197784
 30
0.0
 10
49.3355586145
 20
85.1775559481
 30
0.0
  0
SPLINE
  5
317
100
AcDbEntity
  8
0
100
AcDbSpline
 62
7
  6
BYLAYER
 70
0
 71
3
 72
11
 73
7
 74
0
 42
0.0000001
 43
0.0000001
 44
0.0000000001
 40
0.0
 40
0.0
 40
0.0
 40
0.0
 40
0.289622452
 40
0.5491042256
 40
0.7822329996
 40
1.0
 40
1.0
 40
1.0
 40
1.0
 10
36.8904274519
 20
85.2998473194
 30
0.0
 10
36.8904274519
 20
85.4315472383
 30
0.0
 10
36.9104614457
 20
85.6820838875
 30
0.0
 10
37.0118527284
 20
86.0263179744
 30
0.0
 10
37.1826539163
 20
86.305734954
 30
0.0
 10
37.3432044049
 20
86.4405022211
 30
0.0
 10
37.428942621
 20
86.4900494862
 30
0.0
  0
SPLINE
  5
318
100
AcDbEntity
  8
0
100
AcDbSpline
 62
7
  6
BYLAYER
 70
0
 71
3
 72
10
 73
6
 74
0
 42
0.0000001
 43
0.0000001
 44
0.0000000001
 40
0.0
 40
0.0
 40
0.0
 40
0.0
 40
0.524884823
 40
0.7711637241
 40
1.0
 40
1.0
 40
1.0
 40
1.0
 10
37.371740372
 20
83.5882289925
 30
0.0
 10
37.222610097
 20
83.8642114479
 30
0.0
 10
37.0429217105
 20
84.2941238724
 30
0.0
 10
36.9140320762
 20
84.8788326643
 30
0.0
 10
36.8904274519
 20
85.1630832588
 30
0.0
 10
36.8904274519
 20
85.2998473194
 30
0.0
  0
SPLINE
  5
319
100
AcDbEntity
  8
0
100
AcDbSpline
 62
7
  6
BYLAYER
 70
0
 71
3
 72
17
 73
13
 74
0
 42
0.0000001
 43
0.0000001
 44
0.0000000001
 40
0.0
 40
0.0
 40
0.0
 40
0.0
 40
0.1286716799
 40
0.2702804158
 40
0.417430084
 40
0.5617786111
 40
0.6954471434
 40
0.8127098309
 40
0.8646773246
 40
0.9125077759
 40
0.9571394868
 40
1.0
 40
1.0
 40
1.0
 40
1.0
 10
76.4733105309
 20
133.9888865258
 30
0.0
 10
76.5932958449
 20
134.0581596656
 30
0.0
 10
76.8650046855
 20
134.1702482461
 30
0.0
 10
77.3078114291
 20
134.2588914625
 30
0.0
 10
77.7761990096
 20
134.2718190308
 30
0.0
 10
78.2318726633
 20
134.2078064979
 30
0.0
 10
78.6379452366
 20
134.0721783852
 30
0.0
 10
78.9203076536
 20
133.9002330619
 30
0.0
 10
79.0861229096
 20
133.7339665469
 30
0.0
 10
79.1740874491
 20
133.60441571
 30
0.0
 10
79.2284459303
 20
133.4678527288
 30
0.0
 10
79.2406922527
 20
133.3732271807
 30
0.0
 10
79.2406900543
 20
133.3270772335
 30
0.0
  0
SPLINE
  5
31A
100
AcDbEntity
  8
0
100
AcDbSpline
 62
7
  6
BYLAYER
 70
0
 71
3
 72
14
 73
10
 74
0
 42
0.0000001
 43
0.0000001
 44
0.0000000001
 40
0.0
 40
0.0
 40
0.0
 40
0.0
 40
0.2359599342
 40
0.3658250072
 40
0.4989409089
 40
0.631979327
 40
0.761805121
 40
0.8855067354
 40
1.0
 40
1.0
 40
1.0
 40
1.0
 10
79.0338314585
 20
134.4529178936
 30
0.0
 10
78.8457336367
 20
134.5615137649
 30
0.0
 10
78.5057945945
 20
134.6460640905
 30
0.0
 10
78.0469539701
 20
134.6499535225
 30
0.0
 10
77.6837590947
 20
134.6069878354
 30
0.0
 10
77.3277824053
 20
134.5266937034
 30
0.0
 10
76.9883947271
 20
134.4183257664
 30
0.0
 10
76.6748271933
 20
134.2892720052
 30
0.0
 10
76.4793499792
 20
134.1892016517
 30
0.0
 10
76.388080908
 20
134.1365077435
 30
0.0
  0
SPLINE
  5
31B
100
AcDbEntity
  8
0
100
AcDbSpline
 62
7
  6
BYLAYER
 70
0
 71
3
 72
17
 73
13
 74
0
 42
0.0000001
 43
0.0000001
 44
0.0000000001
 40
0.0
 40
0.0
 40
0.0
 40
0.0
 40
0.0428570455
 40
0.087485165
 40
0.1353123244
 40
0.1872781392
 40
0.3045378316
 40
0.4381995438
 40
0.5825378192
 40
0.7296849502
 40
0.8713141218
 40
1.0
 40
1.0
 40
1.0
 40
1.0
 10
51.1629422821
 20
77.746060786
 30
0.0
 10
51.1216510104
 20
77.7222203919
 30
0.0
 10
51.0306597575
 20
77.6843005577
 30
0.0
 10
50.8803942617
 20
77.6623834996
 30
0.0
 10
50.7190371634
 20
77.6741586116
 30
0.0
 10
50.4846059215
 20
77.7366237046
 30
0.0
 10
50.1848799133
 20
77.9004302146
 30
0.0
 10
49.8537409927
 20
78.193687959
 30
0.0
 10
49.56105663
 20
78.5683276896
 30
0.0
 10
49.3306227584
 20
78.9941152212
 30
0.0
 10
49.1811577283
 20
79.4361634698
 30
0.0
 10
49.1410716453
 20
79.7372329802
 30
0.0
 10
49.1410716453
 20
79.8803990949
 30
0.0
  0
SPLINE
  5
31C
100
AcDbEntity
  8
0
100
AcDbSpline
 62
7
  6
BYLAYER
 70
0
 71
3
 72
11
 73
7
 74
0
 42
0.0000001
 43
0.0000001
 44
0.0000000001
 40
0.0
 40
0.0
 40
0.0
 40
0.0
 40
0.2341474798
 40
0.4798298728
 40
0.7356820674
 40
1.0
 40
1.0
 40
1.0
 40
1.0
 10
48.2124478647
 20
77.9548311901
 30
0.0
 10
48.7984783729
 20
77.6117288643
 30
0.0
 10
49.9658352122
 20
76.8501014481
 30
0.0
 10
51.6492234473
 20
75.5355510484
 30
0.0
 10
53.2896257643
 20
74.0350078876
 30
0.0
 10
54.3273668171
 20
72.9380280277
 30
0.0
 10
54.8350761965
 20
72.3636767635
 30
0.0
  0
SPLINE
  5
31D
100
AcDbEntity
  8
0
100
AcDbSpline
 62
7
  6
BYLAYER
 70
0
 71
3
 72
11
 73
7
 74
0
 42
0.0000001
 43
0.0000001
 44
0.0000000001
 40
0.0
 40
0.0
 40
0.0
 40
0.0
 40
0.2840727969
 40
0.5415462226
 40
0.7770015454
 40
1.0
 40
1.0
 40
1.0
 40
1.0
 10
51.9237398284
 20
18.1923346383
 30
0.0
 10
51.9334566045
 20
18.302952191
 30
0.0
 10
51.9681763084
 20
18.5130746227
 30
0.0
 10
52.0764690591
 20
18.7994072661
 30
0.0
 10
52.2373470462
 20
19.0322956498
 30
0.0
 10
52.3795416328
 20
19.146460315
 30
0.0
 10
52.4550228009
 20
19.1900624094
 30
0.0
  0
SPLINE
  5
31E
100
AcDbEntity
  8
0
100
AcDbSpline
 62
7
  6
BYLAYER
 70
0
 71
3
 72
13
 73
9
 74
0
 42
0.0000001
 43
0.0000001
 44
0.0000000001
 40
0.0
 40
0.0
 40
0.0
 40
0.0
 40
0.1142259181
 40
0.2375599982
 40
0.5000010158
 40
0.7624414734
 40
0.8857749255
 40
1.0
 40
1.0
 40
1.0
 40
1.0
 10
46.5552231305
 20
80.825212695
 30
0.0
 10
46.5552231305
 20
80.6942478762
 30
0.0
 10
46.5792504549
 20
80.4216041991
 30
0.0
 10
46.7094917142
 20
79.8619125159
 30
0.0
 10
47.0121839566
 20
79.1754441204
 30
0.0
 10
47.4553392031
 20
78.570073202
 30
0.0
 10
47.8749265996
 20
78.1774393593
 30
0.0
 10
48.0990292007
 20
78.0203120049
 30
0.0
 10
48.2124478647
 20
77.9548311901
 30
0.0
  0
ENDSEC
  0
SECTION
  2
OBJECTS
  0
DICTIONARY
  5
C
100
AcDbDictionary
280
0
281
1
  3
ACAD_GROUP
350
D
  3
ACAD_MLINESTYLE
350
17
  3
ACAD_LAYOUT
350
1A
  3
ACAD_PLOTSETTINGS
350
19
  3
ACAD_PLOTSTYLENAME
350
E
  0
DICTIONARY
  5
D
102
{ACAD_REACTORS
330
C
102
}
100
AcDbDictionary
280
0
281
1
  0
ACDBDICTIONARYWDFLT
  5
E
102
{ACAD_REACTORS
330
C
102
}
100
AcDbDictionary
281
1
  3
Normal
350
F
100
AcDbDictionaryWithDefault
340
F
  0
DICTIONARY
  5
17
102
{ACAD_REACTORS
330
C
102
}
100
AcDbDictionary
280
0
281
1
  3
Standard
350
18
  0
DICTIONARY
  5
19
102
{ACAD_REACTORS
330
C
102
}
100
AcDbDictionary
281
1
  0
DICTIONARY
  5
1A
102
{ACAD_REACTORS
330
C
102
}
100
AcDbDictionary
281
1
  3
Model
350
31F
  3
Layout1
350
320
  0
ACDBPLACEHOLDER
  5
F
102
{ACAD_REACTORS
330
E
102
}
  0
MLINESTYLE
  5
18
102
{ACAD_REACTORS
330
17
102
}
100
AcDbMlineStyle
  2
STANDARD
 70
0
  3

 62
256
 51
90.0
 52
90.0
 71
2
 49
0.5
 62
256
  6
BYLAYER
 49
-0.5
 62
256
  6
BYLAYER
  0
LAYOUT
  5
31F
102
{ACAD_REACTORS
330
1A
102
}
100
AcDbPlotSettings
  1

  2
none_device
  4

  6

 40
0.0
 41
0.0
 42
0.0
 43
0.0
 44
210.0
 45
297.0
 46
0.0
 47
0.0
 48
0.0
 49
0.0
140
0.0
141
0.0
142
1.0
143
1.0
 70
1024
 72
1
 73
0
 74
0
  7

 75
0
147
1.0
148
0.0
149
0.0
100
AcDbLayout
  1
Model
 70
0
 71
0
 10
0.0
 20
0.0
 11
210.0
 21
297.0
 12
0.0
 22
0.0
 32
0.0
 14
0.0
 24
0.0
 34
0.0
 15
0.0
 25
0.0
 35
0.0
146
0.0
 13
0.0
 23
0.0
 33
0.0
 16
1.0
 26
0.0
 36
0.0
 17
0.0
 27
1.0
 37
0.0
 76
0
330
210
345
0
346
0
  0
LAYOUT
  5
320
102
{ACAD_REACTORS
330
1A
102
}
100
AcDbPlotSettings
  1

  2
none_device
  4

  6

 40
0.0
 41
0.0
 42
0.0
 43
0.0
 44
210.0
 45
297.0
 46
0.0
 47
0.0
 48
0.0
 49
0.0
140
0.0
141
0.0
142
1.0
143
1.0
 70
0
 72
1
 73
0
 74
0
  7

 75
0
147
1.0
148
0.0
149
0.0
100
AcDbLayout
  1
Layout1
 70
0
 71
1
 10
0.0
 20
0.0
 11
210.0
 21
297.0
 12
0.0
 22
0.0
 32
0.0
 14
0.0
 24
0.0
 34
0.0
 15
0.0
 25
0.0
 35
0.0
146
0.0
 13
0.0
 23
0.0
 33
0.0
 16
1.0
 26
0.0
 36
0.0
 17
0.0
 27
1.0
 37
0.0
 76
0
330
211
345
0
346
0
  0
ENDSEC
  0
EOF
