999
DXF file: C:\Users\sesa63760\Dev\_Creo\CAD\MCADID0000721_3D-CAD\drw0001_4.dxf
999
Pro/ENGINEER 2019471 by Parametric Technology Corporation
  0
SECTION
  2
HEADER
  9
$ACADVER
  1
AC1024
  9
$DWGCODEPAGE
  3
ANSI_1252
  9
$EXTMAX
 10
136.9492337165
 20
193.6853448276
 30
0.0
  9
$EXTMIN
 10
0.0
 20
0.0
 30
0.0
  9
$LIMMIN
 10
0.0
 20
0.0
  9
$LIMMAX
 10
136.9492337165
 20
193.6853448276
  9
$VIEWCTR
 10
68.4746168582
 20
96.8426724138
  9
$VIEWSIZE
 40
193.6853448276
  9
$CLAYER
  8
0
  9
$LTSCALE
 40
12.6254150702
  9
$CELTYPE
  6
BYLAYER
  9
$DIMSCALE
 40
1.0
  9
$DIMASZ
 40
1.6303480204
  9
$DIMEXO
 40
1.0
  9
$DIMDLI
 40
8.7230140485
  9
$DIMEXE
 40
1.0
  9
$DIMCEN
 40
2.0659770115
  9
$DIMLFAC
 40
1.0
  9
$DIMBLK
  1
_FILLED
  9
$DIMALT
 70
0
  9
$DIMALTF
 40
0.0393700787
  9
$DIMTXT
 40
2.2824872286
  9
$DIMTOL
 70
1
  9
$DIMLIM
 70
0
  9
$DIMTFAC
 40
1.0
  9
$DIMTP
 40
0.01
  9
$DIMTM
 40
0.01
  9
$DIMGAP
 40
0.625
  9
$DIMDSEP
 70
46
  9
$AUNITS
 70
0
  9
$PDMODE
 70
3
  9
$PDSIZE
 40
0.3125
  9
$HANDSEED
  5
316
  9
$TILEMODE
 70
1
  9
$MEASUREMENT
 70
1
  9
$INSUNITS
 70
4
  0
ENDSEC
  0
SECTION
  2
CLASSES
  0
CLASS
  1
ACDBDICTIONARYWDFLT
  2
AcDbDictionaryWithDefault
  3
AutoCAD 2000
 90
0
 91
1
280
0
281
0
  0
CLASS
  1
ACDBPLACEHOLDER
  2
AcDbPlaceHolder
  3
AutoCAD 2000
 90
0
 91
1
280
0
281
0
  0
CLASS
  1
LAYOUT
  2
AcDbLayout
  3
AutoCAD 2000
 90
0
 91
0
280
0
281
0
  0
ENDSEC
  0
SECTION
  2
TABLES
  0
TABLE
  2
VPORT
  5
8
100
AcDbSymbolTable
 70
2
  0
VPORT
  5
1F4
100
AcDbSymbolTableRecord
100
AcDbViewportTableRecord
  2
*ACTIVE
 70
0
 10
0.0
 20
0.0
 11
1.0
 21
1.0
 12
68.4746168582
 22
96.8426724138
 13
0.0
 23
0.0
 14
1.0
 24
1.0
 15
0.0
 25
0.0
 16
0.0
 26
0.0
 36
1.0
 17
0.0
 27
0.0
 37
0.0
 40
193.6853448276
 41
0.7070707071
 42
50.0
 43
0.0
 44
0.0
 50
0.0
 51
0.0
 71
0
 72
100
 73
1
 74
1
 75
0
 76
0
 77
0
 78
0
  0
ENDTAB
  0
TABLE
  2
LTYPE
  5
5
100
AcDbSymbolTable
 70
6
  0
LTYPE
  5
14
100
AcDbSymbolTableRecord
100
AcDbLinetypeTableRecord
  2
BYBLOCK
 70
0
  3

 72
65
 73
0
 40
0.0
  0
LTYPE
  5
15
100
AcDbSymbolTableRecord
100
AcDbLinetypeTableRecord
  2
BYLAYER
 70
0
  3

 72
65
 73
0
 40
0.0
  0
LTYPE
  5
16
100
AcDbSymbolTableRecord
100
AcDbLinetypeTableRecord
  2
CONTINUOUS
 70
64
  3
Solid line
 72
65
 73
0
 40
0.0
  0
LTYPE
  5
1F5
100
AcDbSymbolTableRecord
100
AcDbLinetypeTableRecord
  2
CENTER
 70
64
  3
____ _ ____ _ ____ _ ____ _ ____ _ ____ _ ____
 72
65
 73
4
 40
0.6
 49
0.375
 74
0
 49
-0.075
 74
0
 49
0.075
 74
0
 49
-0.075
 74
0
  0
LTYPE
  5
1F6
100
AcDbSymbolTableRecord
100
AcDbLinetypeTableRecord
  2
HIDDEN
 70
64
  3
- - - - - - - - - - - - - - - - - - - -
 72
65
 73
2
 40
0.2
 49
0.1
 74
0
 49
-0.1
 74
0
  0
LTYPE
  5
1F7
100
AcDbSymbolTableRecord
100
AcDbLinetypeTableRecord
  2
PHANTOM
 70
64
  3
_____ _ _ _____ _ _ _____ _ _ _____
 72
65
 73
6
 40
0.8
 49
0.45
 74
0
 49
-0.05
 74
0
 49
0.1
 74
0
 49
-0.05
 74
0
 49
0.1
 74
0
 49
-0.05
 74
0
  0
LTYPE
  5
1F8
100
AcDbSymbolTableRecord
100
AcDbLinetypeTableRecord
  2
DOT
 70
64
  3
. . . . . . . . . . . . . . . . . . . .
 72
65
 73
2
 40
0.2
 49
0.1
 74
0
 49
-0.1
 74
0
  0
LTYPE
  5
1F9
100
AcDbSymbolTableRecord
100
AcDbLinetypeTableRecord
  2
DASHED
 70
64
  3
- - - - - - - - - - - - - - - - - - - -
 72
65
 73
2
 40
0.2
 49
0.1
 74
0
 49
-0.1
 74
0
  0
ENDTAB
  0
TABLE
  2
LAYER
  5
2
100
AcDbSymbolTable
 70
36
  0
LAYER
  5
10
100
AcDbSymbolTableRecord
100
AcDbLayerTableRecord
  2
0
 70
0
 62
7
  6
CONTINUOUS
370
-3
390
F
  0
LAYER
  5
1FA
100
AcDbSymbolTableRecord
100
AcDbLayerTableRecord
  2
DEFAULT_1
 70
0
 62
7
  6
CENTER
370
-3
390
F
  0
LAYER
  5
1FB
100
AcDbSymbolTableRecord
100
AcDbLayerTableRecord
  2
DEFAULT_2
 70
0
 62
8
  6
HIDDEN
370
-3
390
F
  0
LAYER
  5
1FC
100
AcDbSymbolTableRecord
100
AcDbLayerTableRecord
  2
DEFAULT_3
 70
0
 62
7
  6
PHANTOM
370
-3
390
F
  0
LAYER
  5
1FD
100
AcDbSymbolTableRecord
100
AcDbLayerTableRecord
  2
00_COMPONENTS
 70
0
 62
7
  6
CONTINUOUS
370
-3
390
F
  0
LAYER
  5
1FE
100
AcDbSymbolTableRecord
100
AcDbLayerTableRecord
  2
01_1_DEFAULT_DATUMS
 70
0
 62
7
  6
CONTINUOUS
370
-3
390
F
  0
LAYER
  5
1FF
100
AcDbSymbolTableRecord
100
AcDbLayerTableRecord
  2
01_PLANES
 70
0
 62
7
  6
CONTINUOUS
370
-3
390
F
  0
LAYER
  5
200
100
AcDbSymbolTableRecord
100
AcDbLayerTableRecord
  2
02_COORD_SYS
 70
0
 62
7
  6
CONTINUOUS
370
-3
390
F
  0
LAYER
  5
201
100
AcDbSymbolTableRecord
100
AcDbLayerTableRecord
  2
03_AXES
 70
0
 62
7
  6
CONTINUOUS
370
-3
390
F
  0
LAYER
  5
202
100
AcDbSymbolTableRecord
100
AcDbLayerTableRecord
  2
04_POINTS
 70
0
 62
7
  6
CONTINUOUS
370
-3
390
F
  0
LAYER
  5
203
100
AcDbSymbolTableRecord
100
AcDbLayerTableRecord
  2
05_CURVES
 70
0
 62
7
  6
CONTINUOUS
370
-3
390
F
  0
LAYER
  5
204
100
AcDbSymbolTableRecord
100
AcDbLayerTableRecord
  2
06_SURFS
 70
0
 62
7
  6
CONTINUOUS
370
-3
390
F
  0
LAYER
  5
205
100
AcDbSymbolTableRecord
100
AcDbLayerTableRecord
  2
07_COSMETICS
 70
0
 62
7
  6
CONTINUOUS
370
-3
390
F
  0
LAYER
  5
206
100
AcDbSymbolTableRecord
100
AcDbLayerTableRecord
  2
10_NOTES
 70
0
 62
7
  6
CONTINUOUS
370
-3
390
F
  0
LAYER
  5
207
100
AcDbSymbolTableRecord
100
AcDbLayerTableRecord
  2
11_NOTES_PUB
 70
0
 62
7
  6
CONTINUOUS
370
-3
390
F
  0
LAYER
  5
208
100
AcDbSymbolTableRecord
100
AcDbLayerTableRecord
  2
13_REF_GTOL
 70
0
 62
7
  6
CONTINUOUS
370
-3
390
F
  0
LAYER
  5
209
100
AcDbSymbolTableRecord
100
AcDbLayerTableRecord
  2
16_MISC
 70
0
 62
7
  6
CONTINUOUS
370
-3
390
F
  0
LAYER
  5
20A
100
AcDbSymbolTableRecord
100
AcDbLayerTableRecord
  2
17_NO_PRINT
 70
0
 62
7
  6
CONTINUOUS
370
-3
390
F
  0
LAYER
  5
20B
100
AcDbSymbolTableRecord
100
AcDbLayerTableRecord
  2
18_DATUM_CAMS_JOINTS
 70
0
 62
7
  6
CONTINUOUS
370
-3
390
F
  0
LAYER
  5
20C
100
AcDbSymbolTableRecord
100
AcDbLayerTableRecord
  2
19_DATUM_FUNCTIONAL
 70
0
 62
7
  6
CONTINUOUS
370
-3
390
F
  0
LAYER
  5
20D
100
AcDbSymbolTableRecord
100
AcDbLayerTableRecord
  2
20_DATUM_KINEMATIC_SCHEME
 70
0
 62
7
  6
CONTINUOUS
370
-3
390
F
  0
ENDTAB
  0
TABLE
  2
STYLE
  5
3
100
AcDbSymbolTable
 70
1
  0
STYLE
  5
11
100
AcDbSymbolTableRecord
100
AcDbTextStyleTableRecord
  2
STANDARD
 70
0
 40
0.0
 41
0.8
 50
0.0
 71
0
 42
0.2
  3
txt
  4

  0
STYLE
  5
20E
100
AcDbSymbolTableRecord
100
AcDbTextStyleTableRecord
  2
TEXTSTYLE_1
 70
0
 40
0.0
 41
0.8
 50
0.0
 71
0
 42
0.2
  3
gdt
  4

  0
ENDTAB
  0
TABLE
  2
VIEW
  5
6
100
AcDbSymbolTable
 70
0
  0
ENDTAB
  0
TABLE
  2
UCS
  5
7
100
AcDbSymbolTable
 70
0
  0
ENDTAB
  0
TABLE
  2
APPID
  5
9
100
AcDbSymbolTable
 70
1
  0
APPID
  5
20F
100
AcDbSymbolTableRecord
100
AcDbRegAppTableRecord
  2
ACAD
 70
0
  0
ENDTAB
  0
TABLE
  2
BLOCK_RECORD
  5
1
100
AcDbSymbolTable
 70
0
  0
BLOCK_RECORD
  5
210
100
AcDbSymbolTableRecord
100
AcDbBlockTableRecord
  2
*Model_Space
  0
BLOCK_RECORD
  5
211
100
AcDbSymbolTableRecord
100
AcDbBlockTableRecord
  2
*Paper_Space
  0
BLOCK_RECORD
  5
212
100
AcDbSymbolTableRecord
100
AcDbBlockTableRecord
  2
_FILLED
  0
ENDTAB
  0
TABLE
  2
DIMSTYLE
  5
A
100
AcDbSymbolTable
 70
1
100
AcDbDimStyleTable
 71
0
  0
DIMSTYLE
105
213
100
AcDbSymbolTableRecord
100
AcDbDimStyleTableRecord
  2
STANDARD
 70
0
  3

  4

 40
1.0
 41
1.6303480204
 42
1.0
 43
0.38
 44
1.0
 45
0.0
 46
0.0
 47
0.01
 48
0.01
140
2.2824872286
141
0.09
142
0.0
143
25.4
144
1.0
145
0.0
146
1.0
147
0.625
 71
1
 72
0
 73
0
 74
0
 75
0
 76
0
 77
1
 78
8
 79
2
170
0
171
1
172
0
173
0
174
0
175
0
176
0
177
0
178
0
270
2
179
2
271
2
272
2
273
2
274
2
275
0
280
0
281
0
282
0
283
1
284
8
285
0
286
0
287
3
288
0
340
11
278
46
341
212
342
212
343
212
344
212
  0
ENDTAB
  0
ENDSEC
  0
SECTION
  2
BLOCKS
  0
BLOCK
  5
20
100
AcDbEntity
  8
0
100
AcDbBlockBegin
  2
*Model_Space
 70
0
 10
0.0
 20
0.0
 30
0.0
  3
*Model_Space
  1

  0
ENDBLK
  5
21
100
AcDbEntity
  8
0
100
AcDbBlockEnd
  0
BLOCK
  5
1C
100
AcDbEntity
  8
0
100
AcDbBlockBegin
  2
*Paper_Space
 70
0
 10
0.0
 20
0.0
 30
0.0
  3
*Paper_Space
  1

  0
ENDBLK
  5
1D
100
AcDbEntity
  8
0
100
AcDbBlockEnd
  0
BLOCK
  5
214
100
AcDbEntity
  8
0
100
AcDbBlockBegin
  2
_FILLED
 70
64
 10
0.0
 20
0.0
  3
_FILLED
  1

  0
SOLID
  5
215
100
AcDbEntity
  8
0
  6
BYBLOCK
 62
0
100
AcDbTrace
 10
0.0
 20
0.0
 11
-1.0
 21
0.25
 12
-1.0
 22
-0.25
 13
-1.0
 23
-0.25
  0
ENDBLK
  5
216
100
AcDbEntity
  8
0
  6
BYBLOCK
 62
0
100
AcDbBlockEnd
  0
ENDSEC
  0
SECTION
  2
ENTITIES
  0
LINE
  5
217
100
AcDbEntity
  8
0
100
AcDbLine
 62
7
  6
CONTINUOUS
 10
15.2526340996
 20
46.0493360265
 11
15.2526340996
 21
136.0493360265
  0
LINE
  5
218
100
AcDbEntity
  8
0
100
AcDbLine
 62
7
  6
CONTINUOUS
 10
16.3526340996
 20
147.8493360265
 11
16.3526340996
 21
136.0493360265
  0
LINE
  5
219
100
AcDbEntity
  8
0
100
AcDbLine
 62
7
  6
CONTINUOUS
 10
16.9526340996
 20
136.0493360265
 11
16.9526340996
 21
147.8493360265
  0
LINE
  5
21A
100
AcDbEntity
  8
0
100
AcDbLine
 62
7
  6
CONTINUOUS
 10
17.2526340996
 20
79.2993360265
 11
17.2526340996
 21
82.7993360265
  0
LINE
  5
21B
100
AcDbEntity
  8
0
100
AcDbLine
 62
7
  6
CONTINUOUS
 10
17.2526340996
 20
99.2993360265
 11
17.2526340996
 21
102.7993360265
  0
LINE
  5
21C
100
AcDbEntity
  8
0
100
AcDbLine
 62
7
  6
CONTINUOUS
 10
17.2526340996
 20
125.7493360265
 11
17.2526340996
 21
128.3493360272
  0
LINE
  5
21D
100
AcDbEntity
  8
0
100
AcDbLine
 62
7
  6
CONTINUOUS
 10
17.2526340996
 20
130.1493360261
 11
17.2526340996
 21
132.9493360269
  0
LINE
  5
21E
100
AcDbEntity
  8
0
100
AcDbLine
 62
7
  6
CONTINUOUS
 10
17.2526340996
 20
136.0493360265
 11
17.2526340996
 21
144.0493360265
  0
LINE
  5
21F
100
AcDbEntity
  8
0
100
AcDbLine
 62
7
  6
CONTINUOUS
 10
18.2526340996
 20
144.0493360265
 11
18.2526340996
 21
136.0493360265
  0
LINE
  5
220
100
AcDbEntity
  8
0
100
AcDbLine
 62
7
  6
CONTINUOUS
 10
18.9526340989
 20
132.9493360269
 11
18.9526340989
 21
130.1493360261
  0
LINE
  5
221
100
AcDbEntity
  8
0
100
AcDbLine
 62
7
  6
CONTINUOUS
 10
19.5526340996
 20
149.3493360265
 11
19.5526340996
 21
144.0493360265
  0
LINE
  5
222
100
AcDbEntity
  8
0
100
AcDbLine
 62
7
  6
CONTINUOUS
 10
33.8126340996
 20
43.1506639746
 11
74.4526340996
 21
43.1506639746
  0
LINE
  5
223
100
AcDbEntity
  8
0
100
AcDbLine
 62
7
  6
CONTINUOUS
 10
76.0526340996
 20
43.1506639746
 11
121.7726340996
 21
43.1506639746
  0
LINE
  5
224
100
AcDbEntity
  8
0
100
AcDbLine
 62
7
  6
CONTINUOUS
 10
121.7726340996
 20
43.6500783561
 11
76.0526340996
 21
43.6500783561
  0
LINE
  5
225
100
AcDbEntity
  8
0
100
AcDbLine
 62
7
  6
CONTINUOUS
 10
74.4526340996
 20
43.6500783561
 11
33.8126340996
 21
43.6500783561
  0
LINE
  5
226
100
AcDbEntity
  8
0
100
AcDbLine
 62
7
  6
CONTINUOUS
 10
33.8126340996
 20
44.229865031
 11
74.4526340996
 21
44.229865031
  0
LINE
  5
227
100
AcDbEntity
  8
0
100
AcDbLine
 62
7
  6
CONTINUOUS
 10
76.0526340996
 20
44.229865031
 11
121.7726340996
 21
44.229865031
  0
LINE
  5
228
100
AcDbEntity
  8
0
100
AcDbLine
 62
7
  6
CONTINUOUS
 10
33.8126340996
 20
44.7493360265
 11
74.4526340996
 21
44.7493360265
  0
LINE
  5
229
100
AcDbEntity
  8
0
100
AcDbLine
 62
7
  6
CONTINUOUS
 10
76.0526340996
 20
44.7493360265
 11
121.7726340996
 21
44.7493360265
  0
LINE
  5
22A
100
AcDbEntity
  8
0
100
AcDbLine
 62
7
  6
CONTINUOUS
 10
20.2526340988
 20
102.7993360265
 11
20.2526340988
 21
99.2993360265
  0
LINE
  5
22B
100
AcDbEntity
  8
0
100
AcDbLine
 62
7
  6
CONTINUOUS
 10
20.2526340988
 20
82.7993360265
 11
20.2526340988
 21
79.2993360265
  0
LINE
  5
22C
100
AcDbEntity
  8
0
100
AcDbLine
 62
7
  6
CONTINUOUS
 10
21.2526340996
 20
56.0493360265
 11
21.2526340996
 21
59.0493360265
  0
LINE
  5
22D
100
AcDbEntity
  8
0
100
AcDbLine
 62
7
  6
CONTINUOUS
 10
21.2526340996
 20
123.0493360265
 11
21.2526340996
 21
125.7493360265
  0
LINE
  5
22E
100
AcDbEntity
  8
0
100
AcDbLine
 62
7
  6
CONTINUOUS
 10
125.2526340996
 20
46.050727089
 11
15.2526340996
 21
46.050727089
  0
LINE
  5
22F
100
AcDbEntity
  8
0
100
AcDbLine
 62
7
  6
CONTINUOUS
 10
120.2526340996
 20
47.0493360265
 11
115.8026341006
 21
47.0493360265
  0
LINE
  5
230
100
AcDbEntity
  8
0
100
AcDbLine
 62
7
  6
CONTINUOUS
 10
115.8026341006
 20
49.0493360265
 11
120.2526340996
 21
49.0493360265
  0
LINE
  5
231
100
AcDbEntity
  8
0
100
AcDbLine
 62
7
  6
CONTINUOUS
 10
25.8526340996
 20
136.0493360265
 11
25.8526340996
 21
144.0493360265
  0
LINE
  5
232
100
AcDbEntity
  8
0
100
AcDbLine
 62
7
  6
CONTINUOUS
 10
26.3526340992
 20
125.7493360258
 11
26.3526340992
 21
123.0493360265
  0
LINE
  5
233
100
AcDbEntity
  8
0
100
AcDbLine
 62
7
  6
CONTINUOUS
 10
26.3526340992
 20
59.0493360265
 11
26.3526340992
 21
56.0493360265
  0
LINE
  5
234
100
AcDbEntity
  8
0
100
AcDbLine
 62
7
  6
CONTINUOUS
 10
26.8526340996
 20
144.0493360265
 11
26.8526340996
 21
136.0493360265
  0
LINE
  5
235
100
AcDbEntity
  8
0
100
AcDbLine
 62
7
  6
CONTINUOUS
 10
26.3526340992
 20
56.0493360265
 11
21.2526340996
 21
56.0493360265
  0
LINE
  5
236
100
AcDbEntity
  8
0
100
AcDbLine
 62
7
  6
CONTINUOUS
 10
33.1526340996
 20
144.0493360265
 11
33.1526340996
 21
149.3493360265
  0
LINE
  5
237
100
AcDbEntity
  8
0
100
AcDbLine
 62
7
  6
CONTINUOUS
 10
33.7526340996
 20
130.1493360261
 11
33.7526340996
 21
132.9493360269
  0
LINE
  5
238
100
AcDbEntity
  8
0
100
AcDbLine
 62
7
  6
CONTINUOUS
 10
33.8126340996
 20
43.1506639736
 11
33.8126340996
 21
46.0493360265
  0
LINE
  5
239
100
AcDbEntity
  8
0
100
AcDbLine
 62
7
  6
CONTINUOUS
 10
34.4526340996
 20
136.0493360265
 11
34.4526340996
 21
144.0493360265
  0
LINE
  5
23A
100
AcDbEntity
  8
0
100
AcDbLine
 62
7
  6
CONTINUOUS
 10
75.9846130542
 20
139.7816978746
 11
76.4396876396
 21
139.9888382178
  0
LINE
  5
23B
100
AcDbEntity
  8
0
100
AcDbLine
 62
7
  6
CONTINUOUS
 10
21.2526340996
 20
59.0493360265
 11
26.3526340992
 21
59.0493360265
  0
LINE
  5
23C
100
AcDbEntity
  8
0
100
AcDbLine
 62
7
  6
CONTINUOUS
 10
121.4026340996
 20
60.4993360258
 11
119.9026340996
 21
60.4993360258
  0
LINE
  5
23D
100
AcDbEntity
  8
0
100
AcDbLine
 62
7
  6
CONTINUOUS
 10
35.4526340996
 20
144.0493360265
 11
35.4526340996
 21
136.0493360265
  0
LINE
  5
23E
100
AcDbEntity
  8
0
100
AcDbLine
 62
7
  6
CONTINUOUS
 10
35.4526340996
 20
132.9493360269
 11
35.4526340996
 21
130.1493360261
  0
LINE
  5
23F
100
AcDbEntity
  8
0
100
AcDbLine
 62
7
  6
CONTINUOUS
 10
35.4526340996
 20
128.3493360272
 11
35.4526340996
 21
125.7493360258
  0
LINE
  5
240
100
AcDbEntity
  8
0
100
AcDbLine
 62
7
  6
CONTINUOUS
 10
35.7526340996
 20
147.8493360265
 11
35.7526340996
 21
136.0493360265
  0
LINE
  5
241
100
AcDbEntity
  8
0
100
AcDbLine
 62
7
  6
CONTINUOUS
 10
36.3526340996
 20
136.0493360265
 11
36.3526340996
 21
147.8493360265
  0
LINE
  5
242
100
AcDbEntity
  8
0
100
AcDbLine
 62
7
  6
CONTINUOUS
 10
119.9026340996
 20
65.5993360272
 11
121.4026340996
 21
65.5993360272
  0
LINE
  5
243
100
AcDbEntity
  8
0
100
AcDbLine
 62
7
  6
CONTINUOUS
 10
49.7526340988
 20
97.2243360272
 11
49.7526340988
 21
108.6993360269
  0
LINE
  5
244
100
AcDbEntity
  8
0
100
AcDbLine
 62
7
  6
CONTINUOUS
 10
64.0655805598
 20
139.9888382178
 11
62.2711917572
 21
136.046676458
  0
LINE
  5
245
100
AcDbEntity
  8
0
100
AcDbLine
 62
7
  6
CONTINUOUS
 10
64.520654998
 20
139.7816975516
 11
62.8217628328
 21
136.0493360265
  0
LINE
  5
246
100
AcDbEntity
  8
0
100
AcDbLine
 62
7
  6
CONTINUOUS
 10
63.8904972235
 20
134.8840411093
 11
65.0332625585
 21
137.3946262206
  0
LINE
  5
247
100
AcDbEntity
  8
0
100
AcDbLine
 62
7
  6
CONTINUOUS
 10
125.2526340996
 20
73.3993360261
 11
15.2526340996
 21
73.3993360261
  0
LINE
  5
248
100
AcDbEntity
  8
0
100
AcDbLine
 62
7
  6
CONTINUOUS
 10
53.936925738
 20
112.0597568686
 11
53.936925738
 21
115.0912116708
  0
LINE
  5
249
100
AcDbEntity
  8
0
100
AcDbLine
 62
7
  6
CONTINUOUS
 10
53.936925738
 20
118.0597568583
 11
53.936925738
 21
127.0912116504
  0
LINE
  5
24A
100
AcDbEntity
  8
0
100
AcDbLine
 62
7
  6
CONTINUOUS
 10
53.9369257376
 20
130.0597568408
 11
53.9369257376
 21
130.8569200017
  0
LINE
  5
24B
100
AcDbEntity
  8
0
100
AcDbLine
 62
7
  6
CONTINUOUS
 10
53.936925738
 20
133.3254651949
 11
53.936925738
 21
134.0912116374
  0
LINE
  5
24C
100
AcDbEntity
  8
0
100
AcDbLine
 62
7
  6
CONTINUOUS
 10
54.2526340988
 20
108.6993360269
 11
54.2526340988
 21
97.2243360272
  0
LINE
  5
24D
100
AcDbEntity
  8
0
100
AcDbLine
 62
7
  6
CONTINUOUS
 10
20.2526340988
 20
79.2993360265
 11
17.2526340996
 21
79.2993360265
  0
LINE
  5
24E
100
AcDbEntity
  8
0
100
AcDbLine
 62
7
  6
CONTINUOUS
 10
55.7326340996
 20
136.0493360265
 11
55.7326340996
 21
138.9493360265
  0
LINE
  5
24F
100
AcDbEntity
  8
0
100
AcDbLine
 62
7
  6
CONTINUOUS
 10
123.2526340986
 20
82.2993360265
 11
120.2526340986
 21
82.2993360265
  0
LINE
  5
250
100
AcDbEntity
  8
0
100
AcDbLine
 62
7
  6
CONTINUOUS
 10
17.2526340996
 20
82.7993360265
 11
20.2526340988
 21
82.7993360265
  0
LINE
  5
251
100
AcDbEntity
  8
0
100
AcDbLine
 62
7
  6
CONTINUOUS
 10
120.2526340986
 20
85.7993360265
 11
123.2526340986
 21
85.7993360265
  0
LINE
  5
252
100
AcDbEntity
  8
0
100
AcDbLine
 62
7
  6
CONTINUOUS
 10
60.7683424623
 20
134.0912116319
 11
60.7683424623
 21
133.3254652032
  0
LINE
  5
253
100
AcDbEntity
  8
0
100
AcDbLine
 62
7
  6
CONTINUOUS
 10
60.7683424623
 20
130.8569199964
 11
60.7683424623
 21
130.0597568461
  0
LINE
  5
254
100
AcDbEntity
  8
0
100
AcDbLine
 62
7
  6
CONTINUOUS
 10
60.7683424623
 20
127.0912116421
 11
60.7683424623
 21
118.0597568666
  0
LINE
  5
255
100
AcDbEntity
  8
0
100
AcDbLine
 62
7
  6
CONTINUOUS
 10
62.2369257369
 20
130.0597568443
 11
62.2369257369
 21
130.8569199964
  0
LINE
  5
256
100
AcDbEntity
  8
0
100
AcDbLine
 62
7
  6
CONTINUOUS
 10
62.2369257369
 20
133.3254652032
 11
62.2369257369
 21
134.0912116301
  0
LINE
  5
257
100
AcDbEntity
  8
0
100
AcDbLine
 62
7
  6
CONTINUOUS
 10
63.2526340988
 20
97.2243360272
 11
63.2526340988
 21
108.6993360269
  0
LINE
  5
258
100
AcDbEntity
  8
0
100
AcDbLine
 62
7
  6
CONTINUOUS
 10
63.719472002
 20
118.5422840867
 11
63.719472002
 21
122.9586844278
  0
LINE
  5
259
100
AcDbEntity
  8
0
100
AcDbLine
 62
7
  6
CONTINUOUS
 10
63.7194720012
 20
126.1922840791
 11
63.7194720012
 21
126.6086844169
  0
LINE
  5
25A
100
AcDbEntity
  8
0
100
AcDbLine
 62
7
  6
CONTINUOUS
 10
66.0183424623
 20
137.1809782062
 11
66.0183424623
 21
136.8254843256
  0
LINE
  5
25B
100
AcDbEntity
  8
0
100
AcDbLine
 62
7
  6
CONTINUOUS
 10
68.2526340988
 20
108.6993360269
 11
68.2526340988
 21
97.2243360272
  0
LINE
  5
25C
100
AcDbEntity
  8
0
100
AcDbLine
 62
7
  6
CONTINUOUS
 10
69.2683424623
 20
130.8569199964
 11
69.2683424623
 21
130.0597568461
  0
LINE
  5
25D
100
AcDbEntity
  8
0
100
AcDbLine
 62
7
  6
CONTINUOUS
 10
69.2683424623
 20
115.0912116625
 11
69.2683424623
 21
112.0597568769
  0
LINE
  5
25E
100
AcDbEntity
  8
0
100
AcDbLine
 62
7
  6
CONTINUOUS
 10
75.7333774416
 20
140.5412913008
 11
75.6419441858
 21
140.0497224237
  0
LINE
  5
25F
100
AcDbEntity
  8
0
100
AcDbLine
 62
7
  6
CONTINUOUS
 10
71.2369257369
 20
112.0597568769
 11
71.2369257369
 21
115.0912116625
  0
LINE
  5
260
100
AcDbEntity
  8
0
100
AcDbLine
 62
7
  6
CONTINUOUS
 10
71.2369257376
 20
130.0597568408
 11
71.2369257376
 21
130.8569200017
  0
LINE
  5
261
100
AcDbEntity
  8
0
100
AcDbLine
 62
7
  6
CONTINUOUS
 10
72.2526340988
 20
97.2243360272
 11
72.2526340988
 21
108.6993360269
  0
LINE
  5
262
100
AcDbEntity
  8
0
100
AcDbLine
 62
7
  6
CONTINUOUS
 10
74.4526340996
 20
43.1506639736
 11
74.4526340996
 21
46.0493360265
  0
LINE
  5
263
100
AcDbEntity
  8
0
100
AcDbLine
 62
7
  6
CONTINUOUS
 10
74.4869257369
 20
136.8254843256
 11
74.4869257369
 21
137.1809782062
  0
LINE
  5
264
100
AcDbEntity
  8
0
100
AcDbLine
 62
7
  6
CONTINUOUS
 10
90.7526340988
 20
97.2243360272
 11
86.2526340988
 21
97.2243360272
  0
LINE
  5
265
100
AcDbEntity
  8
0
100
AcDbLine
 62
7
  6
CONTINUOUS
 10
77.2526340988
 20
97.2243360272
 11
72.2526340988
 21
97.2243360272
  0
LINE
  5
266
100
AcDbEntity
  8
0
100
AcDbLine
 62
7
  6
CONTINUOUS
 10
68.2526340988
 20
97.2243360272
 11
63.2526340988
 21
97.2243360272
  0
LINE
  5
267
100
AcDbEntity
  8
0
100
AcDbLine
 62
7
  6
CONTINUOUS
 10
54.2526340988
 20
97.2243360272
 11
49.7526340988
 21
97.2243360272
  0
LINE
  5
268
100
AcDbEntity
  8
0
100
AcDbLine
 62
7
  6
CONTINUOUS
 10
123.2526340986
 20
99.2993360265
 11
120.2526340986
 21
99.2993360265
  0
LINE
  5
269
100
AcDbEntity
  8
0
100
AcDbLine
 62
7
  6
CONTINUOUS
 10
20.2526340988
 20
99.2993360265
 11
17.2526340996
 21
99.2993360265
  0
LINE
  5
26A
100
AcDbEntity
  8
0
100
AcDbLine
 62
7
  6
CONTINUOUS
 10
64.8633236631
 20
140.049722382
 11
64.7718900445
 21
140.5412911682
  0
LINE
  5
26B
100
AcDbEntity
  8
0
100
AcDbLine
 62
7
  6
CONTINUOUS
 10
76.0526340996
 20
43.1506639746
 11
76.0526340996
 21
46.0493360265
  0
LINE
  5
26C
100
AcDbEntity
  8
0
100
AcDbLine
 62
7
  6
CONTINUOUS
 10
76.7857961972
 20
126.608684422
 11
76.7857961972
 21
122.1922840808
  0
LINE
  5
26D
100
AcDbEntity
  8
0
100
AcDbLine
 62
7
  6
CONTINUOUS
 10
76.785796198
 20
118.9586844296
 11
76.785796198
 21
118.5422840918
  0
LINE
  5
26E
100
AcDbEntity
  8
0
100
AcDbLine
 62
7
  6
CONTINUOUS
 10
77.2526340988
 20
108.6993360269
 11
77.2526340988
 21
97.2243360272
  0
LINE
  5
26F
100
AcDbEntity
  8
0
100
AcDbLine
 62
7
  6
CONTINUOUS
 10
78.2683424623
 20
134.0912116301
 11
78.2683424623
 21
133.3254652032
  0
LINE
  5
270
100
AcDbEntity
  8
0
100
AcDbLine
 62
7
  6
CONTINUOUS
 10
78.2683424623
 20
130.8569199964
 11
78.2683424623
 21
130.0597568443
  0
LINE
  5
271
100
AcDbEntity
  8
0
100
AcDbLine
 62
7
  6
CONTINUOUS
 10
79.7369257369
 20
118.0597568666
 11
79.7369257369
 21
127.0912116421
  0
LINE
  5
272
100
AcDbEntity
  8
0
100
AcDbLine
 62
7
  6
CONTINUOUS
 10
79.7369257369
 20
130.0597568461
 11
79.7369257369
 21
130.8569199964
  0
LINE
  5
273
100
AcDbEntity
  8
0
100
AcDbLine
 62
7
  6
CONTINUOUS
 10
79.7369257369
 20
133.3254652032
 11
79.7369257369
 21
134.0912116319
  0
LINE
  5
274
100
AcDbEntity
  8
0
100
AcDbLine
 62
7
  6
CONTINUOUS
 10
17.2526340996
 20
102.7993360265
 11
20.2526340988
 21
102.7993360265
  0
LINE
  5
275
100
AcDbEntity
  8
0
100
AcDbLine
 62
7
  6
CONTINUOUS
 10
120.2526340986
 20
102.7993360265
 11
123.2526340986
 21
102.7993360265
  0
LINE
  5
276
100
AcDbEntity
  8
0
100
AcDbLine
 62
7
  6
CONTINUOUS
 10
125.2526340996
 20
108.6993360269
 11
15.2526340996
 21
108.6993360269
  0
LINE
  5
277
100
AcDbEntity
  8
0
100
AcDbLine
 62
7
  6
CONTINUOUS
 10
86.0683614943
 20
111.5597759105
 11
71.7369067038
 21
111.5597759105
  0
LINE
  5
278
100
AcDbEntity
  8
0
100
AcDbLine
 62
7
  6
CONTINUOUS
 10
68.7683614954
 20
111.5597759105
 11
54.4369067049
 21
111.5597759105
  0
LINE
  5
279
100
AcDbEntity
  8
0
100
AcDbLine
 62
7
  6
CONTINUOUS
 10
86.2526340988
 20
97.2243360272
 11
86.2526340988
 21
108.6993360269
  0
LINE
  5
27A
100
AcDbEntity
  8
0
100
AcDbLine
 62
7
  6
CONTINUOUS
 10
86.5683424616
 20
134.0912116354
 11
86.5683424616
 21
133.3254651979
  0
LINE
  5
27B
100
AcDbEntity
  8
0
100
AcDbLine
 62
7
  6
CONTINUOUS
 10
86.5683424616
 20
130.8569200017
 11
86.5683424616
 21
130.0597568408
  0
LINE
  5
27C
100
AcDbEntity
  8
0
100
AcDbLine
 62
7
  6
CONTINUOUS
 10
86.5683424612
 20
127.0912116504
 11
86.5683424612
 21
118.0597568583
  0
LINE
  5
27D
100
AcDbEntity
  8
0
100
AcDbLine
 62
7
  6
CONTINUOUS
 10
86.5683424612
 20
115.0912116708
 11
86.5683424612
 21
112.0597568686
  0
LINE
  5
27E
100
AcDbEntity
  8
0
100
AcDbLine
 62
7
  6
CONTINUOUS
 10
90.7526340988
 20
108.6993360269
 11
90.7526340988
 21
97.2243360272
  0
LINE
  5
27F
100
AcDbEntity
  8
0
100
AcDbLine
 62
7
  6
CONTINUOUS
 10
54.4369067049
 20
115.591192629
 11
68.7683614954
 21
115.591192629
  0
LINE
  5
280
100
AcDbEntity
  8
0
100
AcDbLine
 62
7
  6
CONTINUOUS
 10
71.7369067038
 20
115.591192629
 11
86.0683614943
 21
115.591192629
  0
LINE
  5
281
100
AcDbEntity
  8
0
100
AcDbLine
 62
7
  6
CONTINUOUS
 10
75.7858342741
 20
117.5423221654
 11
64.7194339251
 21
117.5423221654
  0
LINE
  5
282
100
AcDbEntity
  8
0
100
AcDbLine
 62
7
  6
CONTINUOUS
 10
86.0683614943
 20
117.5597759003
 11
80.2369067038
 21
117.5597759003
  0
LINE
  5
283
100
AcDbEntity
  8
0
100
AcDbLine
 62
7
  6
CONTINUOUS
 10
60.2683614954
 20
117.5597759003
 11
54.4369067049
 21
117.5597759003
  0
LINE
  5
284
100
AcDbEntity
  8
0
100
AcDbLine
 62
7
  6
CONTINUOUS
 10
66.2526340969
 20
119.9586463565
 11
75.7858342741
 21
119.9586463565
  0
LINE
  5
285
100
AcDbEntity
  8
0
100
AcDbLine
 62
7
  6
CONTINUOUS
 10
75.7858342741
 20
121.1923221591
 11
68.1819204185
 21
121.1923221591
  0
LINE
  5
286
100
AcDbEntity
  8
0
100
AcDbLine
 62
7
  6
CONTINUOUS
 10
67.2526341045
 20
121.8923221587
 11
66.2526340944
 21
121.8923221587
  0
LINE
  5
287
100
AcDbEntity
  8
0
100
AcDbLine
 62
7
  6
CONTINUOUS
 10
75.4720056405
 20
137.394626221
 11
76.6147709758
 21
134.8840411093
  0
LINE
  5
288
100
AcDbEntity
  8
0
100
AcDbLine
 62
7
  6
CONTINUOUS
 10
77.6835053664
 20
136.0493360265
 11
75.9846130558
 21
139.7816978712
  0
LINE
  5
289
100
AcDbEntity
  8
0
100
AcDbLine
 62
7
  6
CONTINUOUS
 10
78.2340764421
 20
136.046676458
 11
76.4396876395
 21
139.9888382179
  0
LINE
  5
28A
100
AcDbEntity
  8
0
100
AcDbLine
 62
7
  6
CONTINUOUS
 10
26.3526340992
 20
123.0493360265
 11
21.2526340996
 21
123.0493360265
  0
LINE
  5
28B
100
AcDbEntity
  8
0
100
AcDbLine
 62
7
  6
CONTINUOUS
 10
64.7194339245
 20
123.9586463496
 11
74.2526341021
 21
123.9586463496
  0
LINE
  5
28C
100
AcDbEntity
  8
0
100
AcDbLine
 62
7
  6
CONTINUOUS
 10
72.3233477808
 20
125.1923221523
 11
64.7194339251
 21
125.1923221523
  0
LINE
  5
28D
100
AcDbEntity
  8
0
100
AcDbLine
 62
7
  6
CONTINUOUS
 10
35.4526340996
 20
125.7493360258
 11
26.3526340992
 21
125.7493360258
  0
LINE
  5
28E
100
AcDbEntity
  8
0
100
AcDbLine
 62
7
  6
CONTINUOUS
 10
21.2526340996
 20
125.7493360265
 11
17.2526340996
 21
125.7493360265
  0
LINE
  5
28F
100
AcDbEntity
  8
0
100
AcDbLine
 62
7
  6
CONTINUOUS
 10
74.2526341007
 20
125.8923221518
 11
73.2526340941
 21
125.8923221518
  0
LINE
  5
290
100
AcDbEntity
  8
0
100
AcDbLine
 62
7
  6
CONTINUOUS
 10
54.4369067049
 20
127.5911926085
 11
60.2683614954
 21
127.5911926085
  0
LINE
  5
291
100
AcDbEntity
  8
0
100
AcDbLine
 62
7
  6
CONTINUOUS
 10
80.2369067038
 20
127.5911926085
 11
86.0683614943
 21
127.5911926085
  0
LINE
  5
292
100
AcDbEntity
  8
0
100
AcDbLine
 62
7
  6
CONTINUOUS
 10
64.7194339251
 20
127.6086463434
 11
75.7858342741
 21
127.6086463434
  0
LINE
  5
293
100
AcDbEntity
  8
0
100
AcDbLine
 62
7
  6
CONTINUOUS
 10
17.2526340996
 20
128.3493360272
 11
35.4526340996
 21
128.3493360272
  0
LINE
  5
294
100
AcDbEntity
  8
0
100
AcDbLine
 62
7
  6
CONTINUOUS
 10
86.0683614989
 20
129.5597758804
 11
80.2369067001
 21
129.5597758804
  0
LINE
  5
295
100
AcDbEntity
  8
0
100
AcDbLine
 62
7
  6
CONTINUOUS
 10
77.7683615001
 20
129.5597758804
 11
71.7369067001
 21
129.5597758804
  0
LINE
  5
296
100
AcDbEntity
  8
0
100
AcDbLine
 62
7
  6
CONTINUOUS
 10
68.7683615
 20
129.5597758804
 11
62.7369066999
 21
129.5597758804
  0
LINE
  5
297
100
AcDbEntity
  8
0
100
AcDbLine
 62
7
  6
CONTINUOUS
 10
60.2683614954
 20
129.5597758798
 11
54.4369067049
 21
129.5597758798
  0
LINE
  5
298
100
AcDbEntity
  8
0
100
AcDbLine
 62
7
  6
CONTINUOUS
 10
35.4526340996
 20
130.1493360261
 11
33.7526340996
 21
130.1493360261
  0
LINE
  5
299
100
AcDbEntity
  8
0
100
AcDbLine
 62
7
  6
CONTINUOUS
 10
18.9526340989
 20
130.1493360261
 11
17.2526340996
 21
130.1493360261
  0
LINE
  5
29A
100
AcDbEntity
  8
0
100
AcDbLine
 62
7
  6
CONTINUOUS
 10
54.4369066972
 20
131.3569009629
 11
60.2683615045
 21
131.3569009629
  0
LINE
  5
29B
100
AcDbEntity
  8
0
100
AcDbLine
 62
7
  6
CONTINUOUS
 10
62.7369066947
 20
131.3569009629
 11
68.7683615045
 21
131.3569009629
  0
LINE
  5
29C
100
AcDbEntity
  8
0
100
AcDbLine
 62
7
  6
CONTINUOUS
 10
71.7369066947
 20
131.3569009629
 11
77.7683615045
 21
131.3569009629
  0
LINE
  5
29D
100
AcDbEntity
  8
0
100
AcDbLine
 62
7
  6
CONTINUOUS
 10
80.2369066947
 20
131.3569009629
 11
86.068361502
 21
131.3569009629
  0
LINE
  5
29E
100
AcDbEntity
  8
0
100
AcDbLine
 62
7
  6
CONTINUOUS
 10
86.0683614996
 20
132.8254842369
 11
80.2369066985
 21
132.8254842369
  0
LINE
  5
29F
100
AcDbEntity
  8
0
100
AcDbLine
 62
7
  6
CONTINUOUS
 10
77.7683615007
 20
132.8254842369
 11
73.4406121065
 21
132.8254842369
  0
LINE
  5
2A0
100
AcDbEntity
  8
0
100
AcDbLine
 62
7
  6
CONTINUOUS
 10
67.0646560927
 20
132.8254842369
 11
62.7369066985
 21
132.8254842369
  0
LINE
  5
2A1
100
AcDbEntity
  8
0
100
AcDbLine
 62
7
  6
CONTINUOUS
 10
60.2683615007
 20
132.8254842369
 11
54.4369066996
 21
132.8254842369
  0
LINE
  5
2A2
100
AcDbEntity
  8
0
100
AcDbLine
 62
7
  6
CONTINUOUS
 10
17.2526340996
 20
132.9493360269
 11
18.9526340989
 21
132.9493360269
  0
LINE
  5
2A3
100
AcDbEntity
  8
0
100
AcDbLine
 62
7
  6
CONTINUOUS
 10
33.7526340996
 20
132.9493360269
 11
35.4526340996
 21
132.9493360269
  0
LINE
  5
2A4
100
AcDbEntity
  8
0
100
AcDbLine
 62
7
  6
CONTINUOUS
 10
54.4369067032
 20
134.5911925965
 11
60.2683614971
 21
134.5911925965
  0
LINE
  5
2A5
100
AcDbEntity
  8
0
100
AcDbLine
 62
7
  6
CONTINUOUS
 10
62.7369066993
 20
134.5911925959
 11
63.4354399612
 21
134.5911925959
  0
LINE
  5
2A6
100
AcDbEntity
  8
0
100
AcDbLine
 62
7
  6
CONTINUOUS
 10
77.0698282369
 20
134.5911925959
 11
77.7683614989
 21
134.5911925959
  0
LINE
  5
2A7
100
AcDbEntity
  8
0
100
AcDbLine
 62
7
  6
CONTINUOUS
 10
80.2369066991
 20
134.5911925959
 11
86.0683614996
 21
134.5911925959
  0
LINE
  5
2A8
100
AcDbEntity
  8
0
100
AcDbLine
 62
7
  6
CONTINUOUS
 10
125.2526340996
 20
136.0493360265
 11
76.0843533331
 21
136.0493360265
  0
LINE
  5
2A9
100
AcDbEntity
  8
0
100
AcDbLine
 62
7
  6
CONTINUOUS
 10
74.4151837523
 20
136.0493360265
 11
66.0900844469
 21
136.0493360265
  0
LINE
  5
2AA
100
AcDbEntity
  8
0
100
AcDbLine
 62
7
  6
CONTINUOUS
 10
15.2526340996
 20
136.0493360265
 11
64.4209148661
 21
136.0493360265
  0
LINE
  5
2AB
100
AcDbEntity
  8
0
100
AcDbLine
 62
7
  6
CONTINUOUS
 10
121.7726340996
 20
137.3493360272
 11
77.6411333091
 21
137.3493360272
  0
LINE
  5
2AC
100
AcDbEntity
  8
0
100
AcDbLine
 62
7
  6
CONTINUOUS
 10
72.3566229089
 20
137.3493360272
 11
68.1486452904
 21
137.3493360272
  0
LINE
  5
2AD
100
AcDbEntity
  8
0
100
AcDbLine
 62
7
  6
CONTINUOUS
 10
62.8641348902
 20
137.3493360272
 11
55.7326340996
 21
137.3493360272
  0
LINE
  5
2AE
100
AcDbEntity
  8
0
100
AcDbLine
 62
7
  6
CONTINUOUS
 10
64.0655805597
 20
139.9888382178
 11
64.520655145
 21
139.7816978746
  0
LINE
  5
2AF
100
AcDbEntity
  8
0
100
AcDbLine
 62
7
  6
CONTINUOUS
 10
115.8026341006
 20
47.0493360265
 11
115.8026341006
 21
49.0493360265
  0
LINE
  5
2B0
100
AcDbEntity
  8
0
100
AcDbLine
 62
7
  6
CONTINUOUS
 10
121.7726340996
 20
137.8693360272
 11
77.4044402878
 21
137.8693360272
  0
LINE
  5
2B1
100
AcDbEntity
  8
0
100
AcDbLine
 62
7
  6
CONTINUOUS
 10
72.242337561
 20
137.8693360272
 11
68.2629306383
 21
137.8693360272
  0
LINE
  5
2B2
100
AcDbEntity
  8
0
100
AcDbLine
 62
7
  6
CONTINUOUS
 10
63.1008279115
 20
137.8693360272
 11
55.7326340996
 21
137.8693360272
  0
LINE
  5
2B3
100
AcDbEntity
  8
0
100
AcDbLine
 62
7
  6
CONTINUOUS
 10
55.7326340996
 20
138.4493360265
 11
63.3648316656
 21
138.4493360265
  0
LINE
  5
2B4
100
AcDbEntity
  8
0
100
AcDbLine
 62
7
  6
CONTINUOUS
 10
68.7579352594
 20
138.4493360265
 11
71.7473329398
 21
138.4493360265
  0
LINE
  5
2B5
100
AcDbEntity
  8
0
100
AcDbLine
 62
7
  6
CONTINUOUS
 10
77.1404365337
 20
138.4493360265
 11
121.7726340996
 21
138.4493360265
  0
LINE
  5
2B6
100
AcDbEntity
  8
0
100
AcDbLine
 62
7
  6
CONTINUOUS
 10
121.7726340996
 20
138.9493360265
 11
76.9128470901
 21
138.9493360265
  0
LINE
  5
2B7
100
AcDbEntity
  8
0
100
AcDbLine
 62
7
  6
CONTINUOUS
 10
70.9333554883
 20
138.9493360265
 11
69.5719127109
 21
138.9493360265
  0
LINE
  5
2B8
100
AcDbEntity
  8
0
100
AcDbLine
 62
7
  6
CONTINUOUS
 10
63.5924211092
 20
138.9493360265
 11
55.7326340996
 21
138.9493360265
  0
LINE
  5
2B9
100
AcDbEntity
  8
0
100
AcDbLine
 62
7
  6
CONTINUOUS
 10
119.9026340996
 20
60.4993360258
 11
119.9026340996
 21
65.5993360272
  0
LINE
  5
2BA
100
AcDbEntity
  8
0
100
AcDbLine
 62
7
  6
CONTINUOUS
 10
120.2526340996
 20
49.0493360265
 11
120.2526340996
 21
47.0493360265
  0
LINE
  5
2BB
100
AcDbEntity
  8
0
100
AcDbLine
 62
7
  6
CONTINUOUS
 10
120.2526340986
 20
82.2993360265
 11
120.2526340986
 21
85.7993360265
  0
LINE
  5
2BC
100
AcDbEntity
  8
0
100
AcDbLine
 62
7
  6
CONTINUOUS
 10
120.2526340986
 20
99.2993360265
 11
120.2526340986
 21
102.7993360265
  0
LINE
  5
2BD
100
AcDbEntity
  8
0
100
AcDbLine
 62
7
  6
CONTINUOUS
 10
121.4026340996
 20
65.5993360272
 11
121.4026340996
 21
60.4993360258
  0
LINE
  5
2BE
100
AcDbEntity
  8
0
100
AcDbLine
 62
7
  6
CONTINUOUS
 10
121.7726340996
 20
43.1506639746
 11
121.7726340996
 21
46.0493360265
  0
LINE
  5
2BF
100
AcDbEntity
  8
0
100
AcDbLine
 62
7
  6
CONTINUOUS
 10
121.7726340996
 20
136.0493360265
 11
121.7726340996
 21
138.9493360265
  0
LINE
  5
2C0
100
AcDbEntity
  8
0
100
AcDbLine
 62
7
  6
CONTINUOUS
 10
17.2526340996
 20
144.0493360265
 11
35.4526340996
 21
144.0493360265
  0
LINE
  5
2C1
100
AcDbEntity
  8
0
100
AcDbLine
 62
7
  6
CONTINUOUS
 10
16.3526340996
 20
147.8493360265
 11
19.5526340996
 21
147.8493360265
  0
LINE
  5
2C2
100
AcDbEntity
  8
0
100
AcDbLine
 62
7
  6
CONTINUOUS
 10
33.1526340996
 20
147.8493360265
 11
36.3526340996
 21
147.8493360265
  0
LINE
  5
2C3
100
AcDbEntity
  8
0
100
AcDbLine
 62
7
  6
CONTINUOUS
 10
123.2526340986
 20
102.7993360265
 11
123.2526340986
 21
99.2993360265
  0
LINE
  5
2C4
100
AcDbEntity
  8
0
100
AcDbLine
 62
7
  6
CONTINUOUS
 10
123.2526340986
 20
85.7993360265
 11
123.2526340986
 21
82.2993360265
  0
LINE
  5
2C5
100
AcDbEntity
  8
0
100
AcDbLine
 62
7
  6
CONTINUOUS
 10
125.2526340996
 20
46.0493360265
 11
125.2526340996
 21
136.0493360265
  0
LINE
  5
2C6
100
AcDbEntity
  8
0
100
AcDbLine
 62
7
  6
CONTINUOUS
 10
17.8526340996
 20
149.3493360265
 11
34.8526340996
 21
149.3493360265
  0
ARC
  5
2C7
100
AcDbEntity
  8
0
100
AcDbCircle
 62
7
  6
CONTINUOUS
 10
70.2526340996
 20
111.0755132414
 40
29.971163233
100
AcDbArc
 50
79.4631865177
 51
100.5368134822
  0
ARC
  5
2C8
100
AcDbEntity
  8
0
100
AcDbCircle
 62
7
  6
CONTINUOUS
 10
70.2526340996
 20
111.0755132414
 40
29.471163233
100
AcDbArc
 50
79.4631874032
 51
100.5368139469
  0
ARC
  5
2C9
100
AcDbEntity
  8
0
100
AcDbCircle
 62
7
  6
CONTINUOUS
 10
70.2526340996
 20
136.82548423
 40
4.2342916344
100
AcDbArc
 50
312.3286953111
 51
0.0000012944
  0
ARC
  5
2CA
100
AcDbEntity
  8
0
100
AcDbCircle
 62
7
  6
CONTINUOUS
 10
70.2526340996
 20
136.82548423
 40
4.2342916344
100
AcDbArc
 50
179.9999987056
 51
227.6713046921
  0
ARC
  5
2CB
100
AcDbEntity
  8
0
100
AcDbCircle
 62
7
  6
CONTINUOUS
 10
70.2526340996
 20
136.82548423
 40
2.2499999981
100
AcDbArc
 50
339.820965984
 51
200.179034016
  0
CIRCLE
  5
2CC
100
AcDbEntity
  8
0
100
AcDbCircle
 62
7
  6
CONTINUOUS
 10
119.2526340996
 20
132.5493360265
 40
2.15
  0
CIRCLE
  5
2CD
100
AcDbEntity
  8
0
100
AcDbCircle
 62
7
  6
CONTINUOUS
 10
21.2526340996
 20
49.5493360265
 40
2.15
  0
ARC
  5
2CE
100
AcDbEntity
  8
0
100
AcDbCircle
 62
7
  6
CONTINUOUS
 10
17.8526340996
 20
147.8493360265
 40
1.5
100
AcDbArc
 50
90.0
 51
180.0
  0
ARC
  5
2CF
100
AcDbEntity
  8
0
100
AcDbCircle
 62
7
  6
CONTINUOUS
 10
34.8526340996
 20
147.8493360265
 40
1.5
100
AcDbArc
 50
0.0
 51
90.0
  0
ARC
  5
2D0
100
AcDbEntity
  8
0
100
AcDbCircle
 62
7
  6
CONTINUOUS
 10
64.9494839944
 20
139.5865040377
 40
0.971163259
100
AcDbArc
 50
100.5368134828
 51
155.525974024
  0
ARC
  5
2D1
100
AcDbEntity
  8
0
100
AcDbCircle
 62
7
  6
CONTINUOUS
 10
75.5557842048
 20
139.5865040377
 40
0.971163259
100
AcDbArc
 50
24.474025983
 51
79.4631865174
  0
ARC
  5
2D2
100
AcDbEntity
  8
0
100
AcDbCircle
 62
7
  6
CONTINUOUS
 10
67.2526340965
 20
120.9254842537
 40
0.9668379058
100
AcDbArc
 50
16.021039604
 51
89.999999525
  0
ARC
  5
2D3
100
AcDbEntity
  8
0
100
AcDbCircle
 62
7
  6
CONTINUOUS
 10
73.2526341027
 20
124.9254842469
 40
0.9668379058
100
AcDbArc
 50
90.0000005112
 51
163.9789603948
  0
ARC
  5
2D4
100
AcDbEntity
  8
0
100
AcDbCircle
 62
7
  6
CONTINUOUS
 10
66.2526341005
 20
120.9254842578
 40
0.9668379017
100
AcDbArc
 50
90.0000003621
 51
269.9999997871
  0
ARC
  5
2D5
100
AcDbEntity
  8
0
100
AcDbCircle
 62
7
  6
CONTINUOUS
 10
74.2526341007
 20
124.9254842489
 40
0.9668378997
100
AcDbArc
 50
270.0000000843
 51
89.9999999366
  0
ARC
  5
2D6
100
AcDbEntity
  8
0
100
AcDbCircle
 62
7
  6
CONTINUOUS
 10
75.0026340996
 20
137.1809782118
 40
0.5157083616
100
AcDbArc
 50
24.4740254155
 51
180.0000006186
  0
ARC
  5
2D7
100
AcDbEntity
  8
0
100
AcDbCircle
 62
7
  6
CONTINUOUS
 10
65.5026340996
 20
137.1809782118
 40
0.5157083616
100
AcDbArc
 50
359.9999993814
 51
155.5259746388
  0
ARC
  5
2D8
100
AcDbEntity
  8
0
100
AcDbCircle
 62
7
  6
CONTINUOUS
 10
73.440738745
 20
133.3255142267
 40
0.5000300058
100
AcDbArc
 50
132.3432064938
 51
269.9854891643
  0
ARC
  5
2D9
100
AcDbEntity
  8
0
100
AcDbCircle
 62
7
  6
CONTINUOUS
 10
67.064529455
 20
133.3255142264
 40
0.5000300055
100
AcDbArc
 50
270.0145107402
 51
47.6567935703
  0
ARC
  5
2DA
100
AcDbEntity
  8
0
100
AcDbCircle
 62
7
  6
CONTINUOUS
 10
75.5557842048
 20
139.5865040377
 40
0.4711632578
100
AcDbArc
 50
24.4740254424
 51
79.463241902
  0
ARC
  5
2DB
100
AcDbEntity
  8
0
100
AcDbCircle
 62
7
  6
CONTINUOUS
 10
64.9494839944
 20
139.5865040377
 40
0.4711632578
100
AcDbArc
 50
100.5368425513
 51
155.5260172687
  0
SPLINE
  5
2DC
100
AcDbEntity
  8
0
100
AcDbSpline
 62
7
  6
CONTINUOUS
 70
0
 71
3
 72
13
 73
9
 74
0
 42
0.0000001
 43
0.0000001
 44
0.0000000001
 40
0.0
 40
0.0
 40
0.0
 40
0.0
 40
0.0867530277
 40
0.1791479363
 40
0.2818925546
 40
0.3982883234
 40
0.6757556138
 40
1.0
 40
1.0
 40
1.0
 40
1.0
 10
34.8526340996
 20
149.3493360265
 30
0.0
 10
34.9078295481
 20
149.3493360265
 30
0.0
 10
35.0224611654
 20
149.3312886792
 30
0.0
 10
35.1858460597
 20
149.2522806427
 30
0.0
 10
35.3384184933
 20
149.1229577007
 30
0.0
 10
35.5323529922
 20
148.8711442933
 30
0.0
 10
35.7062490637
 20
148.4400219788
 30
0.0
 10
35.7526340996
 20
148.0556321617
 30
0.0
 10
35.7526340996
 20
147.8493360265
 30
0.0
  0
SPLINE
  5
2DD
100
AcDbEntity
  8
0
100
AcDbSpline
 62
7
  6
CONTINUOUS
 70
0
 71
3
 72
13
 73
9
 74
0
 42
0.0000001
 43
0.0000001
 44
0.0000000001
 40
0.0
 40
0.0
 40
0.0
 40
0.0
 40
0.0867530277
 40
0.1791479363
 40
0.2818925546
 40
0.3982883234
 40
0.6757556138
 40
1.0
 40
1.0
 40
1.0
 40
1.0
 10
17.8526340996
 20
149.3493360265
 30
0.0
 10
17.7974386511
 20
149.3493360265
 30
0.0
 10
17.6828070338
 20
149.3312886792
 30
0.0
 10
17.5194221395
 20
149.2522806427
 30
0.0
 10
17.366849706
 20
149.1229577007
 30
0.0
 10
17.172915207
 20
148.8711442934
 30
0.0
 10
16.9990191355
 20
148.4400219788
 30
0.0
 10
16.9526340996
 20
148.0556321617
 30
0.0
 10
16.9526340996
 20
147.8493360265
 30
0.0
  0
ELLIPSE
  5
2DE
100
AcDbEntity
  8
0
100
AcDbEllipse
 62
7
  6
CONTINUOUS
 10
68.7683234224
 20
112.0597949495
 30
0.0
 11
0.3535842801
 21
-0.3535763503
 31
0.0
 40
0.9999238505
 41
-0.7853713101
 42
0.7853488839
  0
ELLIPSE
  5
2DF
100
AcDbEntity
  8
0
100
AcDbEllipse
 62
7
  6
CONTINUOUS
 10
54.4369447768
 20
112.0597949495
 30
0.0
 11
0.3535842801
 21
0.3535763503
 31
0.0
 40
0.9999238505
 41
2.3562437864
 42
3.9269639659
  0
ELLIPSE
  5
2E0
100
AcDbEntity
  8
0
100
AcDbEllipse
 62
7
  6
CONTINUOUS
 10
54.4369447768
 20
115.09117359
 30
0.0
 11
0.3535842802
 21
-0.3535763503
 31
0.0
 40
0.9999238505
 41
2.3562213412
 42
3.9269415206
  0
ELLIPSE
  5
2E1
100
AcDbEntity
  8
0
100
AcDbEllipse
 62
7
  6
CONTINUOUS
 10
68.7683234224
 20
115.09117359
 30
0.0
 11
0.3535842802
 21
0.3535763503
 31
0.0
 40
0.9999238505
 41
-0.7853488838
 42
0.7853713102
  0
ELLIPSE
  5
2E2
100
AcDbEntity
  8
0
100
AcDbEllipse
 62
7
  6
CONTINUOUS
 10
80.2369447768
 20
133.3255032752
 30
0.0
 11
0.3535842801
 21
0.3535763503
 31
0.0
 40
0.9999238505
 41
2.3562437685
 42
3.9269639531
  0
ELLIPSE
  5
2E3
100
AcDbEntity
  8
0
100
AcDbEllipse
 62
7
  6
CONTINUOUS
 10
80.2369447768
 20
134.0911735575
 30
0.0
 11
0.3535842802
 21
-0.3535763503
 31
0.0
 40
0.9999238505
 41
2.3562213527
 42
3.9269415334
  0
ELLIPSE
  5
2E4
100
AcDbEntity
  8
0
100
AcDbEllipse
 62
7
  6
CONTINUOUS
 10
86.0683234224
 20
134.0911735575
 30
0.0
 11
0.3535842802
 21
0.3535763503
 31
0.0
 40
0.9999238505
 41
-0.7853488729
 42
0.785371302
  0
ELLIPSE
  5
2E5
100
AcDbEntity
  8
0
100
AcDbEllipse
 62
7
  6
CONTINUOUS
 10
86.0683234224
 20
133.3255032752
 30
0.0
 11
0.3535842802
 21
-0.3535763503
 31
0.0
 40
0.9999238505
 41
-0.7853713018
 42
0.7853488743
  0
ELLIPSE
  5
2E6
100
AcDbEntity
  8
0
100
AcDbEllipse
 62
7
  6
CONTINUOUS
 10
54.4369447768
 20
134.0911735575
 30
0.0
 11
0.3535842802
 21
-0.3535763503
 31
0.0
 40
0.9999238505
 41
2.3562213446
 42
3.9269415225
  0
ELLIPSE
  5
2E7
100
AcDbEntity
  8
0
100
AcDbEllipse
 62
7
  6
CONTINUOUS
 10
60.2683234224
 20
134.0911735575
 30
0.0
 11
0.3535842801
 21
0.3535763503
 31
0.0
 40
0.9999238505
 41
-0.78534888
 42
0.7853713067
  0
ELLIPSE
  5
2E8
100
AcDbEntity
  8
0
100
AcDbEllipse
 62
7
  6
CONTINUOUS
 10
60.2683234224
 20
133.3255032752
 30
0.0
 11
0.3535842802
 21
-0.3535763503
 31
0.0
 40
0.9999238505
 41
-0.7853712996
 42
0.785348885
  0
ELLIPSE
  5
2E9
100
AcDbEntity
  8
0
100
AcDbEllipse
 62
7
  6
CONTINUOUS
 10
54.4369447768
 20
133.3255032752
 30
0.0
 11
0.3535842802
 21
0.3535763503
 31
0.0
 40
0.9999238505
 41
2.3562437854
 42
3.9269639554
  0
ELLIPSE
  5
2EA
100
AcDbEntity
  8
0
100
AcDbEllipse
 62
7
  6
CONTINUOUS
 10
54.4369447768
 20
130.0597949188
 30
0.0
 11
0.3535842802
 21
0.3535763503
 31
0.0
 40
0.9999238505
 41
2.3562437807
 42
3.9269639661
  0
ELLIPSE
  5
2EB
100
AcDbEntity
  8
0
100
AcDbEllipse
 62
7
  6
CONTINUOUS
 10
54.4369447768
 20
130.8568819251
 30
0.0
 11
0.3535842802
 21
-0.3535763503
 31
0.0
 40
0.9999238505
 41
2.3562213566
 42
3.9269415291
  0
ELLIPSE
  5
2EC
100
AcDbEntity
  8
0
100
AcDbEllipse
 62
7
  6
CONTINUOUS
 10
60.2683234224
 20
130.8568819251
 30
0.0
 11
0.3535842802
 21
0.3535763503
 31
0.0
 40
0.9999238505
 41
-0.7853488862
 42
0.785371292
  0
ELLIPSE
  5
2ED
100
AcDbEntity
  8
0
100
AcDbEllipse
 62
7
  6
CONTINUOUS
 10
60.2683234224
 20
130.0597949188
 30
0.0
 11
0.3535842802
 21
-0.3535763503
 31
0.0
 40
0.9999238505
 41
5.497813997
 42
7.0685341908
  0
ELLIPSE
  5
2EE
100
AcDbEntity
  8
0
100
AcDbEllipse
 62
7
  6
CONTINUOUS
 10
62.7369447768
 20
130.0597949188
 30
0.0
 11
0.3535842802
 21
0.3535763503
 31
0.0
 40
0.9999238505
 41
2.3562437737
 42
3.926963956
  0
ELLIPSE
  5
2EF
100
AcDbEntity
  8
0
100
AcDbEllipse
 62
7
  6
CONTINUOUS
 10
62.7369447768
 20
130.8568819251
 30
0.0
 11
0.3535842802
 21
-0.3535763503
 31
0.0
 40
0.9999238505
 41
2.3562213615
 42
3.9269415397
  0
ELLIPSE
  5
2F0
100
AcDbEntity
  8
0
100
AcDbEllipse
 62
7
  6
CONTINUOUS
 10
68.7683234224
 20
130.8568819251
 30
0.0
 11
0.3535842802
 21
0.3535763503
 31
0.0
 40
0.9999238505
 41
-0.7853488861
 42
0.785371292
  0
ELLIPSE
  5
2F1
100
AcDbEntity
  8
0
100
AcDbEllipse
 62
7
  6
CONTINUOUS
 10
68.7683234224
 20
130.0597949188
 30
0.0
 11
0.3535842802
 21
-0.3535763503
 31
0.0
 40
0.9999238505
 41
5.4978140061
 42
7.0685341908
  0
ELLIPSE
  5
2F2
100
AcDbEntity
  8
0
100
AcDbEllipse
 62
7
  6
CONTINUOUS
 10
71.7369447768
 20
130.0597949188
 30
0.0
 11
0.3535842802
 21
0.3535763503
 31
0.0
 40
0.9999238505
 41
2.3562437806
 42
3.9269639563
  0
ELLIPSE
  5
2F3
100
AcDbEntity
  8
0
100
AcDbEllipse
 62
7
  6
CONTINUOUS
 10
71.7369447768
 20
130.8568819251
 30
0.0
 11
0.3535842802
 21
-0.3535763503
 31
0.0
 40
0.9999238505
 41
2.3562213615
 42
3.9269415291
  0
ELLIPSE
  5
2F4
100
AcDbEntity
  8
0
100
AcDbEllipse
 62
7
  6
CONTINUOUS
 10
77.7683234224
 20
130.8568819251
 30
0.0
 11
0.3535842802
 21
0.3535763503
 31
0.0
 40
0.9999238505
 41
-0.7853488861
 42
0.785371292
  0
ELLIPSE
  5
2F5
100
AcDbEntity
  8
0
100
AcDbEllipse
 62
7
  6
CONTINUOUS
 10
77.7683234224
 20
130.0597949188
 30
0.0
 11
0.3535842802
 21
-0.3535763503
 31
0.0
 40
0.9999238505
 41
-0.7853713008
 42
0.7853488799
  0
ELLIPSE
  5
2F6
100
AcDbEntity
  8
0
100
AcDbEllipse
 62
7
  6
CONTINUOUS
 10
80.2369447768
 20
130.0597949188
 30
0.0
 11
0.3535842801
 21
0.3535763503
 31
0.0
 40
0.9999238505
 41
2.3562437699
 42
3.9269639562
  0
ELLIPSE
  5
2F7
100
AcDbEntity
  8
0
100
AcDbEllipse
 62
7
  6
CONTINUOUS
 10
80.2369447768
 20
130.8568819251
 30
0.0
 11
0.3535842802
 21
-0.3535763503
 31
0.0
 40
0.9999238505
 41
2.3562213616
 42
3.9269415398
  0
ELLIPSE
  5
2F8
100
AcDbEntity
  8
0
100
AcDbEllipse
 62
7
  6
CONTINUOUS
 10
86.0683234224
 20
130.8568819251
 30
0.0
 11
0.3535842802
 21
0.3535763503
 31
0.0
 40
0.9999238505
 41
-0.7853488754
 42
0.7853712971
  0
ELLIPSE
  5
2F9
100
AcDbEntity
  8
0
100
AcDbEllipse
 62
7
  6
CONTINUOUS
 10
86.0683234224
 20
130.0597949188
 30
0.0
 11
0.3535842802
 21
-0.3535763503
 31
0.0
 40
0.9999238505
 41
5.4978140038
 42
7.0685341801
  0
ELLIPSE
  5
2FA
100
AcDbEntity
  8
0
100
AcDbEllipse
 62
7
  6
CONTINUOUS
 10
80.2369447768
 20
118.0597949393
 30
0.0
 11
0.3535842801
 21
0.3535763503
 31
0.0
 40
0.9999238505
 41
2.3562437699
 42
3.9269639637
  0
ELLIPSE
  5
2FB
100
AcDbEntity
  8
0
100
AcDbEllipse
 62
7
  6
CONTINUOUS
 10
80.2369447768
 20
127.0911735695
 30
0.0
 11
0.3535842802
 21
-0.3535763503
 31
0.0
 40
0.9999238505
 41
2.3562213434
 42
3.9269415372
  0
ELLIPSE
  5
2FC
100
AcDbEntity
  8
0
100
AcDbEllipse
 62
7
  6
CONTINUOUS
 10
86.0683234224
 20
127.0911735695
 30
0.0
 11
0.3535842802
 21
0.3535763503
 31
0.0
 40
0.9999238505
 41
-0.7853488668
 42
0.7853713125
  0
ELLIPSE
  5
2FD
100
AcDbEntity
  8
0
100
AcDbEllipse
 62
7
  6
CONTINUOUS
 10
86.0683234224
 20
118.0597949393
 30
0.0
 11
0.3535842802
 21
-0.3535763503
 31
0.0
 40
0.9999238505
 41
-0.7853713125
 42
0.7853488668
  0
ELLIPSE
  5
2FE
100
AcDbEntity
  8
0
100
AcDbEllipse
 62
7
  6
CONTINUOUS
 10
86.0683234224
 20
115.09117359
 30
0.0
 11
0.3535842802
 21
0.3535763503
 31
0.0
 40
0.9999238505
 41
-0.785348867
 42
0.7853713125
  0
ELLIPSE
  5
2FF
100
AcDbEntity
  8
0
100
AcDbEllipse
 62
7
  6
CONTINUOUS
 10
86.0683234224
 20
112.0597949495
 30
0.0
 11
0.3535842802
 21
-0.3535763503
 31
0.0
 40
0.9999238505
 41
-0.7853713125
 42
0.785348867
  0
ELLIPSE
  5
300
100
AcDbEntity
  8
0
100
AcDbEllipse
 62
7
  6
CONTINUOUS
 10
71.7369447768
 20
112.0597949495
 30
0.0
 11
0.3535842802
 21
0.3535763503
 31
0.0
 40
0.9999238505
 41
2.3562437698
 42
3.9269639638
  0
ELLIPSE
  5
301
100
AcDbEntity
  8
0
100
AcDbEllipse
 62
7
  6
CONTINUOUS
 10
71.7369447768
 20
115.09117359
 30
0.0
 11
0.3535842802
 21
-0.3535763503
 31
0.0
 40
0.9999238505
 41
8.6394066506
 42
10.2101268446
  0
ELLIPSE
  5
302
100
AcDbEntity
  8
0
100
AcDbEllipse
 62
7
  6
CONTINUOUS
 10
54.4369447768
 20
118.0597949393
 30
0.0
 11
0.3535842801
 21
0.3535763503
 31
0.0
 40
0.9999238505
 41
2.3562437866
 42
3.9269639659
  0
ELLIPSE
  5
303
100
AcDbEntity
  8
0
100
AcDbEllipse
 62
7
  6
CONTINUOUS
 10
54.4369447768
 20
127.0911735695
 30
0.0
 11
0.3535842802
 21
-0.3535763503
 31
0.0
 40
0.9999238505
 41
2.3562213412
 42
3.9269415205
  0
ELLIPSE
  5
304
100
AcDbEntity
  8
0
100
AcDbEllipse
 62
7
  6
CONTINUOUS
 10
60.2683234224
 20
127.0911735695
 30
0.0
 11
0.3535842802
 21
0.3535763503
 31
0.0
 40
0.9999238505
 41
-0.7853488836
 42
0.7853713102
  0
ELLIPSE
  5
305
100
AcDbEntity
  8
0
100
AcDbEllipse
 62
7
  6
CONTINUOUS
 10
60.2683234224
 20
118.0597949393
 30
0.0
 11
0.3535842802
 21
-0.3535763503
 31
0.0
 40
0.9999238505
 41
-0.7853713102
 42
0.7853488836
  0
ELLIPSE
  5
306
100
AcDbEntity
  8
0
100
AcDbEllipse
 62
7
  6
CONTINUOUS
 10
75.7857581188
 20
122.1923602358
 30
0.0
 11
0.7071685603
 21
-0.7071527006
 31
0.0
 40
0.9999238505
 41
-0.7853713009
 42
0.7853488739
  0
ELLIPSE
  5
307
100
AcDbEntity
  8
0
100
AcDbEllipse
 62
7
  6
CONTINUOUS
 10
75.7857581188
 20
118.9586082798
 30
0.0
 11
0.7071685604
 21
0.7071527006
 31
0.0
 40
0.9999238505
 41
-0.785348879
 42
0.7853713009
  0
ELLIPSE
  5
308
100
AcDbEntity
  8
0
100
AcDbEllipse
 62
7
  6
CONTINUOUS
 10
75.7857581188
 20
118.5423602421
 30
0.0
 11
0.7071685604
 21
-0.7071527006
 31
0.0
 40
0.9999238505
 41
-0.7853713009
 42
0.7853488786
  0
ELLIPSE
  5
309
100
AcDbEntity
  8
0
100
AcDbEllipse
 62
7
  6
CONTINUOUS
 10
64.7195100804
 20
118.5423602421
 30
0.0
 11
0.7071685604
 21
0.7071527006
 31
0.0
 40
0.9999238505
 41
2.3562437801
 42
3.9269639545
  0
ELLIPSE
  5
30A
100
AcDbEntity
  8
0
100
AcDbEllipse
 62
7
  6
CONTINUOUS
 10
64.7195100804
 20
122.958608273
 30
0.0
 11
0.7071685603
 21
-0.7071527006
 31
0.0
 40
0.9999238505
 41
2.3562213533
 42
3.9269415276
  0
ELLIPSE
  5
30B
100
AcDbEntity
  8
0
100
AcDbEllipse
 62
7
  6
CONTINUOUS
 10
64.7195100804
 20
126.192360229
 30
0.0
 11
0.7071685604
 21
0.7071527006
 31
0.0
 40
0.9999238505
 41
2.3562437747
 42
3.9269639545
  0
ELLIPSE
  5
30C
100
AcDbEntity
  8
0
100
AcDbEllipse
 62
7
  6
CONTINUOUS
 10
64.7195100804
 20
126.6086082667
 30
0.0
 11
0.7071685603
 21
-0.7071527006
 31
0.0
 40
0.9999238505
 41
2.3562213527
 42
3.9269415322
  0
ELLIPSE
  5
30D
100
AcDbEntity
  8
0
100
AcDbEllipse
 62
7
  6
CONTINUOUS
 10
75.7857581188
 20
126.6086082667
 30
0.0
 11
0.7071685604
 21
0.7071527006
 31
0.0
 40
0.9999238505
 41
-0.7853488735
 42
0.7853713009
  0
ELLIPSE
  5
30E
100
AcDbEntity
  8
0
100
AcDbEllipse
 62
7
  6
CONTINUOUS
 10
77.0698527426
 20
135.0912116342
 30
0.0
 11
0.2706031853
 21
0.4204769199
 31
0.0
 40
0.9999461556
 41
8.8529948843
 42
9.9965898845
  0
ELLIPSE
  5
30F
100
AcDbEntity
  8
0
100
AcDbEllipse
 62
7
  6
CONTINUOUS
 10
77.7683234224
 20
134.0911735575
 30
0.0
 11
0.3535842802
 21
0.3535763503
 31
0.0
 40
0.9999238505
 41
-0.7853488835
 42
0.7853713034
  0
ELLIPSE
  5
310
100
AcDbEntity
  8
0
100
AcDbEllipse
 62
7
  6
CONTINUOUS
 10
77.7683234224
 20
133.3255032752
 30
0.0
 11
0.3535842802
 21
-0.3535763503
 31
0.0
 40
0.9999238505
 41
-0.7853712996
 42
0.785348885
  0
ELLIPSE
  5
311
100
AcDbEntity
  8
0
100
AcDbEllipse
 62
7
  6
CONTINUOUS
 10
63.4354154566
 20
135.0912116342
 30
0.0
 11
-0.2706031854
 21
0.4204769199
 31
0.0
 40
0.9999461556
 41
2.5697807276
 42
3.71337573
  0
ELLIPSE
  5
312
100
AcDbEntity
  8
0
100
AcDbEllipse
 62
7
  6
CONTINUOUS
 10
62.7369447768
 20
134.0911735575
 30
0.0
 11
0.3535842802
 21
-0.3535763503
 31
0.0
 40
0.9999238505
 41
8.6394066596
 42
10.2101268443
  0
ELLIPSE
  5
313
100
AcDbEntity
  8
0
100
AcDbEllipse
 62
7
  6
CONTINUOUS
 10
62.7369447768
 20
133.3255032752
 30
0.0
 11
0.3535842802
 21
0.3535763503
 31
0.0
 40
0.9999238505
 41
2.3562437687
 42
3.9269639532
  0
ENDSEC
  0
SECTION
  2
OBJECTS
  0
DICTIONARY
  5
C
100
AcDbDictionary
280
0
281
1
  3
ACAD_GROUP
350
D
  3
ACAD_MLINESTYLE
350
17
  3
ACAD_LAYOUT
350
1A
  3
ACAD_PLOTSETTINGS
350
19
  3
ACAD_PLOTSTYLENAME
350
E
  0
DICTIONARY
  5
D
102
{ACAD_REACTORS
330
C
102
}
100
AcDbDictionary
280
0
281
1
  0
ACDBDICTIONARYWDFLT
  5
E
102
{ACAD_REACTORS
330
C
102
}
100
AcDbDictionary
281
1
  3
Normal
350
F
100
AcDbDictionaryWithDefault
340
F
  0
DICTIONARY
  5
17
102
{ACAD_REACTORS
330
C
102
}
100
AcDbDictionary
280
0
281
1
  3
Standard
350
18
  0
DICTIONARY
  5
19
102
{ACAD_REACTORS
330
C
102
}
100
AcDbDictionary
281
1
  0
DICTIONARY
  5
1A
102
{ACAD_REACTORS
330
C
102
}
100
AcDbDictionary
281
1
  3
Model
350
314
  3
Layout1
350
315
  0
ACDBPLACEHOLDER
  5
F
102
{ACAD_REACTORS
330
E
102
}
  0
MLINESTYLE
  5
18
102
{ACAD_REACTORS
330
17
102
}
100
AcDbMlineStyle
  2
STANDARD
 70
0
  3

 62
256
 51
90.0
 52
90.0
 71
2
 49
0.5
 62
256
  6
BYLAYER
 49
-0.5
 62
256
  6
BYLAYER
  0
LAYOUT
  5
314
102
{ACAD_REACTORS
330
1A
102
}
100
AcDbPlotSettings
  1

  2
none_device
  4

  6

 40
0.0
 41
0.0
 42
0.0
 43
0.0
 44
210.0
 45
297.0
 46
0.0
 47
0.0
 48
0.0
 49
0.0
140
0.0
141
0.0
142
1.0
143
1.0
 70
1024
 72
1
 73
0
 74
0
  7

 75
0
147
1.0
148
0.0
149
0.0
100
AcDbLayout
  1
Model
 70
0
 71
0
 10
0.0
 20
0.0
 11
210.0
 21
297.0
 12
0.0
 22
0.0
 32
0.0
 14
0.0
 24
0.0
 34
0.0
 15
0.0
 25
0.0
 35
0.0
146
0.0
 13
0.0
 23
0.0
 33
0.0
 16
1.0
 26
0.0
 36
0.0
 17
0.0
 27
1.0
 37
0.0
 76
0
330
210
345
0
346
0
  0
LAYOUT
  5
315
102
{ACAD_REACTORS
330
1A
102
}
100
AcDbPlotSettings
  1

  2
none_device
  4

  6

 40
0.0
 41
0.0
 42
0.0
 43
0.0
 44
210.0
 45
297.0
 46
0.0
 47
0.0
 48
0.0
 49
0.0
140
0.0
141
0.0
142
1.0
143
1.0
 70
0
 72
1
 73
0
 74
0
  7

 75
0
147
1.0
148
0.0
149
0.0
100
AcDbLayout
  1
Layout1
 70
0
 71
1
 10
0.0
 20
0.0
 11
210.0
 21
297.0
 12
0.0
 22
0.0
 32
0.0
 14
0.0
 24
0.0
 34
0.0
 15
0.0
 25
0.0
 35
0.0
146
0.0
 13
0.0
 23
0.0
 33
0.0
 16
1.0
 26
0.0
 36
0.0
 17
0.0
 27
1.0
 37
0.0
 76
0
330
211
345
0
346
0
  0
ENDSEC
  0
EOF
