999
DXF file: C:\Users\sesa63760\OneDrive - Schneider Electric\Documents\7-Dev\_Creo\CAD\MCADPP0000259_3D-CAD\drw0001_7.dxf
999
Pro/ENGINEER 2019471 by Parametric Technology Corporation
  0
SECTION
  2
HEADER
  9
$ACADVER
  1
AC1024
  9
$DWGCODEPAGE
  3
ANSI_1252
  9
$EXTMAX
 10
176.5895939703
 20
249.7481400438
 30
0.0
  9
$EXTMIN
 10
0.0
 20
0.0
 30
0.0
  9
$LIMMIN
 10
0.0
 20
0.0
  9
$LIMMAX
 10
176.5895939703
 20
249.7481400438
  9
$VIEWCTR
 10
88.2947969852
 20
124.8740700219
  9
$VIEWSIZE
 40
249.7481400438
  9
$CLAYER
  8
0
  9
$LTSCALE
 40
16.2798787584
  9
$CELTYPE
  6
BYLAYER
  9
$DIMSCALE
 40
1.0
  9
$DIMASZ
 40
2.1022570711
  9
$DIMEXO
 40
1.0
  9
$DIMDLI
 40
11.2479162331
  9
$DIMEXE
 40
1.0
  9
$DIMCEN
 40
2.6639801605
  9
$DIMLFAC
 40
1.0
  9
$DIMBLK
  1
_FILLED
  9
$DIMALT
 70
0
  9
$DIMALTF
 40
0.0393700787
  9
$DIMTXT
 40
2.9431598995
  9
$DIMTOL
 70
1
  9
$DIMLIM
 70
0
  9
$DIMTFAC
 40
1.0
  9
$DIMTP
 40
0.01
  9
$DIMTM
 40
0.01
  9
$DIMGAP
 40
0.625
  9
$DIMDSEP
 70
46
  9
$AUNITS
 70
0
  9
$PDMODE
 70
3
  9
$PDSIZE
 40
0.3125
  9
$HANDSEED
  5
3A9
  9
$TILEMODE
 70
1
  9
$MEASUREMENT
 70
1
  9
$INSUNITS
 70
4
  0
ENDSEC
  0
SECTION
  2
CLASSES
  0
CLASS
  1
ACDBDICTIONARYWDFLT
  2
AcDbDictionaryWithDefault
  3
AutoCAD 2000
 90
0
 91
1
280
0
281
0
  0
CLASS
  1
ACDBPLACEHOLDER
  2
AcDbPlaceHolder
  3
AutoCAD 2000
 90
0
 91
1
280
0
281
0
  0
CLASS
  1
LAYOUT
  2
AcDbLayout
  3
AutoCAD 2000
 90
0
 91
0
280
0
281
0
  0
ENDSEC
  0
SECTION
  2
TABLES
  0
TABLE
  2
VPORT
  5
8
100
AcDbSymbolTable
 70
2
  0
VPORT
  5
1F4
100
AcDbSymbolTableRecord
100
AcDbViewportTableRecord
  2
*ACTIVE
 70
0
 10
0.0
 20
0.0
 11
1.0
 21
1.0
 12
88.2947969852
 22
124.8740700219
 13
0.0
 23
0.0
 14
1.0
 24
1.0
 15
0.0
 25
0.0
 16
0.0
 26
0.0
 36
1.0
 17
0.0
 27
0.0
 37
0.0
 40
249.7481400438
 41
0.7070707071
 42
50.0
 43
0.0
 44
0.0
 50
0.0
 51
0.0
 71
0
 72
100
 73
1
 74
1
 75
0
 76
0
 77
0
 78
0
  0
ENDTAB
  0
TABLE
  2
LTYPE
  5
5
100
AcDbSymbolTable
 70
6
  0
LTYPE
  5
14
100
AcDbSymbolTableRecord
100
AcDbLinetypeTableRecord
  2
BYBLOCK
 70
0
  3

 72
65
 73
0
 40
0.0
  0
LTYPE
  5
15
100
AcDbSymbolTableRecord
100
AcDbLinetypeTableRecord
  2
BYLAYER
 70
0
  3

 72
65
 73
0
 40
0.0
  0
LTYPE
  5
16
100
AcDbSymbolTableRecord
100
AcDbLinetypeTableRecord
  2
CONTINUOUS
 70
64
  3
Solid line
 72
65
 73
0
 40
0.0
  0
LTYPE
  5
1F5
100
AcDbSymbolTableRecord
100
AcDbLinetypeTableRecord
  2
CENTER
 70
64
  3
____ _ ____ _ ____ _ ____ _ ____ _ ____ _ ____
 72
65
 73
4
 40
0.6
 49
0.375
 74
0
 49
-0.075
 74
0
 49
0.075
 74
0
 49
-0.075
 74
0
  0
LTYPE
  5
1F6
100
AcDbSymbolTableRecord
100
AcDbLinetypeTableRecord
  2
HIDDEN
 70
64
  3
- - - - - - - - - - - - - - - - - - - -
 72
65
 73
2
 40
0.2
 49
0.1
 74
0
 49
-0.1
 74
0
  0
LTYPE
  5
1F7
100
AcDbSymbolTableRecord
100
AcDbLinetypeTableRecord
  2
PHANTOM
 70
64
  3
_____ _ _ _____ _ _ _____ _ _ _____
 72
65
 73
6
 40
0.8
 49
0.45
 74
0
 49
-0.05
 74
0
 49
0.1
 74
0
 49
-0.05
 74
0
 49
0.1
 74
0
 49
-0.05
 74
0
  0
LTYPE
  5
1F8
100
AcDbSymbolTableRecord
100
AcDbLinetypeTableRecord
  2
DOT
 70
64
  3
. . . . . . . . . . . . . . . . . . . .
 72
65
 73
2
 40
0.2
 49
0.1
 74
0
 49
-0.1
 74
0
  0
LTYPE
  5
1F9
100
AcDbSymbolTableRecord
100
AcDbLinetypeTableRecord
  2
DASHED
 70
64
  3
- - - - - - - - - - - - - - - - - - - -
 72
65
 73
2
 40
0.2
 49
0.1
 74
0
 49
-0.1
 74
0
  0
ENDTAB
  0
TABLE
  2
LAYER
  5
2
100
AcDbSymbolTable
 70
36
  0
LAYER
  5
10
100
AcDbSymbolTableRecord
100
AcDbLayerTableRecord
  2
0
 70
0
 62
7
  6
CONTINUOUS
370
-3
390
F
  0
LAYER
  5
1FA
100
AcDbSymbolTableRecord
100
AcDbLayerTableRecord
  2
DEFAULT_1
 70
0
 62
7
  6
CENTER
370
-3
390
F
  0
LAYER
  5
1FB
100
AcDbSymbolTableRecord
100
AcDbLayerTableRecord
  2
DEFAULT_2
 70
0
 62
8
  6
HIDDEN
370
-3
390
F
  0
LAYER
  5
1FC
100
AcDbSymbolTableRecord
100
AcDbLayerTableRecord
  2
DEFAULT_3
 70
0
 62
7
  6
PHANTOM
370
-3
390
F
  0
LAYER
  5
1FD
100
AcDbSymbolTableRecord
100
AcDbLayerTableRecord
  2
00_COMPONENTS
 70
0
 62
7
  6
CONTINUOUS
370
-3
390
F
  0
LAYER
  5
1FE
100
AcDbSymbolTableRecord
100
AcDbLayerTableRecord
  2
01_1_DEFAULT_DATUMS
 70
0
 62
7
  6
CONTINUOUS
370
-3
390
F
  0
LAYER
  5
1FF
100
AcDbSymbolTableRecord
100
AcDbLayerTableRecord
  2
01_PLANES
 70
0
 62
7
  6
CONTINUOUS
370
-3
390
F
  0
LAYER
  5
200
100
AcDbSymbolTableRecord
100
AcDbLayerTableRecord
  2
02_COORD_SYS
 70
0
 62
7
  6
CONTINUOUS
370
-3
390
F
  0
LAYER
  5
201
100
AcDbSymbolTableRecord
100
AcDbLayerTableRecord
  2
03_AXES
 70
0
 62
7
  6
CONTINUOUS
370
-3
390
F
  0
LAYER
  5
202
100
AcDbSymbolTableRecord
100
AcDbLayerTableRecord
  2
04_POINTS
 70
0
 62
7
  6
CONTINUOUS
370
-3
390
F
  0
LAYER
  5
203
100
AcDbSymbolTableRecord
100
AcDbLayerTableRecord
  2
05_CURVES
 70
0
 62
7
  6
CONTINUOUS
370
-3
390
F
  0
LAYER
  5
204
100
AcDbSymbolTableRecord
100
AcDbLayerTableRecord
  2
06_SURFS
 70
0
 62
7
  6
CONTINUOUS
370
-3
390
F
  0
LAYER
  5
205
100
AcDbSymbolTableRecord
100
AcDbLayerTableRecord
  2
07_COSMETICS
 70
0
 62
7
  6
CONTINUOUS
370
-3
390
F
  0
LAYER
  5
206
100
AcDbSymbolTableRecord
100
AcDbLayerTableRecord
  2
10_NOTES
 70
0
 62
7
  6
CONTINUOUS
370
-3
390
F
  0
LAYER
  5
207
100
AcDbSymbolTableRecord
100
AcDbLayerTableRecord
  2
11_NOTES_PUB
 70
0
 62
7
  6
CONTINUOUS
370
-3
390
F
  0
LAYER
  5
208
100
AcDbSymbolTableRecord
100
AcDbLayerTableRecord
  2
13_REF_GTOL
 70
0
 62
7
  6
CONTINUOUS
370
-3
390
F
  0
LAYER
  5
209
100
AcDbSymbolTableRecord
100
AcDbLayerTableRecord
  2
16_MISC
 70
0
 62
7
  6
CONTINUOUS
370
-3
390
F
  0
LAYER
  5
20A
100
AcDbSymbolTableRecord
100
AcDbLayerTableRecord
  2
17_NO_PRINT
 70
0
 62
7
  6
CONTINUOUS
370
-3
390
F
  0
LAYER
  5
20B
100
AcDbSymbolTableRecord
100
AcDbLayerTableRecord
  2
18_DATUM_CAMS_JOINTS
 70
0
 62
7
  6
CONTINUOUS
370
-3
390
F
  0
LAYER
  5
20C
100
AcDbSymbolTableRecord
100
AcDbLayerTableRecord
  2
19_DATUM_FUNCTIONAL
 70
0
 62
7
  6
CONTINUOUS
370
-3
390
F
  0
LAYER
  5
20D
100
AcDbSymbolTableRecord
100
AcDbLayerTableRecord
  2
20_DATUM_KINEMATIC_SCHEME
 70
0
 62
7
  6
CONTINUOUS
370
-3
390
F
  0
LAYER
  5
20E
100
AcDbSymbolTableRecord
100
AcDbLayerTableRecord
  2
INTFCLR_3
 70
0
 62
7
  6
CONTINUOUS
370
-3
390
F
  0
LAYER
  5
20F
100
AcDbSymbolTableRecord
100
AcDbLayerTableRecord
  2
black
 70
0
 62
7
  6
CONTINUOUS
370
-3
390
F
  0
ENDTAB
  0
TABLE
  2
STYLE
  5
3
100
AcDbSymbolTable
 70
1
  0
STYLE
  5
11
100
AcDbSymbolTableRecord
100
AcDbTextStyleTableRecord
  2
STANDARD
 70
0
 40
0.0
 41
0.8
 50
0.0
 71
0
 42
0.2
  3
txt
  4

  0
STYLE
  5
210
100
AcDbSymbolTableRecord
100
AcDbTextStyleTableRecord
  2
TEXTSTYLE_1
 70
0
 40
0.0
 41
0.8
 50
0.0
 71
0
 42
0.2
  3
gdt
  4

  0
ENDTAB
  0
TABLE
  2
VIEW
  5
6
100
AcDbSymbolTable
 70
0
  0
ENDTAB
  0
TABLE
  2
UCS
  5
7
100
AcDbSymbolTable
 70
0
  0
ENDTAB
  0
TABLE
  2
APPID
  5
9
100
AcDbSymbolTable
 70
1
  0
APPID
  5
211
100
AcDbSymbolTableRecord
100
AcDbRegAppTableRecord
  2
ACAD
 70
0
  0
ENDTAB
  0
TABLE
  2
BLOCK_RECORD
  5
1
100
AcDbSymbolTable
 70
0
  0
BLOCK_RECORD
  5
212
100
AcDbSymbolTableRecord
100
AcDbBlockTableRecord
  2
*Model_Space
  0
BLOCK_RECORD
  5
213
100
AcDbSymbolTableRecord
100
AcDbBlockTableRecord
  2
*Paper_Space
  0
BLOCK_RECORD
  5
214
100
AcDbSymbolTableRecord
100
AcDbBlockTableRecord
  2
_FILLED
  0
ENDTAB
  0
TABLE
  2
DIMSTYLE
  5
A
100
AcDbSymbolTable
 70
1
100
AcDbDimStyleTable
 71
0
  0
DIMSTYLE
105
215
100
AcDbSymbolTableRecord
100
AcDbDimStyleTableRecord
  2
STANDARD
 70
0
  3

  4

 40
1.0
 41
2.1022570711
 42
1.0
 43
0.38
 44
1.0
 45
0.0
 46
0.0
 47
0.01
 48
0.01
140
2.9431598995
141
0.09
142
0.0
143
25.4
144
1.0
145
0.0
146
1.0
147
0.625
 71
1
 72
0
 73
0
 74
0
 75
0
 76
0
 77
1
 78
8
 79
2
170
0
171
1
172
0
173
0
174
0
175
0
176
0
177
0
178
0
270
2
179
2
271
2
272
2
273
2
274
2
275
0
280
0
281
0
282
0
283
1
284
8
285
0
286
0
287
3
288
0
340
11
278
46
341
214
342
214
343
214
344
214
  0
ENDTAB
  0
ENDSEC
  0
SECTION
  2
BLOCKS
  0
BLOCK
  5
20
100
AcDbEntity
  8
0
100
AcDbBlockBegin
  2
*Model_Space
 70
0
 10
0.0
 20
0.0
 30
0.0
  3
*Model_Space
  1

  0
ENDBLK
  5
21
100
AcDbEntity
  8
0
100
AcDbBlockEnd
  0
BLOCK
  5
1C
100
AcDbEntity
  8
0
100
AcDbBlockBegin
  2
*Paper_Space
 70
0
 10
0.0
 20
0.0
 30
0.0
  3
*Paper_Space
  1

  0
ENDBLK
  5
1D
100
AcDbEntity
  8
0
100
AcDbBlockEnd
  0
BLOCK
  5
216
100
AcDbEntity
  8
0
100
AcDbBlockBegin
  2
_FILLED
 70
64
 10
0.0
 20
0.0
  3
_FILLED
  1

  0
SOLID
  5
217
100
AcDbEntity
  8
0
  6
BYBLOCK
 62
0
100
AcDbTrace
 10
0.0
 20
0.0
 11
-1.0
 21
0.25
 12
-1.0
 22
-0.25
 13
-1.0
 23
-0.25
  0
ENDBLK
  5
218
100
AcDbEntity
  8
0
  6
BYBLOCK
 62
0
100
AcDbBlockEnd
  0
ENDSEC
  0
SECTION
  2
ENTITIES
  0
LINE
  5
219
100
AcDbEntity
  8
INTFCLR_3
100
AcDbLine
 62
7
  6
CONTINUOUS
 10
18.7504862631
 20
116.1854485777
 11
18.7504862631
 21
75.7854485777
  0
LINE
  5
21A
100
AcDbEntity
  8
INTFCLR_3
100
AcDbLine
 62
7
  6
CONTINUOUS
 10
18.8504862631
 20
101.4854485777
 11
18.8504862631
 21
100.4854485777
  0
LINE
  5
21B
100
AcDbEntity
  8
INTFCLR_3
100
AcDbLine
 62
7
  6
CONTINUOUS
 10
18.8504862631
 20
99.1854485777
 11
18.8504862631
 21
98.1854485777
  0
LINE
  5
21C
100
AcDbEntity
  8
INTFCLR_3
100
AcDbLine
 62
7
  6
CONTINUOUS
 10
18.8504862631
 20
96.8854485777
 11
18.8504862631
 21
95.8854485777
  0
LINE
  5
21D
100
AcDbEntity
  8
INTFCLR_3
100
AcDbLine
 62
7
  6
CONTINUOUS
 10
18.8504862631
 20
94.5854485777
 11
18.8504862631
 21
93.5854485777
  0
LINE
  5
21E
100
AcDbEntity
  8
INTFCLR_3
100
AcDbLine
 62
7
  6
CONTINUOUS
 10
18.8504862631
 20
92.2854485777
 11
18.8504862631
 21
91.2854485777
  0
LINE
  5
21F
100
AcDbEntity
  8
INTFCLR_3
100
AcDbLine
 62
7
  6
CONTINUOUS
 10
18.8504862631
 20
89.9854485777
 11
18.8504862631
 21
88.9854485777
  0
LINE
  5
220
100
AcDbEntity
  8
INTFCLR_3
100
AcDbLine
 62
7
  6
CONTINUOUS
 10
18.8504862631
 20
87.6854485777
 11
18.8504862631
 21
86.6854485777
  0
LINE
  5
221
100
AcDbEntity
  8
INTFCLR_3
100
AcDbLine
 62
7
  6
CONTINUOUS
 10
18.8504862631
 20
85.3854485777
 11
18.8504862631
 21
84.3854485777
  0
LINE
  5
222
100
AcDbEntity
  8
INTFCLR_3
100
AcDbLine
 62
7
  6
CONTINUOUS
 10
19.5504862631
 20
102.7854485777
 11
19.5504862631
 21
101.4854485777
  0
LINE
  5
223
100
AcDbEntity
  8
INTFCLR_3
100
AcDbLine
 62
7
  6
CONTINUOUS
 10
19.5504862631
 20
100.4854485777
 11
19.5504862631
 21
99.1854485777
  0
LINE
  5
224
100
AcDbEntity
  8
INTFCLR_3
100
AcDbLine
 62
7
  6
CONTINUOUS
 10
19.5504862631
 20
98.1854485777
 11
19.5504862631
 21
96.8854485777
  0
LINE
  5
225
100
AcDbEntity
  8
INTFCLR_3
100
AcDbLine
 62
7
  6
CONTINUOUS
 10
19.5504862631
 20
95.8854485777
 11
19.5504862631
 21
94.5854485777
  0
LINE
  5
226
100
AcDbEntity
  8
INTFCLR_3
100
AcDbLine
 62
7
  6
CONTINUOUS
 10
19.5504862631
 20
93.5854485777
 11
19.5504862631
 21
92.2854485777
  0
LINE
  5
227
100
AcDbEntity
  8
INTFCLR_3
100
AcDbLine
 62
7
  6
CONTINUOUS
 10
19.5504862631
 20
91.2854485777
 11
19.5504862631
 21
89.9854485777
  0
LINE
  5
228
100
AcDbEntity
  8
INTFCLR_3
100
AcDbLine
 62
7
  6
CONTINUOUS
 10
19.5504862631
 20
88.9854485777
 11
19.5504862631
 21
87.6854485777
  0
LINE
  5
229
100
AcDbEntity
  8
INTFCLR_3
100
AcDbLine
 62
7
  6
CONTINUOUS
 10
19.5504862631
 20
86.6854485777
 11
19.5504862631
 21
85.3854485777
  0
LINE
  5
22A
100
AcDbEntity
  8
INTFCLR_3
100
AcDbLine
 62
7
  6
CONTINUOUS
 10
19.9504862631
 20
116.1854485777
 11
19.9504862631
 21
100.4854485777
  0
LINE
  5
22B
100
AcDbEntity
  8
INTFCLR_3
100
AcDbLine
 62
7
  6
CONTINUOUS
 10
20.8504862631
 20
81.1854485777
 11
20.8504862631
 21
78.1854485777
  0
LINE
  5
22C
100
AcDbEntity
  8
INTFCLR_3
100
AcDbLine
 62
7
  6
CONTINUOUS
 10
21.0004862631
 20
116.1854485777
 11
21.0004862631
 21
90.6854485777
  0
LINE
  5
22D
100
AcDbEntity
  8
INTFCLR_3
100
AcDbLine
 62
7
  6
CONTINUOUS
 10
21.1504862631
 20
116.1854485777
 11
21.1504862631
 21
108.1854485777
  0
LINE
  5
22E
100
AcDbEntity
  8
INTFCLR_3
100
AcDbLine
 62
7
  6
CONTINUOUS
 10
21.3504862631
 20
78.4604485777
 11
21.3504862631
 21
75.7854485777
  0
LINE
  5
22F
100
AcDbEntity
  8
INTFCLR_3
100
AcDbLine
 62
7
  6
CONTINUOUS
 10
21.5504862631
 20
84.3854485777
 11
21.5504862631
 21
83.0854485777
  0
LINE
  5
230
100
AcDbEntity
  8
INTFCLR_3
100
AcDbLine
 62
7
  6
CONTINUOUS
 10
21.6004862631
 20
105.1854485777
 11
21.6004862631
 21
90.6854485777
  0
LINE
  5
231
100
AcDbEntity
  8
INTFCLR_3
100
AcDbLine
 62
7
  6
CONTINUOUS
 10
21.9504862631
 20
105.6854485777
 11
21.9504862631
 21
90.6854485777
  0
LINE
  5
232
100
AcDbEntity
  8
INTFCLR_3
100
AcDbLine
 62
7
  6
CONTINUOUS
 10
23.3504862631
 20
181.7854485777
 11
23.3504862631
 21
116.1854485777
  0
LINE
  5
233
100
AcDbEntity
  8
INTFCLR_3
100
AcDbLine
 62
7
  6
CONTINUOUS
 10
23.6004862631
 20
109.7354485777
 11
23.6004862631
 21
81.1854485777
  0
LINE
  5
234
100
AcDbEntity
  8
INTFCLR_3
100
AcDbLine
 62
7
  6
CONTINUOUS
 10
24.8754862631
 20
181.7854485777
 11
24.8754862631
 21
168.8854485777
  0
LINE
  5
235
100
AcDbEntity
  8
INTFCLR_3
100
AcDbLine
 62
7
  6
CONTINUOUS
 10
24.9504862631
 20
105.6854485777
 11
24.9504862631
 21
90.6854485777
  0
LINE
  5
236
100
AcDbEntity
  8
INTFCLR_3
100
AcDbLine
 62
7
  6
CONTINUOUS
 10
25.8581244955
 20
175.7854485777
 11
25.8581244955
 21
181.7854485777
  0
LINE
  5
237
100
AcDbEntity
  8
INTFCLR_3
100
AcDbLine
 62
7
  6
CONTINUOUS
 10
27.3504862631
 20
181.7854485777
 11
27.3504862631
 21
163.4854485777
  0
LINE
  5
238
100
AcDbEntity
  8
INTFCLR_3
100
AcDbLine
 62
7
  6
CONTINUOUS
 10
27.4004862631
 20
116.1854485777
 11
27.4004862631
 21
93.6854485777
  0
LINE
  5
239
100
AcDbEntity
  8
INTFCLR_3
100
AcDbLine
 62
7
  6
CONTINUOUS
 10
27.9004862631
 20
82.4604485777
 11
27.9004862631
 21
78.4604485777
  0
LINE
  5
23A
100
AcDbEntity
  8
INTFCLR_3
100
AcDbLine
 62
7
  6
CONTINUOUS
 10
28.5190653555
 20
84.9604485777
 11
28.5190653555
 21
78.4604485777
  0
LINE
  5
23B
100
AcDbEntity
  8
INTFCLR_3
100
AcDbLine
 62
7
  6
CONTINUOUS
 10
28.6004862631
 20
166.1854485777
 11
28.6004862631
 21
117.9854485777
  0
LINE
  5
23C
100
AcDbEntity
  8
INTFCLR_3
100
AcDbLine
 62
7
  6
CONTINUOUS
 10
28.6805281479
 20
86.0604485777
 11
28.6805281479
 21
82.4604485777
  0
LINE
  5
23D
100
AcDbEntity
  8
INTFCLR_3
100
AcDbLine
 62
7
  6
CONTINUOUS
 10
28.9754862631
 20
181.7854485777
 11
28.9754862631
 21
163.7854485777
  0
LINE
  5
23E
100
AcDbEntity
  8
INTFCLR_3
100
AcDbLine
 62
7
  6
CONTINUOUS
 10
29.0476360212
 20
82.4604485777
 11
29.0476360212
 21
78.4604485777
  0
LINE
  5
23F
100
AcDbEntity
  8
INTFCLR_3
100
AcDbLine
 62
7
  6
CONTINUOUS
 10
29.547525531
 20
84.9604485777
 11
29.547525531
 21
78.4604485777
  0
LINE
  5
240
100
AcDbEntity
  8
INTFCLR_3
100
AcDbLine
 62
7
  6
CONTINUOUS
 10
30.0760961967
 20
78.4604485777
 11
30.0760961967
 21
82.4604485777
  0
LINE
  5
241
100
AcDbEntity
  8
INTFCLR_3
100
AcDbLine
 62
7
  6
CONTINUOUS
 10
30.1804443782
 20
86.0604485777
 11
30.1804443782
 21
82.4604485777
  0
LINE
  5
242
100
AcDbEntity
  8
INTFCLR_3
100
AcDbLine
 62
7
  6
CONTINUOUS
 10
30.5754862631
 20
84.9604485777
 11
30.5754862631
 21
82.4604485777
  0
LINE
  5
243
100
AcDbEntity
  8
INTFCLR_3
100
AcDbLine
 62
7
  6
CONTINUOUS
 10
30.6004862631
 20
93.6854485777
 11
30.6004862631
 21
90.6854485777
  0
LINE
  5
244
100
AcDbEntity
  8
INTFCLR_3
100
AcDbLine
 62
7
  6
CONTINUOUS
 10
30.7754862631
 20
181.7854485777
 11
30.7754862631
 21
168.8854485777
  0
LINE
  5
245
100
AcDbEntity
  8
INTFCLR_3
100
AcDbLine
 62
7
  6
CONTINUOUS
 10
31.1192685204
 20
84.9604485777
 11
31.1192685204
 21
82.4604485777
  0
LINE
  5
246
100
AcDbEntity
  8
INTFCLR_3
100
AcDbLine
 62
7
  6
CONTINUOUS
 10
31.3505281479
 20
86.0604485777
 11
31.3505281479
 21
82.4604485777
  0
LINE
  5
247
100
AcDbEntity
  8
INTFCLR_3
100
AcDbLine
 62
7
  6
CONTINUOUS
 10
31.4955317779
 20
86.0604485777
 11
31.4955317779
 21
84.9604485777
  0
LINE
  5
248
100
AcDbEntity
  8
INTFCLR_3
100
AcDbLine
 62
7
  6
CONTINUOUS
 10
31.8504862631
 20
123.9854485777
 11
31.8504862631
 21
117.9854485777
  0
LINE
  5
249
100
AcDbEntity
  8
INTFCLR_3
100
AcDbLine
 62
7
  6
CONTINUOUS
 10
32.1004862631
 20
181.7854485777
 11
32.1004862631
 21
168.8854485777
  0
LINE
  5
24A
100
AcDbEntity
  8
INTFCLR_3
100
AcDbLine
 62
7
  6
CONTINUOUS
 10
32.1477286959
 20
82.4604485777
 11
32.1477286959
 21
84.9604485777
  0
LINE
  5
24B
100
AcDbEntity
  8
INTFCLR_3
100
AcDbLine
 62
7
  6
CONTINUOUS
 10
32.7655317779
 20
86.0604485777
 11
32.7655317779
 21
84.9604485777
  0
LINE
  5
24C
100
AcDbEntity
  8
INTFCLR_3
100
AcDbLine
 62
7
  6
CONTINUOUS
 10
32.8504443782
 20
86.0604485777
 11
32.8504443782
 21
82.4604485777
  0
LINE
  5
24D
100
AcDbEntity
  8
INTFCLR_3
100
AcDbLine
 62
7
  6
CONTINUOUS
 10
33.1254407482
 20
86.0604485777
 11
33.1254407482
 21
84.9604485777
  0
LINE
  5
24E
100
AcDbEntity
  8
INTFCLR_3
100
AcDbLine
 62
7
  6
CONTINUOUS
 10
33.3004862631
 20
84.9604485777
 11
33.3004862631
 21
80.3604485777
  0
LINE
  5
24F
100
AcDbEntity
  8
INTFCLR_3
100
AcDbLine
 62
7
  6
CONTINUOUS
 10
34.0504862631
 20
84.9604485777
 11
34.0504862631
 21
78.4604485777
  0
LINE
  5
250
100
AcDbEntity
  8
INTFCLR_3
100
AcDbLine
 62
7
  6
CONTINUOUS
 10
34.1005281479
 20
86.0604485777
 11
34.1005281479
 21
80.3604485777
  0
LINE
  5
251
100
AcDbEntity
  8
INTFCLR_3
100
AcDbLine
 62
7
  6
CONTINUOUS
 10
34.3954407482
 20
86.0604485777
 11
34.3954407482
 21
84.9604485777
  0
LINE
  5
252
100
AcDbEntity
  8
INTFCLR_3
100
AcDbLine
 62
7
  6
CONTINUOUS
 10
34.7704862631
 20
181.7854485777
 11
34.7704862631
 21
168.8854485777
  0
LINE
  5
253
100
AcDbEntity
  8
INTFCLR_3
100
AcDbLine
 62
7
  6
CONTINUOUS
 10
35.3055317779
 20
86.0604485777
 11
35.3055317779
 21
84.9604485777
  0
LINE
  5
254
100
AcDbEntity
  8
INTFCLR_3
100
AcDbLine
 62
7
  6
CONTINUOUS
 10
112.00045212
 20
69.1854485777
 11
94.9005204061
 21
69.1854485777
  0
LINE
  5
255
100
AcDbEntity
  8
INTFCLR_3
100
AcDbLine
 62
7
  6
CONTINUOUS
 10
112.3004862631
 20
70.4854485777
 11
94.6004862631
 21
70.4854485777
  0
LINE
  5
256
100
AcDbEntity
  8
INTFCLR_3
100
AcDbLine
 62
7
  6
CONTINUOUS
 10
112.3004862631
 20
71.6854485777
 11
94.6004862631
 21
71.6854485777
  0
LINE
  5
257
100
AcDbEntity
  8
INTFCLR_3
100
AcDbLine
 62
7
  6
CONTINUOUS
 10
35.6004443782
 20
86.0604485777
 11
35.6004443782
 21
80.3604485777
  0
LINE
  5
258
100
AcDbEntity
  8
INTFCLR_3
100
AcDbLine
 62
7
  6
CONTINUOUS
 10
35.6504862631
 20
84.9604485777
 11
35.6504862631
 21
78.4604485777
  0
LINE
  5
259
100
AcDbEntity
  8
INTFCLR_3
100
AcDbLine
 62
7
  6
CONTINUOUS
 10
36.3910161443
 20
181.7854485777
 11
36.3910161443
 21
168.8854485777
  0
LINE
  5
25A
100
AcDbEntity
  8
INTFCLR_3
100
AcDbLine
 62
7
  6
CONTINUOUS
 10
36.4004862631
 20
84.9604485777
 11
36.4004862631
 21
80.3604485777
  0
LINE
  5
25B
100
AcDbEntity
  8
INTFCLR_3
100
AcDbLine
 62
7
  6
CONTINUOUS
 10
36.5755317779
 20
86.0604485777
 11
36.5755317779
 21
84.9604485777
  0
LINE
  5
25C
100
AcDbEntity
  8
INTFCLR_3
100
AcDbLine
 62
7
  6
CONTINUOUS
 10
36.8505281479
 20
86.0604485777
 11
36.8505281479
 21
82.4604485777
  0
LINE
  5
25D
100
AcDbEntity
  8
INTFCLR_3
100
AcDbLine
 62
7
  6
CONTINUOUS
 10
36.9354407482
 20
86.0604485777
 11
36.9354407482
 21
84.9604485777
  0
LINE
  5
25E
100
AcDbEntity
  8
INTFCLR_3
100
AcDbLine
 62
7
  6
CONTINUOUS
 10
37.5532041271
 20
82.4604485777
 11
37.5532041271
 21
84.9604485777
  0
LINE
  5
25F
100
AcDbEntity
  8
INTFCLR_3
100
AcDbLine
 62
7
  6
CONTINUOUS
 10
38.0704862631
 20
168.8854485777
 11
38.0704862631
 21
181.7854485777
  0
LINE
  5
260
100
AcDbEntity
  8
INTFCLR_3
100
AcDbLine
 62
7
  6
CONTINUOUS
 10
38.2054407482
 20
86.0604485777
 11
38.2054407482
 21
84.9604485777
  0
LINE
  5
261
100
AcDbEntity
  8
INTFCLR_3
100
AcDbLine
 62
7
  6
CONTINUOUS
 10
38.3504443782
 20
86.0604485777
 11
38.3504443782
 21
82.4604485777
  0
LINE
  5
262
100
AcDbEntity
  8
INTFCLR_3
100
AcDbLine
 62
7
  6
CONTINUOUS
 10
38.5817040057
 20
84.9604485777
 11
38.5817040057
 21
82.4604485777
  0
LINE
  5
263
100
AcDbEntity
  8
INTFCLR_3
100
AcDbLine
 62
7
  6
CONTINUOUS
 10
39.1254862631
 20
84.9604485777
 11
39.1254862631
 21
82.4604485777
  0
LINE
  5
264
100
AcDbEntity
  8
INTFCLR_3
100
AcDbLine
 62
7
  6
CONTINUOUS
 10
39.5205281479
 20
86.0604485777
 11
39.5205281479
 21
82.4604485777
  0
LINE
  5
265
100
AcDbEntity
  8
INTFCLR_3
100
AcDbLine
 62
7
  6
CONTINUOUS
 10
39.6248504768
 20
78.4604485777
 11
39.6248504768
 21
82.4604485777
  0
LINE
  5
266
100
AcDbEntity
  8
INTFCLR_3
100
AcDbLine
 62
7
  6
CONTINUOUS
 10
40.1534469951
 20
84.9604485777
 11
40.1534469951
 21
78.4604485777
  0
LINE
  5
267
100
AcDbEntity
  8
INTFCLR_3
100
AcDbLine
 62
7
  6
CONTINUOUS
 10
40.6533365049
 20
82.4604485777
 11
40.6533365049
 21
78.4604485777
  0
LINE
  5
268
100
AcDbEntity
  8
INTFCLR_3
100
AcDbLine
 62
7
  6
CONTINUOUS
 10
41.0204443782
 20
86.0604485777
 11
41.0204443782
 21
82.4604485777
  0
LINE
  5
269
100
AcDbEntity
  8
INTFCLR_3
100
AcDbLine
 62
7
  6
CONTINUOUS
 10
41.1004862631
 20
168.8854485777
 11
41.1004862631
 21
166.1854485777
  0
LINE
  5
26A
100
AcDbEntity
  8
INTFCLR_3
100
AcDbLine
 62
7
  6
CONTINUOUS
 10
41.1819071706
 20
84.9604485777
 11
41.1819071706
 21
78.4604485777
  0
LINE
  5
26B
100
AcDbEntity
  8
INTFCLR_3
100
AcDbLine
 62
7
  6
CONTINUOUS
 10
22.3504862631
 20
109.7354485777
 11
21.4504862631
 21
108.1854485777
  0
LINE
  5
26C
100
AcDbEntity
  8
INTFCLR_3
100
AcDbLine
 62
7
  6
CONTINUOUS
 10
96.6004862631
 20
75.2854485777
 11
95.0004862631
 21
75.2854485777
  0
LINE
  5
26D
100
AcDbEntity
  8
INTFCLR_3
100
AcDbLine
 62
7
  6
CONTINUOUS
 10
158.4504862631
 20
75.7854485777
 11
155.8504862631
 21
75.7854485777
  0
LINE
  5
26E
100
AcDbEntity
  8
INTFCLR_3
100
AcDbLine
 62
7
  6
CONTINUOUS
 10
154.0504443782
 20
75.7854485777
 11
152.5505281479
 21
75.7854485777
  0
LINE
  5
26F
100
AcDbEntity
  8
INTFCLR_3
100
AcDbLine
 62
7
  6
CONTINUOUS
 10
21.3504862631
 20
75.7854485777
 11
18.7504862631
 21
75.7854485777
  0
LINE
  5
270
100
AcDbEntity
  8
INTFCLR_3
100
AcDbLine
 62
7
  6
CONTINUOUS
 10
96.6004862631
 20
75.8854960472
 11
95.0004862631
 21
75.8854960472
  0
LINE
  5
271
100
AcDbEntity
  8
INTFCLR_3
100
AcDbLine
 62
7
  6
CONTINUOUS
 10
158.4504862631
 20
76.410494651
 11
155.8504862631
 21
76.410494651
  0
LINE
  5
272
100
AcDbEntity
  8
INTFCLR_3
100
AcDbLine
 62
7
  6
CONTINUOUS
 10
21.3504862631
 20
76.410494651
 11
18.7504862631
 21
76.410494651
  0
LINE
  5
273
100
AcDbEntity
  8
INTFCLR_3
100
AcDbLine
 62
7
  6
CONTINUOUS
 10
158.4504862631
 20
77.2354485777
 11
155.8504862631
 21
77.2354485777
  0
LINE
  5
274
100
AcDbEntity
  8
INTFCLR_3
100
AcDbLine
 62
7
  6
CONTINUOUS
 10
21.3504862631
 20
77.2354485777
 11
18.7504862631
 21
77.2354485777
  0
LINE
  5
275
100
AcDbEntity
  8
INTFCLR_3
100
AcDbLine
 62
7
  6
CONTINUOUS
 10
96.6004862631
 20
77.5854011082
 11
95.0004862631
 21
77.5854011082
  0
LINE
  5
276
100
AcDbEntity
  8
INTFCLR_3
100
AcDbLine
 62
7
  6
CONTINUOUS
 10
158.4504862631
 20
78.0604025043
 11
155.8504862631
 21
78.0604025043
  0
LINE
  5
277
100
AcDbEntity
  8
INTFCLR_3
100
AcDbLine
 62
7
  6
CONTINUOUS
 10
21.3504862631
 20
78.0604025043
 11
18.7504862631
 21
78.0604025043
  0
LINE
  5
278
100
AcDbEntity
  8
INTFCLR_3
100
AcDbLine
 62
7
  6
CONTINUOUS
 10
156.3504862631
 20
78.1854485777
 11
20.8504862631
 21
78.1854485777
  0
LINE
  5
279
100
AcDbEntity
  8
INTFCLR_3
100
AcDbLine
 62
7
  6
CONTINUOUS
 10
41.8004862631
 20
82.4604485777
 11
41.8004862631
 21
78.4604485777
  0
LINE
  5
27A
100
AcDbEntity
  8
INTFCLR_3
100
AcDbLine
 62
7
  6
CONTINUOUS
 10
42.2595781918
 20
181.7854485777
 11
42.2595781918
 21
168.8854485777
  0
LINE
  5
27B
100
AcDbEntity
  8
INTFCLR_3
100
AcDbLine
 62
7
  6
CONTINUOUS
 10
43.5854862631
 20
181.7854485777
 11
43.5854862631
 21
168.8854485777
  0
LINE
  5
27C
100
AcDbEntity
  8
INTFCLR_3
100
AcDbLine
 62
7
  6
CONTINUOUS
 10
44.9113943344
 20
181.7854485777
 11
44.9113943344
 21
168.8854485777
  0
LINE
  5
27D
100
AcDbEntity
  8
INTFCLR_3
100
AcDbLine
 62
7
  6
CONTINUOUS
 10
46.1004862631
 20
168.8854485777
 11
46.1004862631
 21
166.1854485777
  0
LINE
  5
27E
100
AcDbEntity
  8
INTFCLR_3
100
AcDbLine
 62
7
  6
CONTINUOUS
 10
155.8504862631
 20
78.4604485777
 11
21.3504862631
 21
78.4604485777
  0
LINE
  5
27F
100
AcDbEntity
  8
INTFCLR_3
100
AcDbLine
 62
7
  6
CONTINUOUS
 10
85.2504862631
 20
79.5854485777
 11
73.4504862631
 21
79.5854485777
  0
LINE
  5
280
100
AcDbEntity
  8
INTFCLR_3
100
AcDbLine
 62
7
  6
CONTINUOUS
 10
72.7504862631
 20
79.5854485777
 11
60.9504862631
 21
79.5854485777
  0
LINE
  5
281
100
AcDbEntity
  8
INTFCLR_3
100
AcDbLine
 62
7
  6
CONTINUOUS
 10
60.2504862631
 20
79.5854485777
 11
48.4504862631
 21
79.5854485777
  0
LINE
  5
282
100
AcDbEntity
  8
INTFCLR_3
100
AcDbLine
 62
7
  6
CONTINUOUS
 10
102.3004862631
 20
80.1854485777
 11
95.5004862631
 21
80.1854485777
  0
LINE
  5
283
100
AcDbEntity
  8
INTFCLR_3
100
AcDbLine
 62
7
  6
CONTINUOUS
 10
36.4004862631
 20
80.3604485777
 11
33.3004862631
 21
80.3604485777
  0
LINE
  5
284
100
AcDbEntity
  8
INTFCLR_3
100
AcDbLine
 62
7
  6
CONTINUOUS
 10
158.4504862631
 20
81.1854485777
 11
18.7504862631
 21
81.1854485777
  0
LINE
  5
285
100
AcDbEntity
  8
INTFCLR_3
100
AcDbLine
 62
7
  6
CONTINUOUS
 10
27.9004465607
 20
82.4604485777
 11
41.8004862631
 21
82.4604485777
  0
LINE
  5
286
100
AcDbEntity
  8
INTFCLR_3
100
AcDbLine
 62
7
  6
CONTINUOUS
 10
85.2504862631
 20
82.8604485777
 11
73.4504862631
 21
82.8604485777
  0
LINE
  5
287
100
AcDbEntity
  8
INTFCLR_3
100
AcDbLine
 62
7
  6
CONTINUOUS
 10
72.7504862631
 20
82.8604485777
 11
60.9504862631
 21
82.8604485777
  0
LINE
  5
288
100
AcDbEntity
  8
INTFCLR_3
100
AcDbLine
 62
7
  6
CONTINUOUS
 10
60.2504862631
 20
82.8604485777
 11
48.4504862631
 21
82.8604485777
  0
LINE
  5
289
100
AcDbEntity
  8
INTFCLR_3
100
AcDbLine
 62
7
  6
CONTINUOUS
 10
158.4504862631
 20
83.0854485777
 11
155.6504862631
 21
83.0854485777
  0
LINE
  5
28A
100
AcDbEntity
  8
INTFCLR_3
100
AcDbLine
 62
7
  6
CONTINUOUS
 10
21.5504862631
 20
83.0854485777
 11
18.7504862631
 21
83.0854485777
  0
LINE
  5
28B
100
AcDbEntity
  8
INTFCLR_3
100
AcDbLine
 62
7
  6
CONTINUOUS
 10
158.3504862631
 20
84.3854485777
 11
155.6504862631
 21
84.3854485777
  0
LINE
  5
28C
100
AcDbEntity
  8
INTFCLR_3
100
AcDbLine
 62
7
  6
CONTINUOUS
 10
21.5504862631
 20
84.3854485777
 11
18.8504862631
 21
84.3854485777
  0
LINE
  5
28D
100
AcDbEntity
  8
INTFCLR_3
100
AcDbLine
 62
7
  6
CONTINUOUS
 10
48.4504862631
 20
82.8604485777
 11
48.4504862631
 21
79.5854485777
  0
LINE
  5
28E
100
AcDbEntity
  8
INTFCLR_3
100
AcDbLine
 62
7
  6
CONTINUOUS
 10
49.1004862631
 20
168.8854485777
 11
49.1004862631
 21
181.7854485777
  0
LINE
  5
28F
100
AcDbEntity
  8
INTFCLR_3
100
AcDbLine
 62
7
  6
CONTINUOUS
 10
50.7799563818
 20
181.7854485777
 11
50.7799563818
 21
168.8854485777
  0
LINE
  5
290
100
AcDbEntity
  8
INTFCLR_3
100
AcDbLine
 62
7
  6
CONTINUOUS
 10
50.8505222617
 20
79.5854485777
 11
50.8505222617
 21
78.4604485777
  0
LINE
  5
291
100
AcDbEntity
  8
INTFCLR_3
100
AcDbLine
 62
7
  6
CONTINUOUS
 10
52.4004862631
 20
181.7854485777
 11
52.4004862631
 21
168.8854485777
  0
LINE
  5
292
100
AcDbEntity
  8
INTFCLR_3
100
AcDbLine
 62
7
  6
CONTINUOUS
 10
41.1819071706
 20
84.9604485777
 11
28.5190653555
 21
84.9604485777
  0
LINE
  5
293
100
AcDbEntity
  8
INTFCLR_3
100
AcDbLine
 62
7
  6
CONTINUOUS
 10
158.3504862631
 20
85.3854485777
 11
157.6504862631
 21
85.3854485777
  0
LINE
  5
294
100
AcDbEntity
  8
INTFCLR_3
100
AcDbLine
 62
7
  6
CONTINUOUS
 10
19.5504862631
 20
85.3854485777
 11
18.8504862631
 21
85.3854485777
  0
LINE
  5
295
100
AcDbEntity
  8
INTFCLR_3
100
AcDbLine
 62
7
  6
CONTINUOUS
 10
41.0204862631
 20
86.0604485777
 11
39.5204862631
 21
86.0604485777
  0
LINE
  5
296
100
AcDbEntity
  8
INTFCLR_3
100
AcDbLine
 62
7
  6
CONTINUOUS
 10
38.3504862631
 20
86.0604485777
 11
31.3505281479
 21
86.0604485777
  0
LINE
  5
297
100
AcDbEntity
  8
INTFCLR_3
100
AcDbLine
 62
7
  6
CONTINUOUS
 10
30.1804862631
 20
86.0604485777
 11
28.6804862631
 21
86.0604485777
  0
LINE
  5
298
100
AcDbEntity
  8
INTFCLR_3
100
AcDbLine
 62
7
  6
CONTINUOUS
 10
158.3504862631
 20
86.6854485777
 11
157.6504862631
 21
86.6854485777
  0
LINE
  5
299
100
AcDbEntity
  8
INTFCLR_3
100
AcDbLine
 62
7
  6
CONTINUOUS
 10
19.5504862631
 20
86.6854485777
 11
18.8504862631
 21
86.6854485777
  0
LINE
  5
29A
100
AcDbEntity
  8
INTFCLR_3
100
AcDbLine
 62
7
  6
CONTINUOUS
 10
158.3504862631
 20
87.6854485777
 11
157.6504862631
 21
87.6854485777
  0
LINE
  5
29B
100
AcDbEntity
  8
INTFCLR_3
100
AcDbLine
 62
7
  6
CONTINUOUS
 10
19.5504862631
 20
87.6854485777
 11
18.8504862631
 21
87.6854485777
  0
LINE
  5
29C
100
AcDbEntity
  8
INTFCLR_3
100
AcDbLine
 62
7
  6
CONTINUOUS
 10
158.3504862631
 20
88.9854485777
 11
157.6504862631
 21
88.9854485777
  0
LINE
  5
29D
100
AcDbEntity
  8
INTFCLR_3
100
AcDbLine
 62
7
  6
CONTINUOUS
 10
19.5504862631
 20
88.9854485777
 11
18.8504862631
 21
88.9854485777
  0
LINE
  5
29E
100
AcDbEntity
  8
INTFCLR_3
100
AcDbLine
 62
7
  6
CONTINUOUS
 10
102.3004862631
 20
89.1854485777
 11
95.5004862631
 21
89.1854485777
  0
LINE
  5
29F
100
AcDbEntity
  8
INTFCLR_3
100
AcDbLine
 62
7
  6
CONTINUOUS
 10
158.3504862631
 20
89.9854485777
 11
157.6504862631
 21
89.9854485777
  0
LINE
  5
2A0
100
AcDbEntity
  8
INTFCLR_3
100
AcDbLine
 62
7
  6
CONTINUOUS
 10
19.5504862631
 20
89.9854485777
 11
18.8504862631
 21
89.9854485777
  0
LINE
  5
2A1
100
AcDbEntity
  8
INTFCLR_3
100
AcDbLine
 62
7
  6
CONTINUOUS
 10
55.0704862631
 20
181.7854485777
 11
55.0704862631
 21
168.8854485777
  0
LINE
  5
2A2
100
AcDbEntity
  8
INTFCLR_3
100
AcDbLine
 62
7
  6
CONTINUOUS
 10
55.3504862631
 20
123.9854485777
 11
55.3504862631
 21
117.9854485777
  0
LINE
  5
2A3
100
AcDbEntity
  8
INTFCLR_3
100
AcDbLine
 62
7
  6
CONTINUOUS
 10
56.4254862631
 20
181.7854485777
 11
56.4254862631
 21
168.8854485777
  0
LINE
  5
2A4
100
AcDbEntity
  8
INTFCLR_3
100
AcDbLine
 62
7
  6
CONTINUOUS
 10
56.600442755
 20
93.6854485777
 11
56.600442755
 21
90.6854485777
  0
LINE
  5
2A5
100
AcDbEntity
  8
INTFCLR_3
100
AcDbLine
 62
7
  6
CONTINUOUS
 10
57.8504502645
 20
79.5854485777
 11
57.8504502645
 21
78.4604485777
  0
LINE
  5
2A6
100
AcDbEntity
  8
INTFCLR_3
100
AcDbLine
 62
7
  6
CONTINUOUS
 10
58.2254862631
 20
181.7854485777
 11
58.2254862631
 21
163.7854485777
  0
LINE
  5
2A7
100
AcDbEntity
  8
INTFCLR_3
100
AcDbLine
 62
7
  6
CONTINUOUS
 10
58.6004862631
 20
166.1854485777
 11
58.6004862631
 21
117.9854485777
  0
LINE
  5
2A8
100
AcDbEntity
  8
INTFCLR_3
100
AcDbLine
 62
7
  6
CONTINUOUS
 10
18.7504862631
 20
90.6854485777
 11
158.4504862631
 21
90.6854485777
  0
LINE
  5
2A9
100
AcDbEntity
  8
INTFCLR_3
100
AcDbLine
 62
7
  6
CONTINUOUS
 10
158.3504862631
 20
91.2854485777
 11
157.6504862631
 21
91.2854485777
  0
LINE
  5
2AA
100
AcDbEntity
  8
INTFCLR_3
100
AcDbLine
 62
7
  6
CONTINUOUS
 10
19.5504862631
 20
91.2854485777
 11
18.8504862631
 21
91.2854485777
  0
LINE
  5
2AB
100
AcDbEntity
  8
INTFCLR_3
100
AcDbLine
 62
7
  6
CONTINUOUS
 10
158.3504862631
 20
92.2854485777
 11
157.6504862631
 21
92.2854485777
  0
LINE
  5
2AC
100
AcDbEntity
  8
INTFCLR_3
100
AcDbLine
 62
7
  6
CONTINUOUS
 10
19.5504862631
 20
92.2854485777
 11
18.8504862631
 21
92.2854485777
  0
LINE
  5
2AD
100
AcDbEntity
  8
INTFCLR_3
100
AcDbLine
 62
7
  6
CONTINUOUS
 10
158.3504862631
 20
93.5854485777
 11
157.6504862631
 21
93.5854485777
  0
LINE
  5
2AE
100
AcDbEntity
  8
INTFCLR_3
100
AcDbLine
 62
7
  6
CONTINUOUS
 10
19.5504862631
 20
93.5854485777
 11
18.8504862631
 21
93.5854485777
  0
LINE
  5
2AF
100
AcDbEntity
  8
INTFCLR_3
100
AcDbLine
 62
7
  6
CONTINUOUS
 10
149.8004862631
 20
93.6854485777
 11
117.4004862631
 21
93.6854485777
  0
LINE
  5
2B0
100
AcDbEntity
  8
INTFCLR_3
100
AcDbLine
 62
7
  6
CONTINUOUS
 10
104.9004862631
 20
93.6854485777
 11
72.3004862631
 21
93.6854485777
  0
LINE
  5
2B1
100
AcDbEntity
  8
INTFCLR_3
100
AcDbLine
 62
7
  6
CONTINUOUS
 10
59.8004862631
 20
93.6854485777
 11
27.4004862631
 21
93.6854485777
  0
LINE
  5
2B2
100
AcDbEntity
  8
INTFCLR_3
100
AcDbLine
 62
7
  6
CONTINUOUS
 10
158.3504862631
 20
94.5854485777
 11
157.6504862631
 21
94.5854485777
  0
LINE
  5
2B3
100
AcDbEntity
  8
INTFCLR_3
100
AcDbLine
 62
7
  6
CONTINUOUS
 10
19.5504862631
 20
94.5854485777
 11
18.8504862631
 21
94.5854485777
  0
LINE
  5
2B4
100
AcDbEntity
  8
INTFCLR_3
100
AcDbLine
 62
7
  6
CONTINUOUS
 10
158.3504862631
 20
95.8854485777
 11
157.6504862631
 21
95.8854485777
  0
LINE
  5
2B5
100
AcDbEntity
  8
INTFCLR_3
100
AcDbLine
 62
7
  6
CONTINUOUS
 10
19.5504862631
 20
95.8854485777
 11
18.8504862631
 21
95.8854485777
  0
LINE
  5
2B6
100
AcDbEntity
  8
INTFCLR_3
100
AcDbLine
 62
7
  6
CONTINUOUS
 10
59.8004862631
 20
116.1854485777
 11
59.8004862631
 21
93.6854485777
  0
LINE
  5
2B7
100
AcDbEntity
  8
INTFCLR_3
100
AcDbLine
 62
7
  6
CONTINUOUS
 10
59.8504862631
 20
181.7854485777
 11
59.8504862631
 21
163.4854485777
  0
LINE
  5
2B8
100
AcDbEntity
  8
INTFCLR_3
100
AcDbLine
 62
7
  6
CONTINUOUS
 10
60.2504862631
 20
82.8604485777
 11
60.2504862631
 21
79.5854485777
  0
LINE
  5
2B9
100
AcDbEntity
  8
INTFCLR_3
100
AcDbLine
 62
7
  6
CONTINUOUS
 10
60.9504862631
 20
82.8604485777
 11
60.9504862631
 21
79.5854485777
  0
LINE
  5
2BA
100
AcDbEntity
  8
INTFCLR_3
100
AcDbLine
 62
7
  6
CONTINUOUS
 10
61.1005212146
 20
111.9854485777
 11
61.1004862631
 21
81.1854485777
  0
LINE
  5
2BB
100
AcDbEntity
  8
INTFCLR_3
100
AcDbLine
 62
7
  6
CONTINUOUS
 10
61.3463656739
 20
181.7854485777
 11
61.3463656739
 21
175.7854485777
  0
LINE
  5
2BC
100
AcDbEntity
  8
INTFCLR_3
100
AcDbLine
 62
7
  6
CONTINUOUS
 10
62.2004862631
 20
163.4854485777
 11
62.2004862631
 21
135.4854485777
  0
LINE
  5
2BD
100
AcDbEntity
  8
INTFCLR_3
100
AcDbLine
 62
7
  6
CONTINUOUS
 10
62.3111680979
 20
168.8854485777
 11
62.3111680979
 21
116.1854485777
  0
LINE
  5
2BE
100
AcDbEntity
  8
INTFCLR_3
100
AcDbLine
 62
7
  6
CONTINUOUS
 10
62.3219045161
 20
181.7854485777
 11
62.3219045161
 21
168.8855071694
  0
LINE
  5
2BF
100
AcDbEntity
  8
INTFCLR_3
100
AcDbLine
 62
7
  6
CONTINUOUS
 10
63.3505222617
 20
79.5854485777
 11
63.3505222617
 21
78.4604485777
  0
LINE
  5
2C0
100
AcDbEntity
  8
INTFCLR_3
100
AcDbLine
 62
7
  6
CONTINUOUS
 10
63.4884142916
 20
135.4854485777
 11
63.4884142916
 21
116.1854485777
  0
LINE
  5
2C1
100
AcDbEntity
  8
INTFCLR_3
100
AcDbLine
 62
7
  6
CONTINUOUS
 10
63.5004862631
 20
116.1854485777
 11
63.5004862631
 21
111.9854485777
  0
LINE
  5
2C2
100
AcDbEntity
  8
INTFCLR_3
100
AcDbLine
 62
7
  6
CONTINUOUS
 10
63.5505139576
 20
116.1854485777
 11
63.5505139576
 21
90.6854485777
  0
LINE
  5
2C3
100
AcDbEntity
  8
INTFCLR_3
100
AcDbLine
 62
7
  6
CONTINUOUS
 10
64.0004862631
 20
181.7854485777
 11
64.0004862631
 21
175.7854485777
  0
LINE
  5
2C4
100
AcDbEntity
  8
INTFCLR_3
100
AcDbLine
 62
7
  6
CONTINUOUS
 10
64.6004862631
 20
105.6854485777
 11
64.6004862631
 21
90.6854485777
  0
LINE
  5
2C5
100
AcDbEntity
  8
INTFCLR_3
100
AcDbLine
 62
7
  6
CONTINUOUS
 10
64.6754862631
 20
116.1854485777
 11
64.6754862631
 21
90.6854485777
  0
LINE
  5
2C6
100
AcDbEntity
  8
INTFCLR_3
100
AcDbLine
 62
7
  6
CONTINUOUS
 10
64.7726059025
 20
135.4854485777
 11
64.7726059025
 21
116.1854485777
  0
LINE
  5
2C7
100
AcDbEntity
  8
INTFCLR_3
100
AcDbLine
 62
7
  6
CONTINUOUS
 10
65.1384188757
 20
175.7854485777
 11
65.1384188757
 21
116.1854485777
  0
LINE
  5
2C8
100
AcDbEntity
  8
INTFCLR_3
100
AcDbLine
 62
7
  6
CONTINUOUS
 10
60.2164129868
 20
168.8854485777
 11
59.5954862631
 21
116.1854485777
  0
LINE
  5
2C9
100
AcDbEntity
  8
INTFCLR_3
100
AcDbLine
 62
7
  6
CONTINUOUS
 10
62.5633953097
 20
135.4854485777
 11
62.1704862631
 21
116.1854485777
  0
LINE
  5
2CA
100
AcDbEntity
  8
INTFCLR_3
100
AcDbLine
 62
7
  6
CONTINUOUS
 10
158.3504862631
 20
96.8854485777
 11
157.6504862631
 21
96.8854485777
  0
LINE
  5
2CB
100
AcDbEntity
  8
INTFCLR_3
100
AcDbLine
 62
7
  6
CONTINUOUS
 10
19.5504862631
 20
96.8854485777
 11
18.8504862631
 21
96.8854485777
  0
LINE
  5
2CC
100
AcDbEntity
  8
INTFCLR_3
100
AcDbLine
 62
7
  6
CONTINUOUS
 10
158.3504862631
 20
98.1854485777
 11
157.6504862631
 21
98.1854485777
  0
LINE
  5
2CD
100
AcDbEntity
  8
INTFCLR_3
100
AcDbLine
 62
7
  6
CONTINUOUS
 10
19.5504862631
 20
98.1854485777
 11
18.8504862631
 21
98.1854485777
  0
LINE
  5
2CE
100
AcDbEntity
  8
INTFCLR_3
100
AcDbLine
 62
7
  6
CONTINUOUS
 10
116.1004862631
 20
98.9854485777
 11
106.1004862631
 21
98.9854485777
  0
LINE
  5
2CF
100
AcDbEntity
  8
INTFCLR_3
100
AcDbLine
 62
7
  6
CONTINUOUS
 10
71.1004862631
 20
98.9854485777
 11
61.1005212146
 21
98.9854485777
  0
LINE
  5
2D0
100
AcDbEntity
  8
INTFCLR_3
100
AcDbLine
 62
7
  6
CONTINUOUS
 10
158.3504862631
 20
99.1854485777
 11
157.6504862631
 21
99.1854485777
  0
LINE
  5
2D1
100
AcDbEntity
  8
INTFCLR_3
100
AcDbLine
 62
7
  6
CONTINUOUS
 10
19.5504862631
 20
99.1854485777
 11
18.8504862631
 21
99.1854485777
  0
LINE
  5
2D2
100
AcDbEntity
  8
INTFCLR_3
100
AcDbLine
 62
7
  6
CONTINUOUS
 10
158.3504862631
 20
100.4854485777
 11
157.6504862631
 21
100.4854485777
  0
LINE
  5
2D3
100
AcDbEntity
  8
INTFCLR_3
100
AcDbLine
 62
7
  6
CONTINUOUS
 10
157.2504862631
 20
100.4854485777
 11
19.9504862631
 21
100.4854485777
  0
LINE
  5
2D4
100
AcDbEntity
  8
INTFCLR_3
100
AcDbLine
 62
7
  6
CONTINUOUS
 10
19.5504862631
 20
100.4854485777
 11
18.8504862631
 21
100.4854485777
  0
LINE
  5
2D5
100
AcDbEntity
  8
INTFCLR_3
100
AcDbLine
 62
7
  6
CONTINUOUS
 10
158.3504862631
 20
101.4854485777
 11
157.6504862631
 21
101.4854485777
  0
LINE
  5
2D6
100
AcDbEntity
  8
INTFCLR_3
100
AcDbLine
 62
7
  6
CONTINUOUS
 10
19.5504862631
 20
101.4854485777
 11
18.8504862631
 21
101.4854485777
  0
LINE
  5
2D7
100
AcDbEntity
  8
INTFCLR_3
100
AcDbLine
 62
7
  6
CONTINUOUS
 10
69.651179448
 20
135.4854485777
 11
70.0304862631
 21
116.1854485777
  0
LINE
  5
2D8
100
AcDbEntity
  8
INTFCLR_3
100
AcDbLine
 62
7
  6
CONTINUOUS
 10
67.0784188757
 20
175.7854485777
 11
67.0784188757
 21
116.1854485777
  0
LINE
  5
2D9
100
AcDbEntity
  8
INTFCLR_3
100
AcDbLine
 62
7
  6
CONTINUOUS
 10
67.4451789956
 20
135.4854485777
 11
67.4451789956
 21
116.1854485777
  0
LINE
  5
2DA
100
AcDbEntity
  8
INTFCLR_3
100
AcDbLine
 62
7
  6
CONTINUOUS
 10
67.5254707867
 20
116.1854485777
 11
67.5254707867
 21
90.6854485777
  0
LINE
  5
2DB
100
AcDbEntity
  8
INTFCLR_3
100
AcDbLine
 62
7
  6
CONTINUOUS
 10
67.6004862631
 20
105.6854485777
 11
67.6004862631
 21
90.6854485777
  0
LINE
  5
2DC
100
AcDbEntity
  8
INTFCLR_3
100
AcDbLine
 62
7
  6
CONTINUOUS
 10
68.2004862631
 20
181.7854485777
 11
68.2004862631
 21
175.7854485777
  0
LINE
  5
2DD
100
AcDbEntity
  8
INTFCLR_3
100
AcDbLine
 62
7
  6
CONTINUOUS
 10
68.6504585686
 20
116.1854485777
 11
68.6504585686
 21
90.6854485777
  0
LINE
  5
2DE
100
AcDbEntity
  8
INTFCLR_3
100
AcDbLine
 62
7
  6
CONTINUOUS
 10
68.7004862631
 20
116.1854485777
 11
68.7004862631
 21
111.9854485777
  0
LINE
  5
2DF
100
AcDbEntity
  8
INTFCLR_3
100
AcDbLine
 62
7
  6
CONTINUOUS
 10
68.8595177762
 20
135.4854485777
 11
68.8595177762
 21
116.1854485777
  0
LINE
  5
2E0
100
AcDbEntity
  8
INTFCLR_3
100
AcDbLine
 62
7
  6
CONTINUOUS
 10
69.8754862631
 20
181.7854485777
 11
69.8754862631
 21
168.8854485777
  0
LINE
  5
2E1
100
AcDbEntity
  8
INTFCLR_3
100
AcDbLine
 62
7
  6
CONTINUOUS
 10
69.8849947981
 20
168.8854485777
 11
69.8849947981
 21
116.1854485777
  0
LINE
  5
2E2
100
AcDbEntity
  8
INTFCLR_3
100
AcDbLine
 62
7
  6
CONTINUOUS
 10
70.0004862631
 20
163.4854485777
 11
70.0004862631
 21
135.4854485777
  0
LINE
  5
2E3
100
AcDbEntity
  8
INTFCLR_3
100
AcDbLine
 62
7
  6
CONTINUOUS
 10
70.3504502645
 20
79.5854485777
 11
70.3504502645
 21
78.4604485777
  0
LINE
  5
2E4
100
AcDbEntity
  8
INTFCLR_3
100
AcDbLine
 62
7
  6
CONTINUOUS
 10
70.8563656739
 20
175.7854485777
 11
70.8563656739
 21
181.7854485777
  0
LINE
  5
2E5
100
AcDbEntity
  8
INTFCLR_3
100
AcDbLine
 62
7
  6
CONTINUOUS
 10
71.1004513115
 20
111.9854485777
 11
71.1004862631
 21
81.1854485777
  0
LINE
  5
2E6
100
AcDbEntity
  8
INTFCLR_3
100
AcDbLine
 62
7
  6
CONTINUOUS
 10
158.4504862631
 20
102.7854485777
 11
157.6504862631
 21
102.7854485777
  0
LINE
  5
2E7
100
AcDbEntity
  8
INTFCLR_3
100
AcDbLine
 62
7
  6
CONTINUOUS
 10
19.5504862631
 20
102.7854485777
 11
18.7504862631
 21
102.7854485777
  0
LINE
  5
2E8
100
AcDbEntity
  8
INTFCLR_3
100
AcDbLine
 62
7
  6
CONTINUOUS
 10
155.6004862631
 20
105.1854485777
 11
153.6004862631
 21
105.1854485777
  0
LINE
  5
2E9
100
AcDbEntity
  8
INTFCLR_3
100
AcDbLine
 62
7
  6
CONTINUOUS
 10
23.6004862631
 20
105.1854485777
 11
21.6004862631
 21
105.1854485777
  0
LINE
  5
2EA
100
AcDbEntity
  8
INTFCLR_3
100
AcDbLine
 62
7
  6
CONTINUOUS
 10
155.2504862631
 20
105.6854485777
 11
152.2504862631
 21
105.6854485777
  0
LINE
  5
2EB
100
AcDbEntity
  8
INTFCLR_3
100
AcDbLine
 62
7
  6
CONTINUOUS
 10
112.6004862631
 20
105.6854485777
 11
109.6004862631
 21
105.6854485777
  0
LINE
  5
2EC
100
AcDbEntity
  8
INTFCLR_3
100
AcDbLine
 62
7
  6
CONTINUOUS
 10
67.6004862631
 20
105.6854485777
 11
64.6004862631
 21
105.6854485777
  0
LINE
  5
2ED
100
AcDbEntity
  8
INTFCLR_3
100
AcDbLine
 62
7
  6
CONTINUOUS
 10
24.9504862631
 20
105.6854485777
 11
21.9504862631
 21
105.6854485777
  0
LINE
  5
2EE
100
AcDbEntity
  8
INTFCLR_3
100
AcDbLine
 62
7
  6
CONTINUOUS
 10
158.4504862631
 20
108.1854485777
 11
155.7504862631
 21
108.1854485777
  0
LINE
  5
2EF
100
AcDbEntity
  8
INTFCLR_3
100
AcDbLine
 62
7
  6
CONTINUOUS
 10
21.4504862631
 20
108.1854485777
 11
18.7504862631
 21
108.1854485777
  0
LINE
  5
2F0
100
AcDbEntity
  8
INTFCLR_3
100
AcDbLine
 62
7
  6
CONTINUOUS
 10
71.983849416
 20
168.8854485777
 11
72.6054862631
 21
116.1854485777
  0
LINE
  5
2F1
100
AcDbEntity
  8
INTFCLR_3
100
AcDbLine
 62
7
  6
CONTINUOUS
 10
72.3004862631
 20
116.1854485777
 11
72.3004862631
 21
93.6854485777
  0
LINE
  5
2F2
100
AcDbEntity
  8
INTFCLR_3
100
AcDbLine
 62
7
  6
CONTINUOUS
 10
72.3504862631
 20
181.7854485777
 11
72.3504862631
 21
163.4854485777
  0
LINE
  5
2F3
100
AcDbEntity
  8
INTFCLR_3
100
AcDbLine
 62
7
  6
CONTINUOUS
 10
72.7504862631
 20
82.8604485777
 11
72.7504862631
 21
79.5854485777
  0
LINE
  5
2F4
100
AcDbEntity
  8
INTFCLR_3
100
AcDbLine
 62
7
  6
CONTINUOUS
 10
73.4504862631
 20
82.8604485777
 11
73.4504862631
 21
79.5854485777
  0
LINE
  5
2F5
100
AcDbEntity
  8
INTFCLR_3
100
AcDbLine
 62
7
  6
CONTINUOUS
 10
73.6004862631
 20
166.1854485777
 11
73.6004862631
 21
117.9854485777
  0
LINE
  5
2F6
100
AcDbEntity
  8
INTFCLR_3
100
AcDbLine
 62
7
  6
CONTINUOUS
 10
73.9754862631
 20
181.7854485777
 11
73.9754862631
 21
163.7854485777
  0
LINE
  5
2F7
100
AcDbEntity
  8
INTFCLR_3
100
AcDbLine
 62
7
  6
CONTINUOUS
 10
75.6004862631
 20
93.6854485777
 11
75.6004862631
 21
90.6854485777
  0
LINE
  5
2F8
100
AcDbEntity
  8
INTFCLR_3
100
AcDbLine
 62
7
  6
CONTINUOUS
 10
75.7754862631
 20
181.7854485777
 11
75.7754862631
 21
168.8854485777
  0
LINE
  5
2F9
100
AcDbEntity
  8
INTFCLR_3
100
AcDbLine
 62
7
  6
CONTINUOUS
 10
75.8505222617
 20
79.5854485777
 11
75.8505222617
 21
78.4604485777
  0
LINE
  5
2FA
100
AcDbEntity
  8
INTFCLR_3
100
AcDbLine
 62
7
  6
CONTINUOUS
 10
76.8504862631
 20
123.9854485777
 11
76.8504862631
 21
117.9854485777
  0
LINE
  5
2FB
100
AcDbEntity
  8
INTFCLR_3
100
AcDbLine
 62
7
  6
CONTINUOUS
 10
77.1104862631
 20
181.7854485777
 11
77.1104862631
 21
168.8854485777
  0
LINE
  5
2FC
100
AcDbEntity
  8
INTFCLR_3
100
AcDbLine
 62
7
  6
CONTINUOUS
 10
154.8504862631
 20
109.7354485777
 11
153.6004862631
 21
109.7354485777
  0
LINE
  5
2FD
100
AcDbEntity
  8
INTFCLR_3
100
AcDbLine
 62
7
  6
CONTINUOUS
 10
23.6004862631
 20
109.7354485777
 11
22.3504862631
 21
109.7354485777
  0
LINE
  5
2FE
100
AcDbEntity
  8
INTFCLR_3
100
AcDbLine
 62
7
  6
CONTINUOUS
 10
116.1004862631
 20
111.9854485777
 11
106.1004862631
 21
111.9854485777
  0
LINE
  5
2FF
100
AcDbEntity
  8
INTFCLR_3
100
AcDbLine
 62
7
  6
CONTINUOUS
 10
71.1004862631
 20
111.9854485777
 11
61.1004862631
 21
111.9854485777
  0
LINE
  5
300
100
AcDbEntity
  8
INTFCLR_3
100
AcDbLine
 62
7
  6
CONTINUOUS
 10
79.7804862631
 20
181.7854485777
 11
79.7804862631
 21
168.8854485777
  0
LINE
  5
301
100
AcDbEntity
  8
INTFCLR_3
100
AcDbLine
 62
7
  6
CONTINUOUS
 10
81.4010161443
 20
181.7854485777
 11
81.4010161443
 21
168.8854485777
  0
LINE
  5
302
100
AcDbEntity
  8
INTFCLR_3
100
AcDbLine
 62
7
  6
CONTINUOUS
 10
82.8504502645
 20
79.5854485777
 11
82.8504502645
 21
78.4604485777
  0
LINE
  5
303
100
AcDbEntity
  8
INTFCLR_3
100
AcDbLine
 62
7
  6
CONTINUOUS
 10
83.0804862631
 20
168.8854485777
 11
83.0804862631
 21
181.7854485777
  0
LINE
  5
304
100
AcDbEntity
  8
INTFCLR_3
100
AcDbLine
 62
7
  6
CONTINUOUS
 10
158.4504862631
 20
116.1854485777
 11
18.7504862631
 21
116.1854485777
  0
LINE
  5
305
100
AcDbEntity
  8
INTFCLR_3
100
AcDbLine
 62
7
  6
CONTINUOUS
 10
148.6004862631
 20
117.9854485777
 11
118.6004862631
 21
117.9854485777
  0
LINE
  5
306
100
AcDbEntity
  8
INTFCLR_3
100
AcDbLine
 62
7
  6
CONTINUOUS
 10
103.6004862631
 20
117.9854485777
 11
73.6004862631
 21
117.9854485777
  0
LINE
  5
307
100
AcDbEntity
  8
INTFCLR_3
100
AcDbLine
 62
7
  6
CONTINUOUS
 10
58.6004862631
 20
117.9854485777
 11
28.6004862631
 21
117.9854485777
  0
LINE
  5
308
100
AcDbEntity
  8
INTFCLR_3
100
AcDbLine
 62
7
  6
CONTINUOUS
 10
85.2504862631
 20
82.8604485777
 11
85.2504862631
 21
79.5854485777
  0
LINE
  5
309
100
AcDbEntity
  8
INTFCLR_3
100
AcDbLine
 62
7
  6
CONTINUOUS
 10
86.1004862631
 20
168.8854485777
 11
86.1004862631
 21
166.1854485777
  0
LINE
  5
30A
100
AcDbEntity
  8
INTFCLR_3
100
AcDbLine
 62
7
  6
CONTINUOUS
 10
87.2695781918
 20
181.7854485777
 11
87.2695781918
 21
168.8854485777
  0
LINE
  5
30B
100
AcDbEntity
  8
INTFCLR_3
100
AcDbLine
 62
7
  6
CONTINUOUS
 10
88.5954862631
 20
181.7854485777
 11
88.5954862631
 21
168.8854485777
  0
LINE
  5
30C
100
AcDbEntity
  8
INTFCLR_3
100
AcDbLine
 62
7
  6
CONTINUOUS
 10
148.6004862631
 20
123.9854485777
 11
118.6004862631
 21
123.9854485777
  0
LINE
  5
30D
100
AcDbEntity
  8
INTFCLR_3
100
AcDbLine
 62
7
  6
CONTINUOUS
 10
103.6004862631
 20
123.9854485777
 11
73.6004862631
 21
123.9854485777
  0
LINE
  5
30E
100
AcDbEntity
  8
INTFCLR_3
100
AcDbLine
 62
7
  6
CONTINUOUS
 10
58.6004862631
 20
123.9854485777
 11
28.6004862631
 21
123.9854485777
  0
LINE
  5
30F
100
AcDbEntity
  8
INTFCLR_3
100
AcDbLine
 62
7
  6
CONTINUOUS
 10
89.9213943344
 20
181.7854485777
 11
89.9213943344
 21
168.8854485777
  0
LINE
  5
310
100
AcDbEntity
  8
INTFCLR_3
100
AcDbLine
 62
7
  6
CONTINUOUS
 10
91.1004862631
 20
168.8854485777
 11
91.1004862631
 21
166.1854485777
  0
LINE
  5
311
100
AcDbEntity
  8
INTFCLR_3
100
AcDbLine
 62
7
  6
CONTINUOUS
 10
94.1104862631
 20
168.8854485777
 11
94.1104862631
 21
181.7854485777
  0
LINE
  5
312
100
AcDbEntity
  8
INTFCLR_3
100
AcDbLine
 62
7
  6
CONTINUOUS
 10
94.6004862631
 20
71.6854485777
 11
94.6004862631
 21
70.4854485777
  0
LINE
  5
313
100
AcDbEntity
  8
INTFCLR_3
100
AcDbLine
 62
7
  6
CONTINUOUS
 10
94.9005280704
 20
70.4854485777
 11
94.9005280704
 21
69.1854485777
  0
LINE
  5
314
100
AcDbEntity
  8
INTFCLR_3
100
AcDbLine
 62
7
  6
CONTINUOUS
 10
95.0004862631
 20
78.4604485777
 11
95.0004862631
 21
75.2854485777
  0
LINE
  5
315
100
AcDbEntity
  8
INTFCLR_3
100
AcDbLine
 62
7
  6
CONTINUOUS
 10
95.5004862631
 20
89.1854485777
 11
95.5004862631
 21
71.6854485777
  0
LINE
  5
316
100
AcDbEntity
  8
INTFCLR_3
100
AcDbLine
 62
7
  6
CONTINUOUS
 10
95.7899563818
 20
181.7854485777
 11
95.7899563818
 21
168.8854485777
  0
LINE
  5
317
100
AcDbEntity
  8
INTFCLR_3
100
AcDbLine
 62
7
  6
CONTINUOUS
 10
95.9910624957
 20
70.4854485777
 11
95.9910624957
 21
69.1854485777
  0
LINE
  5
318
100
AcDbEntity
  8
INTFCLR_3
100
AcDbLine
 62
7
  6
CONTINUOUS
 10
96.6004862631
 20
78.4604485777
 11
96.6004862631
 21
75.2854485777
  0
LINE
  5
319
100
AcDbEntity
  8
INTFCLR_3
100
AcDbLine
 62
7
  6
CONTINUOUS
 10
97.4104862631
 20
181.7854485777
 11
97.4104862631
 21
168.8854485777
  0
LINE
  5
31A
100
AcDbEntity
  8
INTFCLR_3
100
AcDbLine
 62
7
  6
CONTINUOUS
 10
100.0804862631
 20
181.7854485777
 11
100.0804862631
 21
168.8854485777
  0
LINE
  5
31B
100
AcDbEntity
  8
INTFCLR_3
100
AcDbLine
 62
7
  6
CONTINUOUS
 10
100.3504862631
 20
123.9854485777
 11
100.3504862631
 21
117.9854485777
  0
LINE
  5
31C
100
AcDbEntity
  8
INTFCLR_3
100
AcDbLine
 62
7
  6
CONTINUOUS
 10
115.0004862631
 20
135.4854485777
 11
112.0625536504
 21
135.4854485777
  0
LINE
  5
31D
100
AcDbEntity
  8
INTFCLR_3
100
AcDbLine
 62
7
  6
CONTINUOUS
 10
110.1225536504
 20
135.4854485777
 11
107.2004862631
 21
135.4854485777
  0
LINE
  5
31E
100
AcDbEntity
  8
INTFCLR_3
100
AcDbLine
 62
7
  6
CONTINUOUS
 10
70.0004862631
 20
135.4854485777
 11
67.0784188757
 21
135.4854485777
  0
LINE
  5
31F
100
AcDbEntity
  8
INTFCLR_3
100
AcDbLine
 62
7
  6
CONTINUOUS
 10
65.1384188757
 20
135.4854485777
 11
62.2004862631
 21
135.4854485777
  0
LINE
  5
320
100
AcDbEntity
  8
INTFCLR_3
100
AcDbLine
 62
7
  6
CONTINUOUS
 10
101.4254862631
 20
181.7854485777
 11
101.4254862631
 21
168.8854485777
  0
LINE
  5
321
100
AcDbEntity
  8
INTFCLR_3
100
AcDbLine
 62
7
  6
CONTINUOUS
 10
101.600442755
 20
93.6854485777
 11
101.600442755
 21
90.6854485777
  0
LINE
  5
322
100
AcDbEntity
  8
INTFCLR_3
100
AcDbLine
 62
7
  6
CONTINUOUS
 10
102.3004862631
 20
89.1854485777
 11
102.3004862631
 21
71.6854485777
  0
LINE
  5
323
100
AcDbEntity
  8
INTFCLR_3
100
AcDbLine
 62
7
  6
CONTINUOUS
 10
103.2254862631
 20
181.7854485777
 11
103.2254862631
 21
163.7854485777
  0
LINE
  5
324
100
AcDbEntity
  8
INTFCLR_3
100
AcDbLine
 62
7
  6
CONTINUOUS
 10
103.6004862631
 20
166.1854485777
 11
103.6004862631
 21
117.9854485777
  0
LINE
  5
325
100
AcDbEntity
  8
INTFCLR_3
100
AcDbLine
 62
7
  6
CONTINUOUS
 10
104.8504862631
 20
181.7854485777
 11
104.8504862631
 21
163.4854485777
  0
LINE
  5
326
100
AcDbEntity
  8
INTFCLR_3
100
AcDbLine
 62
7
  6
CONTINUOUS
 10
104.9004862631
 20
116.1854485777
 11
104.9004862631
 21
93.6854485777
  0
LINE
  5
327
100
AcDbEntity
  8
INTFCLR_3
100
AcDbLine
 62
7
  6
CONTINUOUS
 10
106.1005212146
 20
111.9854485777
 11
106.1004862631
 21
81.1854485777
  0
LINE
  5
328
100
AcDbEntity
  8
INTFCLR_3
100
AcDbLine
 62
7
  6
CONTINUOUS
 10
106.3446068523
 20
181.7854485777
 11
106.3446068523
 21
175.7854485777
  0
LINE
  5
329
100
AcDbEntity
  8
INTFCLR_3
100
AcDbLine
 62
7
  6
CONTINUOUS
 10
107.2004862631
 20
163.4854485777
 11
107.2004862631
 21
135.4854485777
  0
LINE
  5
32A
100
AcDbEntity
  8
INTFCLR_3
100
AcDbLine
 62
7
  6
CONTINUOUS
 10
107.3140662926
 20
168.8854485777
 11
107.3140662926
 21
116.1854485777
  0
LINE
  5
32B
100
AcDbEntity
  8
INTFCLR_3
100
AcDbLine
 62
7
  6
CONTINUOUS
 10
107.3227019186
 20
181.7854485777
 11
107.3227019186
 21
168.8855071694
  0
LINE
  5
32C
100
AcDbEntity
  8
INTFCLR_3
100
AcDbLine
 62
7
  6
CONTINUOUS
 10
105.2171231102
 20
168.8854485777
 11
104.5954862631
 21
116.1854485777
  0
LINE
  5
32D
100
AcDbEntity
  8
INTFCLR_3
100
AcDbLine
 62
7
  6
CONTINUOUS
 10
108.34145475
 20
135.4854485777
 11
108.34145475
 21
116.1854485777
  0
LINE
  5
32E
100
AcDbEntity
  8
INTFCLR_3
100
AcDbLine
 62
7
  6
CONTINUOUS
 10
108.5004862631
 20
116.1854485777
 11
108.5004862631
 21
111.9854485777
  0
LINE
  5
32F
100
AcDbEntity
  8
INTFCLR_3
100
AcDbLine
 62
7
  6
CONTINUOUS
 10
108.5505139576
 20
116.1854485777
 11
108.5505139576
 21
90.6854485777
  0
LINE
  5
330
100
AcDbEntity
  8
INTFCLR_3
100
AcDbLine
 62
7
  6
CONTINUOUS
 10
109.0004862631
 20
181.7854485777
 11
109.0004862631
 21
175.7854485777
  0
LINE
  5
331
100
AcDbEntity
  8
INTFCLR_3
100
AcDbLine
 62
7
  6
CONTINUOUS
 10
109.6004862631
 20
105.6854485777
 11
109.6004862631
 21
90.6854485777
  0
LINE
  5
332
100
AcDbEntity
  8
INTFCLR_3
100
AcDbLine
 62
7
  6
CONTINUOUS
 10
109.6754862631
 20
116.1854485777
 11
109.6754862631
 21
90.6854485777
  0
LINE
  5
333
100
AcDbEntity
  8
INTFCLR_3
100
AcDbLine
 62
7
  6
CONTINUOUS
 10
109.7557935306
 20
135.4854485777
 11
109.7557935306
 21
116.1854485777
  0
LINE
  5
334
100
AcDbEntity
  8
INTFCLR_3
100
AcDbLine
 62
7
  6
CONTINUOUS
 10
110.1225536504
 20
175.7854485777
 11
110.1225536504
 21
116.1854485777
  0
LINE
  5
335
100
AcDbEntity
  8
INTFCLR_3
100
AcDbLine
 62
7
  6
CONTINUOUS
 10
110.9099051526
 20
70.4854485777
 11
110.9099051526
 21
69.1854485777
  0
LINE
  5
336
100
AcDbEntity
  8
INTFCLR_3
100
AcDbLine
 62
7
  6
CONTINUOUS
 10
112.0004444557
 20
70.4854485777
 11
112.0004444557
 21
69.1854485777
  0
LINE
  5
337
100
AcDbEntity
  8
INTFCLR_3
100
AcDbLine
 62
7
  6
CONTINUOUS
 10
112.0625536504
 20
175.7854485777
 11
112.0625536504
 21
116.1854485777
  0
LINE
  5
338
100
AcDbEntity
  8
INTFCLR_3
100
AcDbLine
 62
7
  6
CONTINUOUS
 10
112.3004862631
 20
71.6854485777
 11
112.3004862631
 21
70.4854485777
  0
LINE
  5
339
100
AcDbEntity
  8
INTFCLR_3
100
AcDbLine
 62
7
  6
CONTINUOUS
 10
112.4283666237
 20
135.4854485777
 11
112.4283666237
 21
116.1854485777
  0
LINE
  5
33A
100
AcDbEntity
  8
INTFCLR_3
100
AcDbLine
 62
7
  6
CONTINUOUS
 10
112.5254707867
 20
116.1854485777
 11
112.5254707867
 21
90.6854485777
  0
LINE
  5
33B
100
AcDbEntity
  8
INTFCLR_3
100
AcDbLine
 62
7
  6
CONTINUOUS
 10
112.6004862631
 20
105.6854485777
 11
112.6004862631
 21
90.6854485777
  0
LINE
  5
33C
100
AcDbEntity
  8
INTFCLR_3
100
AcDbLine
 62
7
  6
CONTINUOUS
 10
113.2004862631
 20
181.7854485777
 11
113.2004862631
 21
175.7854485777
  0
LINE
  5
33D
100
AcDbEntity
  8
INTFCLR_3
100
AcDbLine
 62
7
  6
CONTINUOUS
 10
107.5497930781
 20
135.4854485777
 11
107.1704862631
 21
116.1854485777
  0
LINE
  5
33E
100
AcDbEntity
  8
INTFCLR_3
100
AcDbLine
 62
7
  6
CONTINUOUS
 10
114.6375772165
 20
135.4854485777
 11
115.0304862631
 21
116.1854485777
  0
LINE
  5
33F
100
AcDbEntity
  8
INTFCLR_3
100
AcDbLine
 62
7
  6
CONTINUOUS
 10
116.9845595394
 20
168.8854485777
 11
117.6054862631
 21
116.1854485777
  0
LINE
  5
340
100
AcDbEntity
  8
INTFCLR_3
100
AcDbLine
 62
7
  6
CONTINUOUS
 10
113.6504585686
 20
116.1854485777
 11
113.6504585686
 21
90.6854485777
  0
LINE
  5
341
100
AcDbEntity
  8
INTFCLR_3
100
AcDbLine
 62
7
  6
CONTINUOUS
 10
113.7004862631
 20
116.1854485777
 11
113.7004862631
 21
111.9854485777
  0
LINE
  5
342
100
AcDbEntity
  8
INTFCLR_3
100
AcDbLine
 62
7
  6
CONTINUOUS
 10
113.7125582345
 20
135.4854485777
 11
113.7125582345
 21
116.1854485777
  0
LINE
  5
343
100
AcDbEntity
  8
INTFCLR_3
100
AcDbLine
 62
7
  6
CONTINUOUS
 10
114.8754862631
 20
181.7854485777
 11
114.8754862631
 21
168.8854485777
  0
LINE
  5
344
100
AcDbEntity
  8
INTFCLR_3
100
AcDbLine
 62
7
  6
CONTINUOUS
 10
114.8873438194
 20
168.8854485777
 11
114.8873438194
 21
116.1854485777
  0
LINE
  5
345
100
AcDbEntity
  8
INTFCLR_3
100
AcDbLine
 62
7
  6
CONTINUOUS
 10
115.0004862631
 20
163.4854485777
 11
115.0004862631
 21
135.4854485777
  0
LINE
  5
346
100
AcDbEntity
  8
INTFCLR_3
100
AcDbLine
 62
7
  6
CONTINUOUS
 10
115.8546068523
 20
175.7854485777
 11
115.8546068523
 21
181.7854485777
  0
LINE
  5
347
100
AcDbEntity
  8
INTFCLR_3
100
AcDbLine
 62
7
  6
CONTINUOUS
 10
116.1004513115
 20
111.9854485777
 11
116.1004862631
 21
81.1854485777
  0
LINE
  5
348
100
AcDbEntity
  8
INTFCLR_3
100
AcDbLine
 62
7
  6
CONTINUOUS
 10
117.3504862631
 20
181.7854485777
 11
117.3504862631
 21
163.4854485777
  0
LINE
  5
349
100
AcDbEntity
  8
INTFCLR_3
100
AcDbLine
 62
7
  6
CONTINUOUS
 10
117.4004862631
 20
116.1854485777
 11
117.4004862631
 21
93.6854485777
  0
LINE
  5
34A
100
AcDbEntity
  8
INTFCLR_3
100
AcDbLine
 62
7
  6
CONTINUOUS
 10
118.6004862631
 20
166.1854485777
 11
118.6004862631
 21
117.9854485777
  0
LINE
  5
34B
100
AcDbEntity
  8
INTFCLR_3
100
AcDbLine
 62
7
  6
CONTINUOUS
 10
118.9754862631
 20
181.7854485777
 11
118.9754862631
 21
163.7854485777
  0
LINE
  5
34C
100
AcDbEntity
  8
INTFCLR_3
100
AcDbLine
 62
7
  6
CONTINUOUS
 10
120.6004862631
 20
93.6854485777
 11
120.6004862631
 21
90.6854485777
  0
LINE
  5
34D
100
AcDbEntity
  8
INTFCLR_3
100
AcDbLine
 62
7
  6
CONTINUOUS
 10
120.7754862631
 20
181.7854485777
 11
120.7754862631
 21
168.8854485777
  0
LINE
  5
34E
100
AcDbEntity
  8
INTFCLR_3
100
AcDbLine
 62
7
  6
CONTINUOUS
 10
121.8504862631
 20
123.9854485777
 11
121.8504862631
 21
117.9854485777
  0
LINE
  5
34F
100
AcDbEntity
  8
INTFCLR_3
100
AcDbLine
 62
7
  6
CONTINUOUS
 10
122.1204862631
 20
181.7854485777
 11
122.1204862631
 21
168.8854485777
  0
LINE
  5
350
100
AcDbEntity
  8
INTFCLR_3
100
AcDbLine
 62
7
  6
CONTINUOUS
 10
124.7904862631
 20
181.7854485777
 11
124.7904862631
 21
168.8854485777
  0
LINE
  5
351
100
AcDbEntity
  8
INTFCLR_3
100
AcDbLine
 62
7
  6
CONTINUOUS
 10
148.6004862631
 20
160.1854485777
 11
118.6004862631
 21
160.1854485777
  0
LINE
  5
352
100
AcDbEntity
  8
INTFCLR_3
100
AcDbLine
 62
7
  6
CONTINUOUS
 10
103.6004862631
 20
160.1854485777
 11
73.6004862631
 21
160.1854485777
  0
LINE
  5
353
100
AcDbEntity
  8
INTFCLR_3
100
AcDbLine
 62
7
  6
CONTINUOUS
 10
58.6004862631
 20
160.1854485777
 11
28.6004862631
 21
160.1854485777
  0
LINE
  5
354
100
AcDbEntity
  8
INTFCLR_3
100
AcDbLine
 62
7
  6
CONTINUOUS
 10
126.4110161443
 20
181.7854485777
 11
126.4110161443
 21
168.8854485777
  0
LINE
  5
355
100
AcDbEntity
  8
INTFCLR_3
100
AcDbLine
 62
7
  6
CONTINUOUS
 10
128.0904862631
 20
168.8854485777
 11
128.0904862631
 21
181.7854485777
  0
LINE
  5
356
100
AcDbEntity
  8
INTFCLR_3
100
AcDbLine
 62
7
  6
CONTINUOUS
 10
131.1004862631
 20
168.8854485777
 11
131.1004862631
 21
166.1854485777
  0
LINE
  5
357
100
AcDbEntity
  8
INTFCLR_3
100
AcDbLine
 62
7
  6
CONTINUOUS
 10
153.8504862631
 20
163.4854485777
 11
149.8504862631
 21
163.4854485777
  0
LINE
  5
358
100
AcDbEntity
  8
INTFCLR_3
100
AcDbLine
 62
7
  6
CONTINUOUS
 10
117.3504862631
 20
163.4854485777
 11
115.0004862631
 21
163.4854485777
  0
LINE
  5
359
100
AcDbEntity
  8
INTFCLR_3
100
AcDbLine
 62
7
  6
CONTINUOUS
 10
107.2004862631
 20
163.4854485777
 11
104.8504862631
 21
163.4854485777
  0
LINE
  5
35A
100
AcDbEntity
  8
INTFCLR_3
100
AcDbLine
 62
7
  6
CONTINUOUS
 10
72.3504862631
 20
163.4854485777
 11
70.0004862631
 21
163.4854485777
  0
LINE
  5
35B
100
AcDbEntity
  8
INTFCLR_3
100
AcDbLine
 62
7
  6
CONTINUOUS
 10
62.2004862631
 20
163.4854485777
 11
59.8504862631
 21
163.4854485777
  0
LINE
  5
35C
100
AcDbEntity
  8
INTFCLR_3
100
AcDbLine
 62
7
  6
CONTINUOUS
 10
27.3504862631
 20
163.4854485777
 11
23.3504862631
 21
163.4854485777
  0
LINE
  5
35D
100
AcDbEntity
  8
INTFCLR_3
100
AcDbLine
 62
7
  6
CONTINUOUS
 10
148.2254862631
 20
163.7854485777
 11
118.9754862631
 21
163.7854485777
  0
LINE
  5
35E
100
AcDbEntity
  8
INTFCLR_3
100
AcDbLine
 62
7
  6
CONTINUOUS
 10
103.2254862631
 20
163.7854485777
 11
73.9754862631
 21
163.7854485777
  0
LINE
  5
35F
100
AcDbEntity
  8
INTFCLR_3
100
AcDbLine
 62
7
  6
CONTINUOUS
 10
58.2254862631
 20
163.7854485777
 11
28.9754862631
 21
163.7854485777
  0
LINE
  5
360
100
AcDbEntity
  8
INTFCLR_3
100
AcDbLine
 62
7
  6
CONTINUOUS
 10
148.6004862631
 20
166.1854485777
 11
118.6004862631
 21
166.1854485777
  0
LINE
  5
361
100
AcDbEntity
  8
INTFCLR_3
100
AcDbLine
 62
7
  6
CONTINUOUS
 10
103.6004862631
 20
166.1854485777
 11
73.6004862631
 21
166.1854485777
  0
LINE
  5
362
100
AcDbEntity
  8
INTFCLR_3
100
AcDbLine
 62
7
  6
CONTINUOUS
 10
58.6004862631
 20
166.1854485777
 11
28.6004862631
 21
166.1854485777
  0
LINE
  5
363
100
AcDbEntity
  8
INTFCLR_3
100
AcDbLine
 62
7
  6
CONTINUOUS
 10
132.2795781918
 20
181.7854485777
 11
132.2795781918
 21
168.8854485777
  0
LINE
  5
364
100
AcDbEntity
  8
INTFCLR_3
100
AcDbLine
 62
7
  6
CONTINUOUS
 10
133.6054862631
 20
181.7854485777
 11
133.6054862631
 21
168.8854485777
  0
LINE
  5
365
100
AcDbEntity
  8
INTFCLR_3
100
AcDbLine
 62
7
  6
CONTINUOUS
 10
134.9313943344
 20
181.7854485777
 11
134.9313943344
 21
168.8854485777
  0
LINE
  5
366
100
AcDbEntity
  8
INTFCLR_3
100
AcDbLine
 62
7
  6
CONTINUOUS
 10
136.1004862631
 20
168.8854485777
 11
136.1004862631
 21
166.1854485777
  0
LINE
  5
367
100
AcDbEntity
  8
INTFCLR_3
100
AcDbLine
 62
7
  6
CONTINUOUS
 10
23.3504862631
 20
168.8854485777
 11
153.8504862631
 21
168.8854485777
  0
LINE
  5
368
100
AcDbEntity
  8
INTFCLR_3
100
AcDbLine
 62
7
  6
CONTINUOUS
 10
139.1204862631
 20
168.8854485777
 11
139.1204862631
 21
181.7854485777
  0
LINE
  5
369
100
AcDbEntity
  8
INTFCLR_3
100
AcDbLine
 62
7
  6
CONTINUOUS
 10
140.7999563819
 20
181.7854485777
 11
140.7999563819
 21
168.8854485777
  0
LINE
  5
36A
100
AcDbEntity
  8
INTFCLR_3
100
AcDbLine
 62
7
  6
CONTINUOUS
 10
142.4204862631
 20
181.7854485777
 11
142.4204862631
 21
168.8854485777
  0
LINE
  5
36B
100
AcDbEntity
  8
INTFCLR_3
100
AcDbLine
 62
7
  6
CONTINUOUS
 10
153.8504862631
 20
175.7854485777
 11
151.3428480307
 21
175.7854485777
  0
LINE
  5
36C
100
AcDbEntity
  8
INTFCLR_3
100
AcDbLine
 62
7
  6
CONTINUOUS
 10
115.8546068523
 20
175.7854485777
 11
106.3446068523
 21
175.7854485777
  0
LINE
  5
36D
100
AcDbEntity
  8
INTFCLR_3
100
AcDbLine
 62
7
  6
CONTINUOUS
 10
70.8563656739
 20
175.7854485777
 11
61.3463656739
 21
175.7854485777
  0
LINE
  5
36E
100
AcDbEntity
  8
INTFCLR_3
100
AcDbLine
 62
7
  6
CONTINUOUS
 10
25.8581244955
 20
175.7854485777
 11
23.3504862631
 21
175.7854485777
  0
LINE
  5
36F
100
AcDbEntity
  8
INTFCLR_3
100
AcDbLine
 62
7
  6
CONTINUOUS
 10
149.8504862631
 20
177.7857400902
 11
148.2254862631
 21
177.7857400902
  0
LINE
  5
370
100
AcDbEntity
  8
INTFCLR_3
100
AcDbLine
 62
7
  6
CONTINUOUS
 10
118.9754862631
 20
177.7857400902
 11
117.3504862631
 21
177.7857400902
  0
LINE
  5
371
100
AcDbEntity
  8
INTFCLR_3
100
AcDbLine
 62
7
  6
CONTINUOUS
 10
104.8504862631
 20
177.7857400902
 11
103.2254862631
 21
177.7857400902
  0
LINE
  5
372
100
AcDbEntity
  8
INTFCLR_3
100
AcDbLine
 62
7
  6
CONTINUOUS
 10
73.9754862631
 20
177.7857400902
 11
72.3504862631
 21
177.7857400902
  0
LINE
  5
373
100
AcDbEntity
  8
INTFCLR_3
100
AcDbLine
 62
7
  6
CONTINUOUS
 10
59.8504862631
 20
177.7857400902
 11
58.2254862631
 21
177.7857400902
  0
LINE
  5
374
100
AcDbEntity
  8
INTFCLR_3
100
AcDbLine
 62
7
  6
CONTINUOUS
 10
28.9754862631
 20
177.7857400902
 11
27.3504862631
 21
177.7857400902
  0
LINE
  5
375
100
AcDbEntity
  8
INTFCLR_3
100
AcDbLine
 62
7
  6
CONTINUOUS
 10
155.7504862631
 20
108.1854485777
 11
154.8504862631
 21
109.7354485777
  0
LINE
  5
376
100
AcDbEntity
  8
INTFCLR_3
100
AcDbLine
 62
7
  6
CONTINUOUS
 10
145.0904862631
 20
181.7854485777
 11
145.0904862631
 21
168.8854485777
  0
LINE
  5
377
100
AcDbEntity
  8
INTFCLR_3
100
AcDbLine
 62
7
  6
CONTINUOUS
 10
145.3504862631
 20
123.9854485777
 11
145.3504862631
 21
117.9854485777
  0
LINE
  5
378
100
AcDbEntity
  8
INTFCLR_3
100
AcDbLine
 62
7
  6
CONTINUOUS
 10
146.4254862631
 20
181.7854485777
 11
146.4254862631
 21
168.8854485777
  0
LINE
  5
379
100
AcDbEntity
  8
INTFCLR_3
100
AcDbLine
 62
7
  6
CONTINUOUS
 10
146.600442755
 20
93.6854485777
 11
146.600442755
 21
90.6854485777
  0
LINE
  5
37A
100
AcDbEntity
  8
INTFCLR_3
100
AcDbLine
 62
7
  6
CONTINUOUS
 10
148.2254862631
 20
181.7854485777
 11
148.2254862631
 21
163.7854485777
  0
LINE
  5
37B
100
AcDbEntity
  8
INTFCLR_3
100
AcDbLine
 62
7
  6
CONTINUOUS
 10
148.6004862631
 20
166.1854485777
 11
148.6004862631
 21
117.9854485777
  0
LINE
  5
37C
100
AcDbEntity
  8
INTFCLR_3
100
AcDbLine
 62
7
  6
CONTINUOUS
 10
153.8504862631
 20
181.7854485777
 11
146.4254862631
 21
181.7854485777
  0
LINE
  5
37D
100
AcDbEntity
  8
INTFCLR_3
100
AcDbLine
 62
7
  6
CONTINUOUS
 10
145.0904862631
 20
181.7854485777
 11
122.1204862631
 21
181.7854485777
  0
LINE
  5
37E
100
AcDbEntity
  8
INTFCLR_3
100
AcDbLine
 62
7
  6
CONTINUOUS
 10
120.7754862631
 20
181.7854485777
 11
113.2004862631
 21
181.7854485777
  0
LINE
  5
37F
100
AcDbEntity
  8
INTFCLR_3
100
AcDbLine
 62
7
  6
CONTINUOUS
 10
109.0004862631
 20
181.7854485777
 11
101.4254862631
 21
181.7854485777
  0
LINE
  5
380
100
AcDbEntity
  8
INTFCLR_3
100
AcDbLine
 62
7
  6
CONTINUOUS
 10
100.0804862631
 20
181.7854485777
 11
77.1104862631
 21
181.7854485777
  0
LINE
  5
381
100
AcDbEntity
  8
INTFCLR_3
100
AcDbLine
 62
7
  6
CONTINUOUS
 10
75.7754862631
 20
181.7854485777
 11
68.2004862631
 21
181.7854485777
  0
LINE
  5
382
100
AcDbEntity
  8
INTFCLR_3
100
AcDbLine
 62
7
  6
CONTINUOUS
 10
64.0004862631
 20
181.7854485777
 11
56.4254862631
 21
181.7854485777
  0
LINE
  5
383
100
AcDbEntity
  8
INTFCLR_3
100
AcDbLine
 62
7
  6
CONTINUOUS
 10
55.0704862631
 20
181.7854485777
 11
32.1004862631
 21
181.7854485777
  0
LINE
  5
384
100
AcDbEntity
  8
INTFCLR_3
100
AcDbLine
 62
7
  6
CONTINUOUS
 10
30.7754862631
 20
181.7854485777
 11
23.3504862631
 21
181.7854485777
  0
LINE
  5
385
100
AcDbEntity
  8
INTFCLR_3
100
AcDbLine
 62
7
  6
CONTINUOUS
 10
149.8004862631
 20
116.1854485777
 11
149.8004862631
 21
93.6854485777
  0
LINE
  5
386
100
AcDbEntity
  8
INTFCLR_3
100
AcDbLine
 62
7
  6
CONTINUOUS
 10
149.8504862631
 20
181.7854485777
 11
149.8504862631
 21
163.4854485777
  0
LINE
  5
387
100
AcDbEntity
  8
INTFCLR_3
100
AcDbLine
 62
7
  6
CONTINUOUS
 10
151.3428480307
 20
181.7854485777
 11
151.3428480307
 21
175.7854485777
  0
LINE
  5
388
100
AcDbEntity
  8
INTFCLR_3
100
AcDbLine
 62
7
  6
CONTINUOUS
 10
152.2504862631
 20
105.6854485777
 11
152.2504862631
 21
90.6854485777
  0
LINE
  5
389
100
AcDbEntity
  8
INTFCLR_3
100
AcDbLine
 62
7
  6
CONTINUOUS
 10
152.3254862631
 20
181.7854485777
 11
152.3254862631
 21
168.8854485777
  0
LINE
  5
38A
100
AcDbEntity
  8
INTFCLR_3
100
AcDbLine
 62
7
  6
CONTINUOUS
 10
152.5504862631
 20
78.4604485777
 11
152.5504862631
 21
75.7854485777
  0
LINE
  5
38B
100
AcDbEntity
  8
INTFCLR_3
100
AcDbLine
 62
7
  6
CONTINUOUS
 10
153.6004862631
 20
109.7354485777
 11
153.6004862631
 21
81.1854485777
  0
LINE
  5
38C
100
AcDbEntity
  8
INTFCLR_3
100
AcDbLine
 62
7
  6
CONTINUOUS
 10
153.8504862631
 20
181.7854485777
 11
153.8504862631
 21
116.1854485777
  0
LINE
  5
38D
100
AcDbEntity
  8
INTFCLR_3
100
AcDbLine
 62
7
  6
CONTINUOUS
 10
154.0504443782
 20
78.4604485777
 11
154.0504443782
 21
75.7854485777
  0
LINE
  5
38E
100
AcDbEntity
  8
INTFCLR_3
100
AcDbLine
 62
7
  6
CONTINUOUS
 10
155.2504862631
 20
105.6854485777
 11
155.2504862631
 21
90.6854485777
  0
LINE
  5
38F
100
AcDbEntity
  8
INTFCLR_3
100
AcDbLine
 62
7
  6
CONTINUOUS
 10
155.6004862631
 20
105.1854485777
 11
155.6004862631
 21
90.6854485777
  0
LINE
  5
390
100
AcDbEntity
  8
INTFCLR_3
100
AcDbLine
 62
7
  6
CONTINUOUS
 10
155.6504862631
 20
84.3854485777
 11
155.6504862631
 21
83.0854485777
  0
LINE
  5
391
100
AcDbEntity
  8
INTFCLR_3
100
AcDbLine
 62
7
  6
CONTINUOUS
 10
155.8504862631
 20
78.4604485777
 11
155.8504862631
 21
75.7854485777
  0
LINE
  5
392
100
AcDbEntity
  8
INTFCLR_3
100
AcDbLine
 62
7
  6
CONTINUOUS
 10
156.0504862631
 20
116.1854485777
 11
156.0504862631
 21
108.1854485777
  0
LINE
  5
393
100
AcDbEntity
  8
INTFCLR_3
100
AcDbLine
 62
7
  6
CONTINUOUS
 10
156.2004862631
 20
116.1854485777
 11
156.2004862631
 21
90.6854485777
  0
LINE
  5
394
100
AcDbEntity
  8
INTFCLR_3
100
AcDbLine
 62
7
  6
CONTINUOUS
 10
156.3504862631
 20
81.1854485777
 11
156.3504862631
 21
78.1854485777
  0
LINE
  5
395
100
AcDbEntity
  8
INTFCLR_3
100
AcDbLine
 62
7
  6
CONTINUOUS
 10
157.2504862631
 20
116.1854485777
 11
157.2504862631
 21
100.4854485777
  0
LINE
  5
396
100
AcDbEntity
  8
INTFCLR_3
100
AcDbLine
 62
7
  6
CONTINUOUS
 10
157.6504862631
 20
102.7854485777
 11
157.6504862631
 21
101.4854485777
  0
LINE
  5
397
100
AcDbEntity
  8
INTFCLR_3
100
AcDbLine
 62
7
  6
CONTINUOUS
 10
157.6504862631
 20
100.4854485777
 11
157.6504862631
 21
99.1854485777
  0
LINE
  5
398
100
AcDbEntity
  8
INTFCLR_3
100
AcDbLine
 62
7
  6
CONTINUOUS
 10
157.6504862631
 20
98.1854485777
 11
157.6504862631
 21
96.8854485777
  0
LINE
  5
399
100
AcDbEntity
  8
INTFCLR_3
100
AcDbLine
 62
7
  6
CONTINUOUS
 10
157.6504862631
 20
95.8854485777
 11
157.6504862631
 21
94.5854485777
  0
LINE
  5
39A
100
AcDbEntity
  8
INTFCLR_3
100
AcDbLine
 62
7
  6
CONTINUOUS
 10
157.6504862631
 20
93.5854485777
 11
157.6504862631
 21
92.2854485777
  0
LINE
  5
39B
100
AcDbEntity
  8
INTFCLR_3
100
AcDbLine
 62
7
  6
CONTINUOUS
 10
157.6504862631
 20
91.2854485777
 11
157.6504862631
 21
89.9854485777
  0
LINE
  5
39C
100
AcDbEntity
  8
INTFCLR_3
100
AcDbLine
 62
7
  6
CONTINUOUS
 10
157.6504862631
 20
88.9854485777
 11
157.6504862631
 21
87.6854485777
  0
LINE
  5
39D
100
AcDbEntity
  8
INTFCLR_3
100
AcDbLine
 62
7
  6
CONTINUOUS
 10
157.6504862631
 20
86.6854485777
 11
157.6504862631
 21
85.3854485777
  0
LINE
  5
39E
100
AcDbEntity
  8
INTFCLR_3
100
AcDbLine
 62
7
  6
CONTINUOUS
 10
158.3504862631
 20
101.4854485777
 11
158.3504862631
 21
100.4854485777
  0
LINE
  5
39F
100
AcDbEntity
  8
INTFCLR_3
100
AcDbLine
 62
7
  6
CONTINUOUS
 10
158.3504862631
 20
99.1854485777
 11
158.3504862631
 21
98.1854485777
  0
LINE
  5
3A0
100
AcDbEntity
  8
INTFCLR_3
100
AcDbLine
 62
7
  6
CONTINUOUS
 10
158.3504862631
 20
96.8854485777
 11
158.3504862631
 21
95.8854485777
  0
LINE
  5
3A1
100
AcDbEntity
  8
INTFCLR_3
100
AcDbLine
 62
7
  6
CONTINUOUS
 10
158.3504862631
 20
94.5854485777
 11
158.3504862631
 21
93.5854485777
  0
LINE
  5
3A2
100
AcDbEntity
  8
INTFCLR_3
100
AcDbLine
 62
7
  6
CONTINUOUS
 10
158.3504862631
 20
92.2854485777
 11
158.3504862631
 21
91.2854485777
  0
LINE
  5
3A3
100
AcDbEntity
  8
INTFCLR_3
100
AcDbLine
 62
7
  6
CONTINUOUS
 10
158.3504862631
 20
89.9854485777
 11
158.3504862631
 21
88.9854485777
  0
LINE
  5
3A4
100
AcDbEntity
  8
INTFCLR_3
100
AcDbLine
 62
7
  6
CONTINUOUS
 10
158.3504862631
 20
87.6854485777
 11
158.3504862631
 21
86.6854485777
  0
LINE
  5
3A5
100
AcDbEntity
  8
INTFCLR_3
100
AcDbLine
 62
7
  6
CONTINUOUS
 10
158.3504862631
 20
85.3854485777
 11
158.3504862631
 21
84.3854485777
  0
LINE
  5
3A6
100
AcDbEntity
  8
INTFCLR_3
100
AcDbLine
 62
7
  6
CONTINUOUS
 10
158.4504862631
 20
116.1854485777
 11
158.4504862631
 21
75.7854485777
  0
ENDSEC
  0
SECTION
  2
OBJECTS
  0
DICTIONARY
  5
C
100
AcDbDictionary
280
0
281
1
  3
ACAD_GROUP
350
D
  3
ACAD_MLINESTYLE
350
17
  3
ACAD_LAYOUT
350
1A
  3
ACAD_PLOTSETTINGS
350
19
  3
ACAD_PLOTSTYLENAME
350
E
  0
DICTIONARY
  5
D
102
{ACAD_REACTORS
330
C
102
}
100
AcDbDictionary
280
0
281
1
  0
ACDBDICTIONARYWDFLT
  5
E
102
{ACAD_REACTORS
330
C
102
}
100
AcDbDictionary
281
1
  3
Normal
350
F
100
AcDbDictionaryWithDefault
340
F
  0
DICTIONARY
  5
17
102
{ACAD_REACTORS
330
C
102
}
100
AcDbDictionary
280
0
281
1
  3
Standard
350
18
  0
DICTIONARY
  5
19
102
{ACAD_REACTORS
330
C
102
}
100
AcDbDictionary
281
1
  0
DICTIONARY
  5
1A
102
{ACAD_REACTORS
330
C
102
}
100
AcDbDictionary
281
1
  3
Model
350
3A7
  3
Layout1
350
3A8
  0
ACDBPLACEHOLDER
  5
F
102
{ACAD_REACTORS
330
E
102
}
  0
MLINESTYLE
  5
18
102
{ACAD_REACTORS
330
17
102
}
100
AcDbMlineStyle
  2
STANDARD
 70
0
  3

 62
256
 51
90.0
 52
90.0
 71
2
 49
0.5
 62
256
  6
BYLAYER
 49
-0.5
 62
256
  6
BYLAYER
  0
LAYOUT
  5
3A7
102
{ACAD_REACTORS
330
1A
102
}
100
AcDbPlotSettings
  1

  2
none_device
  4

  6

 40
0.0
 41
0.0
 42
0.0
 43
0.0
 44
210.0
 45
297.0
 46
0.0
 47
0.0
 48
0.0
 49
0.0
140
0.0
141
0.0
142
1.0
143
1.0
 70
1024
 72
1
 73
0
 74
0
  7

 75
0
147
1.0
148
0.0
149
0.0
100
AcDbLayout
  1
Model
 70
0
 71
0
 10
0.0
 20
0.0
 11
210.0
 21
297.0
 12
0.0
 22
0.0
 32
0.0
 14
0.0
 24
0.0
 34
0.0
 15
0.0
 25
0.0
 35
0.0
146
0.0
 13
0.0
 23
0.0
 33
0.0
 16
1.0
 26
0.0
 36
0.0
 17
0.0
 27
1.0
 37
0.0
 76
0
330
212
345
0
346
0
  0
LAYOUT
  5
3A8
102
{ACAD_REACTORS
330
1A
102
}
100
AcDbPlotSettings
  1

  2
none_device
  4

  6

 40
0.0
 41
0.0
 42
0.0
 43
0.0
 44
210.0
 45
297.0
 46
0.0
 47
0.0
 48
0.0
 49
0.0
140
0.0
141
0.0
142
1.0
143
1.0
 70
0
 72
1
 73
0
 74
0
  7

 75
0
147
1.0
148
0.0
149
0.0
100
AcDbLayout
  1
Layout1
 70
0
 71
1
 10
0.0
 20
0.0
 11
210.0
 21
297.0
 12
0.0
 22
0.0
 32
0.0
 14
0.0
 24
0.0
 34
0.0
 15
0.0
 25
0.0
 35
0.0
146
0.0
 13
0.0
 23
0.0
 33
0.0
 16
1.0
 26
0.0
 36
0.0
 17
0.0
 27
1.0
 37
0.0
 76
0
330
213
345
0
346
0
  0
ENDSEC
  0
EOF
