999
DXF file: C:\Users\sesa63760\Dev\_Creo\CAD\MCADPE0010552_3D-CAD\drw0001_1.dxf
999
Pro/ENGINEER 2019471 by Parametric Technology Corporation
  0
SECTION
  2
HEADER
  9
$ACADVER
  1
AC1024
  9
$DWGCODEPAGE
  3
ANSI_1252
  9
$EXTMAX
 10
60.5446150594
 20
85.6273841555
 30
0.0
  9
$EXTMIN
 10
0.0
 20
0.0
 30
0.0
  9
$LIMMIN
 10
0.0
 20
0.0
  9
$LIMMAX
 10
60.5446150594
 20
85.6273841555
  9
$VIEWCTR
 10
30.2723075297
 20
42.8136920777
  9
$VIEWSIZE
 40
85.6273841555
  9
$CLAYER
  8
0
  9
$LTSCALE
 40
5.5816368931
  9
$CELTYPE
  6
BYLAYER
  9
$DIMSCALE
 40
1.0
  9
$DIMASZ
 40
0.7207692269
  9
$DIMEXO
 40
1.0
  9
$DIMDLI
 40
3.8564036716
  9
$DIMEXE
 40
1.0
  9
$DIMCEN
 40
0.9133587643
  9
$DIMLFAC
 40
1.0
  9
$DIMBLK
  1
_FILLED
  9
$DIMALT
 70
0
  9
$DIMALTF
 40
0.0393700787
  9
$DIMTXT
 40
1.0090769177
  9
$DIMTOL
 70
1
  9
$DIMLIM
 70
0
  9
$DIMTFAC
 40
1.0
  9
$DIMTP
 40
0.01
  9
$DIMTM
 40
0.01
  9
$DIMGAP
 40
0.625
  9
$DIMDSEP
 70
46
  9
$AUNITS
 70
0
  9
$PDMODE
 70
3
  9
$PDSIZE
 40
0.3125
  9
$HANDSEED
  5
3D6
  9
$TILEMODE
 70
1
  9
$MEASUREMENT
 70
1
  9
$INSUNITS
 70
4
  0
ENDSEC
  0
SECTION
  2
CLASSES
  0
CLASS
  1
ACDBDICTIONARYWDFLT
  2
AcDbDictionaryWithDefault
  3
AutoCAD 2000
 90
0
 91
1
280
0
281
0
  0
CLASS
  1
ACDBPLACEHOLDER
  2
AcDbPlaceHolder
  3
AutoCAD 2000
 90
0
 91
1
280
0
281
0
  0
CLASS
  1
LAYOUT
  2
AcDbLayout
  3
AutoCAD 2000
 90
0
 91
0
280
0
281
0
  0
ENDSEC
  0
SECTION
  2
TABLES
  0
TABLE
  2
VPORT
  5
8
100
AcDbSymbolTable
 70
2
  0
VPORT
  5
1F4
100
AcDbSymbolTableRecord
100
AcDbViewportTableRecord
  2
*ACTIVE
 70
0
 10
0.0
 20
0.0
 11
1.0
 21
1.0
 12
30.2723075297
 22
42.8136920777
 13
0.0
 23
0.0
 14
1.0
 24
1.0
 15
0.0
 25
0.0
 16
0.0
 26
0.0
 36
1.0
 17
0.0
 27
0.0
 37
0.0
 40
85.6273841555
 41
0.7070707071
 42
50.0
 43
0.0
 44
0.0
 50
0.0
 51
0.0
 71
0
 72
100
 73
1
 74
1
 75
0
 76
0
 77
0
 78
0
  0
ENDTAB
  0
TABLE
  2
LTYPE
  5
5
100
AcDbSymbolTable
 70
6
  0
LTYPE
  5
14
100
AcDbSymbolTableRecord
100
AcDbLinetypeTableRecord
  2
BYBLOCK
 70
0
  3

 72
65
 73
0
 40
0.0
  0
LTYPE
  5
15
100
AcDbSymbolTableRecord
100
AcDbLinetypeTableRecord
  2
BYLAYER
 70
0
  3

 72
65
 73
0
 40
0.0
  0
LTYPE
  5
16
100
AcDbSymbolTableRecord
100
AcDbLinetypeTableRecord
  2
CONTINUOUS
 70
64
  3
Solid line
 72
65
 73
0
 40
0.0
  0
LTYPE
  5
1F5
100
AcDbSymbolTableRecord
100
AcDbLinetypeTableRecord
  2
CENTER
 70
64
  3
____ _ ____ _ ____ _ ____ _ ____ _ ____ _ ____
 72
65
 73
4
 40
0.6
 49
0.375
 74
0
 49
-0.075
 74
0
 49
0.075
 74
0
 49
-0.075
 74
0
  0
LTYPE
  5
1F6
100
AcDbSymbolTableRecord
100
AcDbLinetypeTableRecord
  2
HIDDEN
 70
64
  3
- - - - - - - - - - - - - - - - - - - -
 72
65
 73
2
 40
0.2
 49
0.1
 74
0
 49
-0.1
 74
0
  0
LTYPE
  5
1F7
100
AcDbSymbolTableRecord
100
AcDbLinetypeTableRecord
  2
PHANTOM
 70
64
  3
_____ _ _ _____ _ _ _____ _ _ _____
 72
65
 73
6
 40
0.8
 49
0.45
 74
0
 49
-0.05
 74
0
 49
0.1
 74
0
 49
-0.05
 74
0
 49
0.1
 74
0
 49
-0.05
 74
0
  0
LTYPE
  5
1F8
100
AcDbSymbolTableRecord
100
AcDbLinetypeTableRecord
  2
DOT
 70
64
  3
. . . . . . . . . . . . . . . . . . . .
 72
65
 73
2
 40
0.2
 49
0.1
 74
0
 49
-0.1
 74
0
  0
LTYPE
  5
1F9
100
AcDbSymbolTableRecord
100
AcDbLinetypeTableRecord
  2
DASHED
 70
64
  3
- - - - - - - - - - - - - - - - - - - -
 72
65
 73
2
 40
0.2
 49
0.1
 74
0
 49
-0.1
 74
0
  0
ENDTAB
  0
TABLE
  2
LAYER
  5
2
100
AcDbSymbolTable
 70
36
  0
LAYER
  5
10
100
AcDbSymbolTableRecord
100
AcDbLayerTableRecord
  2
0
 70
0
 62
7
  6
CONTINUOUS
370
-3
390
F
  0
LAYER
  5
1FA
100
AcDbSymbolTableRecord
100
AcDbLayerTableRecord
  2
DEFAULT_1
 70
0
 62
7
  6
CENTER
370
-3
390
F
  0
LAYER
  5
1FB
100
AcDbSymbolTableRecord
100
AcDbLayerTableRecord
  2
DEFAULT_2
 70
0
 62
7
  6
HIDDEN
370
-3
390
F
  0
LAYER
  5
1FC
100
AcDbSymbolTableRecord
100
AcDbLayerTableRecord
  2
DEFAULT_3
 70
0
 62
7
  6
PHANTOM
370
-3
390
F
  0
LAYER
  5
1FD
100
AcDbSymbolTableRecord
100
AcDbLayerTableRecord
  2
00_COMPONENTS
 70
0
 62
7
  6
CONTINUOUS
370
-3
390
F
  0
LAYER
  5
1FE
100
AcDbSymbolTableRecord
100
AcDbLayerTableRecord
  2
01_1_DEFAULT_DATUMS
 70
0
 62
7
  6
CONTINUOUS
370
-3
390
F
  0
LAYER
  5
1FF
100
AcDbSymbolTableRecord
100
AcDbLayerTableRecord
  2
01_PLANES
 70
0
 62
7
  6
CONTINUOUS
370
-3
390
F
  0
LAYER
  5
200
100
AcDbSymbolTableRecord
100
AcDbLayerTableRecord
  2
02_COORD_SYS
 70
0
 62
7
  6
CONTINUOUS
370
-3
390
F
  0
LAYER
  5
201
100
AcDbSymbolTableRecord
100
AcDbLayerTableRecord
  2
03_AXES
 70
0
 62
7
  6
CONTINUOUS
370
-3
390
F
  0
LAYER
  5
202
100
AcDbSymbolTableRecord
100
AcDbLayerTableRecord
  2
04_POINTS
 70
0
 62
7
  6
CONTINUOUS
370
-3
390
F
  0
LAYER
  5
203
100
AcDbSymbolTableRecord
100
AcDbLayerTableRecord
  2
05_CURVES
 70
0
 62
7
  6
CONTINUOUS
370
-3
390
F
  0
LAYER
  5
204
100
AcDbSymbolTableRecord
100
AcDbLayerTableRecord
  2
06_SURFS
 70
0
 62
7
  6
CONTINUOUS
370
-3
390
F
  0
LAYER
  5
205
100
AcDbSymbolTableRecord
100
AcDbLayerTableRecord
  2
07_COSMETICS
 70
0
 62
7
  6
CONTINUOUS
370
-3
390
F
  0
LAYER
  5
206
100
AcDbSymbolTableRecord
100
AcDbLayerTableRecord
  2
10_NOTES
 70
0
 62
7
  6
CONTINUOUS
370
-3
390
F
  0
LAYER
  5
207
100
AcDbSymbolTableRecord
100
AcDbLayerTableRecord
  2
11_NOTES_PUB
 70
0
 62
7
  6
CONTINUOUS
370
-3
390
F
  0
LAYER
  5
208
100
AcDbSymbolTableRecord
100
AcDbLayerTableRecord
  2
13_REF_GTOL
 70
0
 62
7
  6
CONTINUOUS
370
-3
390
F
  0
LAYER
  5
209
100
AcDbSymbolTableRecord
100
AcDbLayerTableRecord
  2
16_MISC
 70
0
 62
7
  6
CONTINUOUS
370
-3
390
F
  0
LAYER
  5
20A
100
AcDbSymbolTableRecord
100
AcDbLayerTableRecord
  2
17_NO_PRINT
 70
0
 62
7
  6
CONTINUOUS
370
-3
390
F
  0
LAYER
  5
20B
100
AcDbSymbolTableRecord
100
AcDbLayerTableRecord
  2
18_DATUM_CAMS_JOINTS
 70
0
 62
7
  6
CONTINUOUS
370
-3
390
F
  0
LAYER
  5
20C
100
AcDbSymbolTableRecord
100
AcDbLayerTableRecord
  2
19_DATUM_FUNCTIONAL
 70
0
 62
7
  6
CONTINUOUS
370
-3
390
F
  0
LAYER
  5
20D
100
AcDbSymbolTableRecord
100
AcDbLayerTableRecord
  2
20_DATUM_KINEMATIC_SCHEME
 70
0
 62
7
  6
CONTINUOUS
370
-3
390
F
  0
ENDTAB
  0
TABLE
  2
STYLE
  5
3
100
AcDbSymbolTable
 70
1
  0
STYLE
  5
11
100
AcDbSymbolTableRecord
100
AcDbTextStyleTableRecord
  2
STANDARD
 70
0
 40
0.0
 41
1.0
 50
0.0
 71
0
 42
0.2
  3
ARIAL.TTF
  4

  0
STYLE
  5
20E
100
AcDbSymbolTableRecord
100
AcDbTextStyleTableRecord
  2
TEXTSTYLE_1
 70
0
 40
0.0
 41
0.8
 50
0.0
 71
0
 42
0.2
  3
gdt
  4

  0
ENDTAB
  0
TABLE
  2
VIEW
  5
6
100
AcDbSymbolTable
 70
0
  0
ENDTAB
  0
TABLE
  2
UCS
  5
7
100
AcDbSymbolTable
 70
0
  0
ENDTAB
  0
TABLE
  2
APPID
  5
9
100
AcDbSymbolTable
 70
1
  0
APPID
  5
20F
100
AcDbSymbolTableRecord
100
AcDbRegAppTableRecord
  2
ACAD
 70
0
  0
ENDTAB
  0
TABLE
  2
BLOCK_RECORD
  5
1
100
AcDbSymbolTable
 70
0
  0
BLOCK_RECORD
  5
210
100
AcDbSymbolTableRecord
100
AcDbBlockTableRecord
  2
*Model_Space
  0
BLOCK_RECORD
  5
211
100
AcDbSymbolTableRecord
100
AcDbBlockTableRecord
  2
*Paper_Space
  0
BLOCK_RECORD
  5
212
100
AcDbSymbolTableRecord
100
AcDbBlockTableRecord
  2
_FILLED
  0
ENDTAB
  0
TABLE
  2
DIMSTYLE
  5
A
100
AcDbSymbolTable
 70
1
100
AcDbDimStyleTable
 71
0
  0
DIMSTYLE
105
213
100
AcDbSymbolTableRecord
100
AcDbDimStyleTableRecord
  2
STANDARD
 70
0
  3

  4

 40
1.0
 41
0.7207692269
 42
1.0
 43
0.38
 44
1.0
 45
0.0
 46
0.0
 47
0.01
 48
0.01
140
1.0090769177
141
0.09
142
0.0
143
25.4
144
1.0
145
0.0
146
1.0
147
0.625
 71
1
 72
0
 73
0
 74
0
 75
0
 76
0
 77
1
 78
8
 79
2
170
0
171
1
172
0
173
0
174
0
175
0
176
0
177
0
178
0
270
2
179
2
271
2
272
2
273
2
274
2
275
0
280
0
281
0
282
0
283
1
284
8
285
0
286
0
287
3
288
0
340
11
278
46
341
212
342
212
343
212
344
212
  0
ENDTAB
  0
ENDSEC
  0
SECTION
  2
BLOCKS
  0
BLOCK
  5
20
100
AcDbEntity
  8
0
100
AcDbBlockBegin
  2
*Model_Space
 70
0
 10
0.0
 20
0.0
 30
0.0
  3
*Model_Space
  1

  0
ENDBLK
  5
21
100
AcDbEntity
  8
0
100
AcDbBlockEnd
  0
BLOCK
  5
1C
100
AcDbEntity
  8
0
100
AcDbBlockBegin
  2
*Paper_Space
 70
0
 10
0.0
 20
0.0
 30
0.0
  3
*Paper_Space
  1

  0
ENDBLK
  5
1D
100
AcDbEntity
  8
0
100
AcDbBlockEnd
  0
BLOCK
  5
214
100
AcDbEntity
  8
0
100
AcDbBlockBegin
  2
_FILLED
 70
64
 10
0.0
 20
0.0
  3
_FILLED
  1

  0
SOLID
  5
215
100
AcDbEntity
  8
0
  6
BYBLOCK
 62
0
100
AcDbTrace
 10
0.0
 20
0.0
 11
-1.0
 21
0.25
 12
-1.0
 22
-0.25
 13
-1.0
 23
-0.25
  0
ENDBLK
  5
216
100
AcDbEntity
  8
0
  6
BYBLOCK
 62
0
100
AcDbBlockEnd
  0
ENDSEC
  0
SECTION
  2
ENTITIES
  0
LINE
  5
217
100
AcDbEntity
  8
0
100
AcDbLine
 62
7
  6
BYLAYER
 10
18.8076379344
 20
6.6285549061
 11
13.0446936744
 21
9.9557170554
  0
LINE
  5
218
100
AcDbEntity
  8
0
100
AcDbLine
 62
7
  6
BYLAYER
 10
18.8076779787
 20
6.6286243056
 11
18.9661277227
 21
6.6143989899
  0
LINE
  5
219
100
AcDbEntity
  8
0
100
AcDbLine
 62
7
  6
BYLAYER
 10
19.5608421006
 20
7.2046658159
 11
19.5126215155
 21
7.209049106
  0
LINE
  5
21A
100
AcDbEntity
  8
0
100
AcDbLine
 62
7
  6
BYLAYER
 10
18.704081774
 20
6.85744798
 11
12.9411375141
 21
10.1846101293
  0
LINE
  5
21B
100
AcDbEntity
  8
0
100
AcDbLine
 62
7
  6
BYLAYER
 10
19.560914526
 20
7.2047928113
 11
19.5103972746
 21
7.2339583001
  0
LINE
  5
21C
100
AcDbEntity
  8
0
100
AcDbLine
 62
7
  6
BYLAYER
 10
18.9661277227
 20
6.6143989899
 11
19.3848243873
 21
6.7265855148
  0
LINE
  5
21D
100
AcDbEntity
  8
0
100
AcDbLine
 62
7
  6
BYLAYER
 10
22.2875993486
 20
8.8568503646
 11
23.7812244737
 21
7.994525005
  0
LINE
  5
21E
100
AcDbEntity
  8
0
100
AcDbLine
 62
7
  6
BYLAYER
 10
22.3804768306
 20
8.8817361658
 11
23.6893640348
 21
8.1260211507
  0
LINE
  5
21F
100
AcDbEntity
  8
0
100
AcDbLine
 62
7
  6
BYLAYER
 10
22.3913179969
 20
8.8846409723
 11
23.686444786
 21
8.1369160878
  0
LINE
  5
220
100
AcDbEntity
  8
0
100
AcDbLine
 62
7
  6
BYLAYER
 10
23.8163773557
 20
8.3619976892
 11
22.7463443812
 21
8.9797675392
  0
LINE
  5
221
100
AcDbEntity
  8
0
100
AcDbLine
 62
7
  6
BYLAYER
 10
22.7554852683
 20
8.982216769
 11
23.8249676805
 21
8.3647629524
  0
LINE
  5
222
100
AcDbEntity
  8
0
100
AcDbLine
 62
7
  6
BYLAYER
 10
19.700652742
 20
8.1636980795
 11
24.0206900953
 21
9.3212185925
  0
LINE
  5
223
100
AcDbEntity
  8
0
100
AcDbLine
 62
7
  6
BYLAYER
 10
13.2031834627
 20
63.6496289086
 11
13.6218801273
 21
64.0209087619
  0
LINE
  5
224
100
AcDbEntity
  8
0
100
AcDbLine
 62
7
  6
BYLAYER
 10
37.4699201426
 20
79.1793773433
 11
34.9626014163
 21
77.7317848428
  0
LINE
  5
225
100
AcDbEntity
  8
0
100
AcDbLine
 62
7
  6
BYLAYER
 10
23.4464501237
 20
71.082971482
 11
18.268275972
 21
68.0933690871
  0
LINE
  5
226
100
AcDbEntity
  8
0
100
AcDbLine
 62
7
  6
BYLAYER
 10
30.0890633154
 20
11.905511542
 11
30.3062593061
 21
11.8204634709
  0
LINE
  5
227
100
AcDbEntity
  8
0
100
AcDbLine
 62
7
  6
BYLAYER
 10
14.5456553681
 20
63.4875789435
 11
18.2577458354
 21
66.77928036
  0
LINE
  5
228
100
AcDbEntity
  8
0
100
AcDbLine
 62
7
  6
BYLAYER
 10
13.8603801568
 20
22.3146997977
 11
17.8909055901
 21
19.9877274969
  0
LINE
  5
229
100
AcDbEntity
  8
0
100
AcDbLine
 62
7
  6
BYLAYER
 10
30.9660535244
 20
12.7525753989
 11
31.1665389653
 21
12.6368217661
  0
LINE
  5
22A
100
AcDbEntity
  8
0
100
AcDbLine
 62
7
  6
BYLAYER
 10
31.8360935779
 20
13.49913936
 11
32.051841919
 21
13.3745798151
  0
LINE
  5
22B
100
AcDbEntity
  8
0
100
AcDbLine
 62
7
  6
BYLAYER
 10
17.8909055901
 20
22.561476435
 11
16.089343985
 21
23.6015849823
  0
LINE
  5
22C
100
AcDbEntity
  8
0
100
AcDbLine
 62
7
  6
BYLAYER
 10
32.7165219545
 20
14.165614346
 11
32.9508811685
 21
14.0303100517
  0
LINE
  5
22D
100
AcDbEntity
  8
0
100
AcDbLine
 62
7
  6
BYLAYER
 10
23.6891671568
 20
8.1258465688
 11
23.7812624995
 21
7.9945908296
  0
LINE
  5
22E
100
AcDbEntity
  8
0
100
AcDbLine
 62
7
  6
BYLAYER
 10
24.5388399922
 20
71.0749746739
 11
24.7710935402
 21
71.396851612
  0
LINE
  5
22F
100
AcDbEntity
  8
0
100
AcDbLine
 62
7
  6
BYLAYER
 10
43.2328644025
 20
75.852215194
 11
40.7255456763
 21
74.4046226934
  0
LINE
  5
230
100
AcDbEntity
  8
0
100
AcDbLine
 62
7
  6
BYLAYER
 10
29.2093943836
 20
67.7558093326
 11
24.031220232
 21
64.7662069378
  0
LINE
  5
231
100
AcDbEntity
  8
0
100
AcDbLine
 62
7
  6
BYLAYER
 10
13.4007588354
 20
58.0034894607
 11
15.8756642567
 21
59.4323682427
  0
LINE
  5
232
100
AcDbEntity
  8
0
100
AcDbLine
 62
7
  6
BYLAYER
 10
45.8190301429
 20
20.7180118127
 11
46.025913134
 21
20.7208980574
  0
LINE
  5
233
100
AcDbEntity
  8
0
100
AcDbLine
 62
7
  6
BYLAYER
 10
33.5994695424
 20
14.7475967821
 11
33.8568151225
 21
14.5990216034
  0
LINE
  5
234
100
AcDbEntity
  8
0
100
AcDbLine
 62
7
  6
BYLAYER
 10
33.8455772855
 20
14.6094445319
 11
33.6027867213
 21
14.7496165584
  0
LINE
  5
235
100
AcDbEntity
  8
0
100
AcDbLine
 62
7
  6
BYLAYER
 10
13.8603801568
 20
26.9687635753
 11
17.8909055901
 21
24.6417912746
  0
LINE
  5
236
100
AcDbEntity
  8
0
100
AcDbLine
 62
7
  6
BYLAYER
 10
34.4765155676
 20
15.2416394867
 11
34.7627490764
 21
15.0763862318
  0
LINE
  5
237
100
AcDbEntity
  8
0
100
AcDbLine
 62
7
  6
BYLAYER
 10
34.7482720421
 20
15.0922250283
 11
34.4834078894
 21
15.2451409588
  0
LINE
  5
238
100
AcDbEntity
  8
0
100
AcDbLine
 62
7
  6
BYLAYER
 10
12.9411375141
 20
28.3976292151
 11
18.704081774
 21
25.0704670657
  0
LINE
  5
239
100
AcDbEntity
  8
0
100
AcDbLine
 62
7
  6
BYLAYER
 10
35.3391354169
 20
15.6450504337
 11
35.661788326
 21
15.458770904
  0
LINE
  5
23A
100
AcDbEntity
  8
0
100
AcDbLine
 62
7
  6
BYLAYER
 10
35.6453414518
 20
15.4790855049
 11
35.3499258892
 21
15.649639901
  0
LINE
  5
23B
100
AcDbEntity
  8
0
100
AcDbLine
 62
7
  6
BYLAYER
 10
32.0470491761
 20
13.377924686
 11
32.0517873293
 21
13.3744852888
  0
LINE
  5
23C
100
AcDbEntity
  8
0
100
AcDbLine
 62
7
  6
BYLAYER
 10
32.9429577648
 20
14.0366390239
 11
32.9508857932
 21
14.0303180464
  0
LINE
  5
23D
100
AcDbEntity
  8
0
100
AcDbLine
 62
7
  6
BYLAYER
 10
31.8654246985
 20
13.5230040044
 11
32.0470491761
 21
13.377924686
  0
LINE
  5
23E
100
AcDbEntity
  8
0
100
AcDbLine
 62
7
  6
BYLAYER
 10
25.3867748113
 20
71.1368271806
 11
25.6045352111
 21
71.473542809
  0
LINE
  5
23F
100
AcDbEntity
  8
0
100
AcDbLine
 62
7
  6
BYLAYER
 10
19.3848243873
 20
60.6937466126
 11
18.9661277227
 21
60.3224667593
  0
LINE
  5
240
100
AcDbEntity
  8
0
100
AcDbLine
 62
7
  6
BYLAYER
 10
24.0206900953
 20
63.4521182106
 11
19.700652742
 21
59.6213190422
  0
LINE
  5
241
100
AcDbEntity
  8
0
100
AcDbLine
 62
7
  6
BYLAYER
 10
23.8180495162
 20
64.1768114256
 11
23.8249694819
 21
64.182567699
  0
LINE
  5
242
100
AcDbEntity
  8
0
100
AcDbLine
 62
7
  6
BYLAYER
 10
19.504727804
 20
60.3525310909
 11
19.5126216002
 21
60.3588496023
  0
LINE
  5
243
100
AcDbEntity
  8
0
100
AcDbLine
 62
7
  6
BYLAYER
 10
16.4904848314
 20
58.970830531
 11
13.4007588354
 21
57.1869870436
  0
LINE
  5
244
100
AcDbEntity
  8
0
100
AcDbLine
 62
7
  6
BYLAYER
 10
18.9199945175
 20
25.5711675994
 11
13.1570502576
 21
28.8983297488
  0
LINE
  5
245
100
AcDbEntity
  8
0
100
AcDbLine
 62
7
  6
BYLAYER
 10
36.17686657
 20
15.9570095722
 11
36.5470906395
 21
15.7432654415
  0
LINE
  5
246
100
AcDbEntity
  8
0
100
AcDbLine
 62
7
  6
BYLAYER
 10
36.5287888054
 20
15.7693024769
 11
36.1940812962
 21
15.9625415758
  0
LINE
  5
247
100
AcDbEntity
  8
0
100
AcDbLine
 62
7
  6
BYLAYER
 10
36.9773385039
 20
16.1786037739
 11
37.411918332
 21
15.9277046693
  0
LINE
  5
248
100
AcDbEntity
  8
0
100
AcDbLine
 62
7
  6
BYLAYER
 10
37.3922813495
 20
15.959925083
 11
37.0030812362
 21
16.1846247898
  0
LINE
  5
249
100
AcDbEntity
  8
0
100
AcDbLine
 62
7
  6
BYLAYER
 10
14.0772205375
 20
29.8786634658
 11
19.8401647974
 21
26.5515013164
  0
LINE
  5
24A
100
AcDbEntity
  8
0
100
AcDbLine
 62
7
  6
BYLAYER
 10
19.9778039725
 20
26.6631740682
 11
14.2148597126
 21
29.9903362176
  0
LINE
  5
24B
100
AcDbEntity
  8
0
100
AcDbLine
 62
7
  6
BYLAYER
 10
33.8455772855
 20
14.6094445319
 11
33.8568163993
 21
14.5990238118
  0
LINE
  5
24C
100
AcDbEntity
  8
0
100
AcDbLine
 62
7
  6
BYLAYER
 10
12.9411375141
 20
10.1846101293
 11
12.9411375141
 21
28.3976292151
  0
LINE
  5
24D
100
AcDbEntity
  8
0
100
AcDbLine
 62
7
  6
BYLAYER
 10
12.9411375141
 20
36.6443036281
 11
12.9411375141
 21
37.4721740553
  0
LINE
  5
24E
100
AcDbEntity
  8
0
100
AcDbLine
 62
7
  6
BYLAYER
 10
12.9411375141
 20
43.8181568887
 11
12.9411375141
 21
63.1039971268
  0
LINE
  5
24F
100
AcDbEntity
  8
0
100
AcDbLine
 62
7
  6
BYLAYER
 10
13.4007588354
 20
15.7622611051
 11
13.4007588354
 21
14.945758688
  0
LINE
  5
250
100
AcDbEntity
  8
0
100
AcDbLine
 62
7
  6
BYLAYER
 10
13.4007588354
 20
57.1869870436
 11
13.4007588354
 21
58.0034894607
  0
LINE
  5
251
100
AcDbEntity
  8
0
100
AcDbLine
 62
7
  6
BYLAYER
 10
13.8603801568
 20
22.3146997977
 11
13.8603801568
 21
26.9687635753
  0
LINE
  5
252
100
AcDbEntity
  8
0
100
AcDbLine
 62
7
  6
BYLAYER
 10
13.8603801568
 20
45.258417719
 11
13.8603801568
 21
49.9124814967
  0
LINE
  5
253
100
AcDbEntity
  8
0
100
AcDbLine
 62
7
  6
BYLAYER
 10
17.9234589041
 20
67.5760418511
 11
17.9262228969
 21
67.5919043927
  0
LINE
  5
254
100
AcDbEntity
  8
0
100
AcDbLine
 62
7
  6
BYLAYER
 10
27.1631361943
 20
71.5704879198
 11
27.34538527
 21
71.9265080089
  0
LINE
  5
255
100
AcDbEntity
  8
0
100
AcDbLine
 62
7
  6
BYLAYER
 10
26.2637650203
 20
71.3024183455
 11
26.4642504611
 21
71.6496712428
  0
LINE
  5
256
100
AcDbEntity
  8
0
100
AcDbLine
 62
7
  6
BYLAYER
 10
32.7803320798
 20
14.2109339317
 11
32.9429577648
 21
14.0366390239
  0
LINE
  5
257
100
AcDbEntity
  8
0
100
AcDbLine
 62
7
  6
BYLAYER
 10
34.7482720421
 20
15.0922250284
 11
34.7627630091
 21
15.0764104806
  0
LINE
  5
258
100
AcDbEntity
  8
0
100
AcDbLine
 62
7
  6
BYLAYER
 10
15.1861921972
 20
39.3591517664
 11
15.1861921972
 21
42.3528970366
  0
LINE
  5
259
100
AcDbEntity
  8
0
100
AcDbLine
 62
7
  6
BYLAYER
 10
16.089343985
 20
23.6015849823
 11
16.089343985
 21
25.6818998218
  0
LINE
  5
25A
100
AcDbEntity
  8
0
100
AcDbLine
 62
7
  6
BYLAYER
 10
16.089343985
 20
46.5453029036
 11
16.089343985
 21
48.6256177432
  0
LINE
  5
25B
100
AcDbEntity
  8
0
100
AcDbLine
 62
7
  6
BYLAYER
 10
28.0780435756
 20
71.9389957323
 11
28.2411023321
 21
72.3020376965
  0
LINE
  5
25C
100
AcDbEntity
  8
0
100
AcDbLine
 62
7
  6
BYLAYER
 10
31.3674794711
 20
68.1463806597
 11
31.1497190712
 21
67.8096650313
  0
LINE
  5
25D
100
AcDbEntity
  8
0
100
AcDbLine
 62
7
  6
BYLAYER
 10
30.5340378001
 20
68.0696894627
 11
30.3017842522
 21
67.7478125245
  0
LINE
  5
25E
100
AcDbEntity
  8
0
100
AcDbLine
 62
7
  6
BYLAYER
 10
13.0446936744
 20
36.4154105541
 11
18.8076379344
 21
33.0882484048
  0
LINE
  5
25F
100
AcDbEntity
  8
0
100
AcDbLine
 62
7
  6
BYLAYER
 10
19.305072049
 20
32.9291541379
 11
19.711660141
 21
32.694415704
  0
LINE
  5
260
100
AcDbEntity
  8
0
100
AcDbLine
 62
7
  6
BYLAYER
 10
24.661428217
 20
29.8367304224
 11
25.068016309
 21
29.6019919885
  0
LINE
  5
261
100
AcDbEntity
  8
0
100
AcDbLine
 62
7
  6
BYLAYER
 10
18.704081774
 20
33.3171414787
 11
12.9411375141
 21
36.6443036281
  0
LINE
  5
262
100
AcDbEntity
  8
0
100
AcDbLine
 62
7
  6
BYLAYER
 10
12.9411375141
 20
37.4721740553
 11
18.704081774
 21
34.1450119059
  0
LINE
  5
263
100
AcDbEntity
  8
0
100
AcDbLine
 62
7
  6
BYLAYER
 10
33.7038126708
 20
14.8111296185
 11
33.8455772855
 21
14.6094445319
  0
LINE
  5
264
100
AcDbEntity
  8
0
100
AcDbLine
 62
7
  6
BYLAYER
 10
23.6864010765
 20
8.1385008264
 11
23.6891671568
 21
8.1258465688
  0
LINE
  5
265
100
AcDbEntity
  8
0
100
AcDbLine
 62
7
  6
BYLAYER
 10
17.8909055901
 20
19.9877274969
 11
17.8909055901
 21
24.6417912746
  0
LINE
  5
266
100
AcDbEntity
  8
0
100
AcDbLine
 62
7
  6
BYLAYER
 10
17.8909055901
 20
42.9314454183
 11
17.8909055901
 21
47.5855091959
  0
LINE
  5
267
100
AcDbEntity
  8
0
100
AcDbLine
 62
7
  6
BYLAYER
 10
18.3505269115
 20
12.9045758235
 11
18.3505269115
 21
12.0880734063
  0
LINE
  5
268
100
AcDbEntity
  8
0
100
AcDbLine
 62
7
  6
BYLAYER
 10
18.3505269115
 20
54.329301762
 11
18.3505269115
 21
55.1458041791
  0
LINE
  5
269
100
AcDbEntity
  8
0
100
AcDbLine
 62
7
  6
BYLAYER
 10
18.704081774
 20
59.7768349775
 11
18.704081774
 21
40.4909947394
  0
LINE
  5
26A
100
AcDbEntity
  8
0
100
AcDbLine
 62
7
  6
BYLAYER
 10
18.704081774
 20
6.85744798
 11
18.704081774
 21
25.0704670657
  0
LINE
  5
26B
100
AcDbEntity
  8
0
100
AcDbLine
 62
7
  6
BYLAYER
 10
18.704081774
 20
33.3171414787
 11
18.704081774
 21
34.1450119059
  0
LINE
  5
26C
100
AcDbEntity
  8
0
100
AcDbLine
 62
7
  6
BYLAYER
 10
19.305072049
 20
32.9291541379
 11
19.305072049
 21
33.1001455646
  0
LINE
  5
26D
100
AcDbEntity
  8
0
100
AcDbLine
 62
7
  6
BYLAYER
 10
19.711660141
 20
33.1364582345
 11
19.711660141
 21
32.694415704
  0
LINE
  5
26E
100
AcDbEntity
  8
0
100
AcDbLine
 62
7
  6
BYLAYER
 10
20.1925353514
 20
40.7595461607
 11
20.1925353514
 21
40.5411317641
  0
LINE
  5
26F
100
AcDbEntity
  8
0
100
AcDbLine
 62
7
  6
BYLAYER
 10
20.1925353514
 20
35.813582769
 11
20.1925353514
 21
35.5951683724
  0
LINE
  5
270
100
AcDbEntity
  8
0
100
AcDbLine
 62
7
  6
BYLAYER
 10
23.6890723391
 20
64.2644464686
 11
23.6864370252
 21
64.2489933157
  0
LINE
  5
271
100
AcDbEntity
  8
0
100
AcDbLine
 62
7
  6
BYLAYER
 10
29.0015241667
 20
72.4051372158
 11
29.1432887814
 21
72.7705170023
  0
LINE
  5
272
100
AcDbEntity
  8
0
100
AcDbLine
 62
7
  6
BYLAYER
 10
32.2271947211
 20
68.3225090935
 11
32.0267092802
 21
67.9752561962
  0
LINE
  5
273
100
AcDbEntity
  8
0
100
AcDbLine
 62
7
  6
BYLAYER
 10
16.089343985
 20
46.5453029036
 11
13.8603801568
 21
45.258417719
  0
LINE
  5
274
100
AcDbEntity
  8
0
100
AcDbLine
 62
7
  6
BYLAYER
 10
44.3012406812
 20
33.7659624282
 11
40.0536288734
 21
32.6278477786
  0
LINE
  5
275
100
AcDbEntity
  8
0
100
AcDbLine
 62
7
  6
BYLAYER
 10
40.2681694225
 20
33.9917361227
 11
43.411124904
 21
34.8338666748
  0
LINE
  5
276
100
AcDbEntity
  8
0
100
AcDbLine
 62
7
  6
BYLAYER
 10
18.8076517803
 20
33.0882723479
 11
18.9199945175
 21
33.065754018
  0
LINE
  5
277
100
AcDbEntity
  8
0
100
AcDbLine
 62
7
  6
BYLAYER
 10
18.9153924803
 20
34.6407649846
 11
13.1524482204
 21
37.9679271339
  0
LINE
  5
278
100
AcDbEntity
  8
0
100
AcDbLine
 62
7
  6
BYLAYER
 10
21.6384748787
 20
34.1539764768
 11
24.661428217
 21
32.4087130364
  0
LINE
  5
279
100
AcDbEntity
  8
0
100
AcDbLine
 62
7
  6
BYLAYER
 10
45.819004516
 20
20.717967296
 11
43.0940691487
 21
22.2911738731
  0
LINE
  5
27A
100
AcDbEntity
  8
0
100
AcDbLine
 62
7
  6
BYLAYER
 10
45.7154483556
 20
20.9468603699
 11
43.2405215503
 21
22.3757277019
  0
LINE
  5
27B
100
AcDbEntity
  8
0
100
AcDbLine
 62
7
  6
BYLAYER
 10
14.2610214269
 20
39.1704979527
 11
20.0239656869
 21
35.8433358034
  0
LINE
  5
27C
100
AcDbEntity
  8
0
100
AcDbLine
 62
7
  6
BYLAYER
 10
14.3943819969
 20
39.2185685634
 11
20.1573262568
 21
35.8914064141
  0
LINE
  5
27D
100
AcDbEntity
  8
0
100
AcDbLine
 62
7
  6
BYLAYER
 10
24.661428217
 20
33.7967671454
 11
22.8405821841
 21
34.8480093104
  0
LINE
  5
27E
100
AcDbEntity
  8
0
100
AcDbLine
 62
7
  6
BYLAYER
 10
20.9491364572
 20
36.031989617
 11
15.1861921972
 21
39.3591517664
  0
LINE
  5
27F
100
AcDbEntity
  8
0
100
AcDbLine
 62
7
  6
BYLAYER
 10
20.1925353514
 20
35.813582769
 11
20.157324413
 21
35.8914032203
  0
LINE
  5
280
100
AcDbEntity
  8
0
100
AcDbLine
 62
7
  6
BYLAYER
 10
20.9491364572
 20
36.031989617
 11
20.9491364572
 21
41.1963674054
  0
LINE
  5
281
100
AcDbEntity
  8
0
100
AcDbLine
 62
7
  6
BYLAYER
 10
30.84608024
 20
73.6154146721
 11
30.9430529477
 21
73.9790522761
  0
LINE
  5
282
100
AcDbEntity
  8
0
100
AcDbLine
 62
7
  6
BYLAYER
 10
29.9265497224
 20
72.9653647524
 11
30.0463743526
 21
73.3312658116
  0
LINE
  5
283
100
AcDbEntity
  8
0
100
AcDbLine
 62
7
  6
BYLAYER
 10
33.1083295299
 20
68.5993458595
 11
32.9260804543
 21
68.2433257705
  0
LINE
  5
284
100
AcDbEntity
  8
0
100
AcDbLine
 62
7
  6
BYLAYER
 10
13.1524482204
 20
37.9679271339
 11
14.2610214269
 21
39.1704979527
  0
LINE
  5
285
100
AcDbEntity
  8
0
100
AcDbLine
 62
7
  6
BYLAYER
 10
44.3012406812
 20
62.0985963026
 11
45.0790549021
 21
62.5476648719
  0
LINE
  5
286
100
AcDbEntity
  8
0
100
AcDbLine
 62
7
  6
BYLAYER
 10
45.3253631749
 20
61.6284170284
 11
45.6447379719
 21
61.8128070527
  0
LINE
  5
287
100
AcDbEntity
  8
0
100
AcDbLine
 62
7
  6
BYLAYER
 10
18.9199945175
 20
33.065754018
 11
19.8401647974
 21
33.1479350762
  0
LINE
  5
288
100
AcDbEntity
  8
0
100
AcDbLine
 62
7
  6
BYLAYER
 10
40.0536288734
 20
32.6278477786
 11
39.8001245776
 21
32.6506349191
  0
LINE
  5
289
100
AcDbEntity
  8
0
100
AcDbLine
 62
7
  6
BYLAYER
 10
13.0446936744
 20
43.5892638148
 11
18.8076379344
 21
40.2621016655
  0
LINE
  5
28A
100
AcDbEntity
  8
0
100
AcDbLine
 62
7
  6
BYLAYER
 10
18.704081774
 20
40.4909947394
 11
12.9411375141
 21
43.8181568887
  0
LINE
  5
28B
100
AcDbEntity
  8
0
100
AcDbLine
 62
7
  6
BYLAYER
 10
34.6288382266
 20
15.3190232134
 11
34.7482720421
 21
15.0922250284
  0
LINE
  5
28C
100
AcDbEntity
  8
0
100
AcDbLine
 62
7
  6
BYLAYER
 10
24.661428217
 20
35.8992689825
 11
24.661428217
 21
33.7967671454
  0
LINE
  5
28D
100
AcDbEntity
  8
0
100
AcDbLine
 62
7
  6
BYLAYER
 10
24.661428217
 20
32.4087130364
 11
24.661428217
 21
29.8367304224
  0
LINE
  5
28E
100
AcDbEntity
  8
0
100
AcDbLine
 62
7
  6
BYLAYER
 10
25.068016309
 20
29.6019919885
 11
25.068016309
 21
36.1340113256
  0
LINE
  5
28F
100
AcDbEntity
  8
0
100
AcDbLine
 62
7
  6
BYLAYER
 10
31.7531175368
 20
74.3503397026
 11
31.8265003012
 21
74.7089463496
  0
LINE
  5
290
100
AcDbEntity
  8
0
100
AcDbLine
 62
7
  6
BYLAYER
 10
34.9062330413
 20
69.443354853
 11
34.7644684266
 21
69.0779750665
  0
LINE
  5
291
100
AcDbEntity
  8
0
100
AcDbLine
 62
7
  6
BYLAYER
 10
34.0040465921
 20
68.9748755472
 11
33.8409878356
 21
68.6118335829
  0
LINE
  5
292
100
AcDbEntity
  8
0
100
AcDbLine
 62
7
  6
BYLAYER
 10
20.157324413
 20
35.8914032203
 11
20.072327699
 21
35.8829866737
  0
LINE
  5
293
100
AcDbEntity
  8
0
100
AcDbLine
 62
7
  6
BYLAYER
 10
18.8076482488
 20
40.2621195018
 11
18.9153924803
 21
40.2392407906
  0
LINE
  5
294
100
AcDbEntity
  8
0
100
AcDbLine
 62
7
  6
BYLAYER
 10
13.8603801568
 20
45.258417719
 11
17.8909055901
 21
42.9314454183
  0
LINE
  5
295
100
AcDbEntity
  8
0
100
AcDbLine
 62
7
  6
BYLAYER
 10
35.5483687441
 20
15.7307493394
 11
35.6453414518
 21
15.4790855049
  0
LINE
  5
296
100
AcDbEntity
  8
0
100
AcDbLine
 62
7
  6
BYLAYER
 10
19.700652742
 20
59.6213190422
 11
19.504727804
 21
60.3525310909
  0
LINE
  5
297
100
AcDbEntity
  8
0
100
AcDbLine
 62
7
  6
BYLAYER
 10
18.2577458354
 20
66.77928036
 11
18.0933358407
 21
67.3928753942
  0
LINE
  5
298
100
AcDbEntity
  8
0
100
AcDbLine
 62
7
  6
BYLAYER
 10
32.6407585114
 20
75.1645466206
 11
32.6899928454
 21
75.5153930974
  0
LINE
  5
299
100
AcDbEntity
  8
0
100
AcDbLine
 62
7
  6
BYLAYER
 10
19.504727804
 20
7.2062527498
 11
19.700652742
 21
8.1636980795
  0
LINE
  5
29A
100
AcDbEntity
  8
0
100
AcDbLine
 62
7
  6
BYLAYER
 10
35.8093186125
 20
70.0041036623
 11
35.6894939824
 21
69.6382026031
  0
LINE
  5
29B
100
AcDbEntity
  8
0
100
AcDbLine
 62
7
  6
BYLAYER
 10
20.0239656868
 20
35.8433358034
 11
18.9153924803
 21
34.6407649846
  0
LINE
  5
29C
100
AcDbEntity
  8
0
100
AcDbLine
 62
7
  6
BYLAYER
 10
13.1570502576
 20
28.8983297488
 11
14.0772205375
 21
29.8786634658
  0
LINE
  5
29D
100
AcDbEntity
  8
0
100
AcDbLine
 62
7
  6
BYLAYER
 10
14.6685400281
 20
39.0602869311
 11
15.1861921972
 21
39.3591517664
  0
LINE
  5
29E
100
AcDbEntity
  8
0
100
AcDbLine
 62
7
  6
BYLAYER
 10
20.9491364572
 20
41.1963674054
 11
20.1925353514
 21
40.7595461607
  0
LINE
  5
29F
100
AcDbEntity
  8
0
100
AcDbLine
 62
7
  6
BYLAYER
 10
40.0536288734
 20
32.6278477786
 11
39.667568239
 21
32.8507349474
  0
LINE
  5
2A0
100
AcDbEntity
  8
0
100
AcDbLine
 62
7
  6
BYLAYER
 10
16.089343985
 20
46.5453029036
 11
17.8909055901
 21
45.5051943563
  0
LINE
  5
2A1
100
AcDbEntity
  8
0
100
AcDbLine
 62
7
  6
BYLAYER
 10
17.8909055901
 20
47.5855091959
 11
13.8603801568
 21
49.9124814967
  0
LINE
  5
2A2
100
AcDbEntity
  8
0
100
AcDbLine
 62
7
  6
BYLAYER
 10
33.50224768
 20
76.0518388198
 11
33.5270264954
 21
76.3931864208
  0
LINE
  5
2A3
100
AcDbEntity
  8
0
100
AcDbLine
 62
7
  6
BYLAYER
 10
24.0206900953
 20
9.3212185925
 11
23.8249676805
 21
8.3647629524
  0
LINE
  5
2A4
100
AcDbEntity
  8
0
100
AcDbLine
 62
7
  6
BYLAYER
 10
36.7059972076
 20
70.6518901268
 11
36.6090244999
 21
70.2882525228
  0
LINE
  5
2A5
100
AcDbEntity
  8
0
100
AcDbLine
 62
7
  6
BYLAYER
 10
14.3093834391
 20
39.2101488231
 11
14.394380153
 21
39.2185653697
  0
LINE
  5
2A6
100
AcDbEntity
  8
0
100
AcDbLine
 62
7
  6
BYLAYER
 10
18.9153924803
 20
40.2392407906
 11
20.0239656868
 21
40.3167324092
  0
LINE
  5
2A7
100
AcDbEntity
  8
0
100
AcDbLine
 62
7
  6
BYLAYER
 10
48.4402587611
 20
35.9372272832
 11
48.3873333768
 21
35.957032227
  0
LINE
  5
2A8
100
AcDbEntity
  8
0
100
AcDbLine
 62
7
  6
BYLAYER
 10
44.3012406812
 20
33.7659624282
 11
42.7557117315
 21
34.658253797
  0
LINE
  5
2A9
100
AcDbEntity
  8
0
100
AcDbLine
 62
7
  6
BYLAYER
 10
45.0790549021
 20
34.2150309975
 11
43.6973399193
 21
35.0127464681
  0
LINE
  5
2AA
100
AcDbEntity
  8
0
100
AcDbLine
 62
7
  6
BYLAYER
 10
36.4554060409
 20
16.0431745121
 11
36.5287888054
 21
15.7693024769
  0
LINE
  5
2AB
100
AcDbEntity
  8
0
100
AcDbLine
 62
7
  6
BYLAYER
 10
23.8249694819
 20
64.182567699
 11
24.0206900953
 21
63.4521182106
  0
LINE
  5
2AC
100
AcDbEntity
  8
0
100
AcDbLine
 62
7
  6
BYLAYER
 10
30.66974812
 20
67.7621244896
 11
30.6450369194
 21
68.0740067766
  0
LINE
  5
2AD
100
AcDbEntity
  8
0
100
AcDbLine
 62
7
  6
BYLAYER
 10
37.5894445612
 20
71.3817842002
 11
37.5160617968
 21
71.0231775532
  0
LINE
  5
2AE
100
AcDbEntity
  8
0
100
AcDbLine
 62
7
  6
BYLAYER
 10
20.1925353514
 20
35.5951683724
 11
20.9491364572
 21
36.031989617
  0
LINE
  5
2AF
100
AcDbEntity
  8
0
100
AcDbLine
 62
7
  6
BYLAYER
 10
19.305072049
 20
32.9291541379
 11
14.2148597126
 21
29.9903362176
  0
LINE
  5
2B0
100
AcDbEntity
  8
0
100
AcDbLine
 62
7
  6
BYLAYER
 10
19.9778039725
 20
33.1951934053
 11
25.068016309
 21
36.1340113256
  0
LINE
  5
2B1
100
AcDbEntity
  8
0
100
AcDbLine
 62
7
  6
BYLAYER
 10
44.2765920431
 20
36.0241840356
 11
45.3253631749
 21
35.4186894385
  0
LINE
  5
2B2
100
AcDbEntity
  8
0
100
AcDbLine
 62
7
  6
BYLAYER
 10
44.3012406812
 20
36.3787304377
 11
45.6447379719
 21
35.6030794629
  0
LINE
  5
2B3
100
AcDbEntity
  8
0
100
AcDbLine
 62
7
  6
BYLAYER
 10
44.3012406812
 20
38.3160855758
 11
48.3873333768
 21
35.957032227
  0
LINE
  5
2B4
100
AcDbEntity
  8
0
100
AcDbLine
 62
7
  6
BYLAYER
 10
44.3012406812
 20
38.3269493466
 11
48.4403075441
 21
35.9373120399
  0
LINE
  5
2B5
100
AcDbEntity
  8
0
100
AcDbLine
 62
7
  6
BYLAYER
 10
37.3430470155
 20
16.2539209872
 11
37.3922813496
 21
15.959925083
  0
LINE
  5
2B6
100
AcDbEntity
  8
0
100
AcDbLine
 62
7
  6
BYLAYER
 10
38.4529371054
 20
72.1882309481
 11
38.4037027714
 21
71.8373844712
  0
LINE
  5
2B7
100
AcDbEntity
  8
0
100
AcDbLine
 62
7
  6
BYLAYER
 10
30.4213471987
 20
11.9352783984
 11
30.4705815327
 21
12.2861248753
  0
LINE
  5
2B8
100
AcDbEntity
  8
0
100
AcDbLine
 62
7
  6
BYLAYER
 10
19.8401647974
 20
26.5515013164
 11
18.9199945175
 21
25.5711675994
  0
LINE
  5
2B9
100
AcDbEntity
  8
0
100
AcDbLine
 62
7
  6
BYLAYER
 10
21.9390942658
 20
33.9804177192
 11
19.711660141
 21
32.694415704
  0
LINE
  5
2BA
100
AcDbEntity
  8
0
100
AcDbLine
 62
7
  6
BYLAYER
 10
45.7154483556
 20
20.9468603699
 11
45.8190301429
 21
20.7180118127
  0
LINE
  5
2BB
100
AcDbEntity
  8
0
100
AcDbLine
 62
7
  6
BYLAYER
 10
31.5312372885
 20
67.8695883593
 11
31.4820029545
 21
68.1635842635
  0
LINE
  5
2BC
100
AcDbEntity
  8
0
100
AcDbLine
 62
7
  6
BYLAYER
 10
39.2899707568
 20
73.0660242916
 11
39.2651919399
 21
72.7246766705
  0
LINE
  5
2BD
100
AcDbEntity
  8
0
100
AcDbLine
 62
7
  6
BYLAYER
 10
31.2848397429
 20
12.7417251463
 11
31.3582225073
 21
13.1003317932
  0
LINE
  5
2BE
100
AcDbEntity
  8
0
100
AcDbLine
 62
7
  6
BYLAYER
 10
19.3848243873
 20
6.7265855148
 11
19.5609154862
 21
7.031585938
  0
LINE
  5
2BF
100
AcDbEntity
  8
0
100
AcDbLine
 62
7
  6
BYLAYER
 10
32.4188782631
 20
68.0803348344
 11
32.3454954987
 21
68.3542068696
  0
LINE
  5
2C0
100
AcDbEntity
  8
0
100
AcDbLine
 62
7
  6
BYLAYER
 10
39.6343553556
 20
17.4359606466
 11
39.6343553556
 21
20.2937191066
  0
LINE
  5
2C1
100
AcDbEntity
  8
0
100
AcDbLine
 62
7
  6
BYLAYER
 10
32.1682870965
 20
13.4716192198
 11
32.2652598041
 21
13.8352568237
  0
LINE
  5
2C2
100
AcDbEntity
  8
0
100
AcDbLine
 62
7
  6
BYLAYER
 10
19.9778039725
 20
26.6631740682
 11
25.068016309
 21
29.6019919885
  0
LINE
  5
2C3
100
AcDbEntity
  8
0
100
AcDbLine
 62
7
  6
BYLAYER
 10
13.8603801568
 20
22.3146997977
 11
16.089343985
 21
23.6015849823
  0
LINE
  5
2C4
100
AcDbEntity
  8
0
100
AcDbLine
 62
7
  6
BYLAYER
 10
12.9411375141
 20
63.1039971268
 11
18.704081774
 21
59.7768349775
  0
LINE
  5
2C5
100
AcDbEntity
  8
0
100
AcDbLine
 62
7
  6
BYLAYER
 10
18.9661277227
 20
60.3224667593
 11
13.2031834627
 21
63.6496289087
  0
LINE
  5
2C6
100
AcDbEntity
  8
0
100
AcDbLine
 62
7
  6
BYLAYER
 10
13.6218801273
 20
64.0209087619
 11
19.5609154862
 21
60.5920774624
  0
LINE
  5
2C7
100
AcDbEntity
  8
0
100
AcDbLine
 62
7
  6
BYLAYER
 10
44.3012406812
 20
36.1364529626
 11
44.3012406812
 21
62.0985963026
  0
LINE
  5
2C8
100
AcDbEntity
  8
0
100
AcDbLine
 62
7
  6
BYLAYER
 10
33.0649656916
 20
14.1194056842
 11
33.1847903217
 21
14.4853067434
  0
LINE
  5
2C9
100
AcDbEntity
  8
0
100
AcDbLine
 62
7
  6
BYLAYER
 10
33.9680512627
 20
14.6801544935
 11
34.1098158775
 21
15.04553428
  0
LINE
  5
2CA
100
AcDbEntity
  8
0
100
AcDbLine
 62
7
  6
BYLAYER
 10
45.6447379719
 20
35.6030794629
 11
45.3253631749
 21
35.4186894385
  0
LINE
  5
2CB
100
AcDbEntity
  8
0
100
AcDbLine
 62
7
  6
BYLAYER
 10
33.32591556
 20
68.3927600071
 11
33.2289428523
 21
68.6444238417
  0
LINE
  5
2CC
100
AcDbEntity
  8
0
100
AcDbLine
 62
7
  6
BYLAYER
 10
45.7154483556
 20
23.8046188299
 11
45.7154483556
 21
20.9468603699
  0
LINE
  5
2CD
100
AcDbEntity
  8
0
100
AcDbLine
 62
7
  6
BYLAYER
 10
45.3253631749
 20
35.4186894385
 11
45.0790549021
 21
34.2150309975
  0
LINE
  5
2CE
100
AcDbEntity
  8
0
100
AcDbLine
 62
7
  6
BYLAYER
 10
34.870237712
 20
15.1486337993
 11
35.0332964685
 21
15.5116757636
  0
LINE
  5
2CF
100
AcDbEntity
  8
0
100
AcDbLine
 62
7
  6
BYLAYER
 10
45.0790549021
 20
34.2150309975
 11
44.3012406812
 21
33.7659624282
  0
LINE
  5
2D0
100
AcDbEntity
  8
0
100
AcDbLine
 62
7
  6
BYLAYER
 10
13.4007588354
 20
15.7622611051
 11
15.8756642567
 21
17.1911398871
  0
LINE
  5
2D1
100
AcDbEntity
  8
0
100
AcDbLine
 62
7
  6
BYLAYER
 10
16.4904848314
 20
16.7296021754
 11
13.4007588354
 21
14.945758688
  0
LINE
  5
2D2
100
AcDbEntity
  8
0
100
AcDbLine
 62
7
  6
BYLAYER
 10
18.2577458354
 20
66.77928036
 11
24.0206900953
 21
63.4521182106
  0
LINE
  5
2D3
100
AcDbEntity
  8
0
100
AcDbLine
 62
7
  6
BYLAYER
 10
17.9509349179
 20
67.4750887454
 11
23.7138791779
 21
64.147926596
  0
LINE
  5
2D4
100
AcDbEntity
  8
0
100
AcDbLine
 62
7
  6
BYLAYER
 10
23.686444786
 20
64.2504697806
 11
17.9235005261
 21
67.57763193
  0
LINE
  5
2D5
100
AcDbEntity
  8
0
100
AcDbLine
 62
7
  6
BYLAYER
 10
23.6893183677
 20
64.26451239
 11
17.9264326437
 21
67.5919605927
  0
LINE
  5
2D6
100
AcDbEntity
  8
0
100
AcDbLine
 62
7
  6
BYLAYER
 10
24.031220232
 20
64.7662069378
 11
18.268275972
 21
68.0933690871
  0
LINE
  5
2D7
100
AcDbEntity
  8
0
100
AcDbLine
 62
7
  6
BYLAYER
 10
34.2454460775
 20
68.8044861331
 11
34.1260122619
 21
69.0312843182
  0
LINE
  5
2D8
100
AcDbEntity
  8
0
100
AcDbLine
 62
7
  6
BYLAYER
 10
48.5438637045
 20
22.5798369854
 11
48.5438637045
 21
35.708418966
  0
LINE
  5
2D9
100
AcDbEntity
  8
0
100
AcDbLine
 62
7
  6
BYLAYER
 10
48.5438637045
 20
65.7473863057
 11
48.5438637045
 21
66.6168015121
  0
LINE
  5
2DA
100
AcDbEntity
  8
0
100
AcDbLine
 62
7
  6
BYLAYER
 10
35.7659547741
 20
15.524163487
 11
35.9482038498
 21
15.880183576
  0
LINE
  5
2DB
100
AcDbEntity
  8
0
100
AcDbLine
 62
7
  6
BYLAYER
 10
36.647089583
 20
15.801000253
 11
36.8475750238
 21
16.1482531503
  0
LINE
  5
2DC
100
AcDbEntity
  8
0
100
AcDbLine
 62
7
  6
BYLAYER
 10
35.1704716333
 20
69.312379728
 11
35.0287070186
 21
69.5140648146
  0
LINE
  5
2DD
100
AcDbEntity
  8
0
100
AcDbLine
 62
7
  6
BYLAYER
 10
45.0790549021
 20
62.5476648719
 11
45.3253631749
 21
61.6284170284
  0
LINE
  5
2DE
100
AcDbEntity
  8
0
100
AcDbLine
 62
7
  6
BYLAYER
 10
37.506804833
 20
15.9771286868
 11
37.7245652329
 21
16.3138443152
  0
LINE
  5
2DF
100
AcDbEntity
  8
0
100
AcDbLine
 62
7
  6
BYLAYER
 10
23.7139158848
 20
64.1479904728
 11
23.7888779054
 21
64.1553557787
  0
LINE
  5
2E0
100
AcDbEntity
  8
0
100
AcDbLine
 62
7
  6
BYLAYER
 10
23.4464501237
 20
71.082971482
 11
29.2093943836
 21
67.7558093326
  0
LINE
  5
2E1
100
AcDbEntity
  8
0
100
AcDbLine
 62
7
  6
BYLAYER
 10
23.6321944994
 20
71.1293303418
 11
29.3951387593
 21
67.8021681925
  0
LINE
  5
2E2
100
AcDbEntity
  8
0
100
AcDbLine
 62
7
  6
BYLAYER
 10
30.3017842522
 20
67.7478125245
 11
24.5388399922
 21
71.0749746739
  0
LINE
  5
2E3
100
AcDbEntity
  8
0
100
AcDbLine
 62
7
  6
BYLAYER
 10
24.7710935402
 20
71.396851612
 11
30.5340378001
 21
68.0696894627
  0
LINE
  5
2E4
100
AcDbEntity
  8
0
100
AcDbLine
 62
7
  6
BYLAYER
 10
24.8616505017
 20
71.4399866025
 11
30.6245947617
 21
68.1128244531
  0
LINE
  5
2E5
100
AcDbEntity
  8
0
100
AcDbLine
 62
7
  6
BYLAYER
 10
31.1497190712
 20
67.8096650313
 11
30.6567411373
 21
68.0942795353
  0
LINE
  5
2E6
100
AcDbEntity
  8
0
100
AcDbLine
 62
7
  6
BYLAYER
 10
34.1260122619
 20
69.0312843182
 11
34.111521295
 21
69.0470988659
  0
LINE
  5
2E7
100
AcDbEntity
  8
0
100
AcDbLine
 62
7
  6
BYLAYER
 10
39.6343553556
 20
20.2937191066
 11
45.7154483556
 21
23.8046188299
  0
LINE
  5
2E8
100
AcDbEntity
  8
0
100
AcDbLine
 62
7
  6
BYLAYER
 10
25.6045352111
 20
71.473542809
 11
31.3674794711
 21
68.1463806597
  0
LINE
  5
2E9
100
AcDbEntity
  8
0
100
AcDbLine
 62
7
  6
BYLAYER
 10
25.6994217121
 20
71.5229668266
 11
31.4623659721
 21
68.1958046772
  0
LINE
  5
2EA
100
AcDbEntity
  8
0
100
AcDbLine
 62
7
  6
BYLAYER
 10
32.0267092802
 20
67.9752561962
 11
26.2637650203
 21
71.3024183455
  0
LINE
  5
2EB
100
AcDbEntity
  8
0
100
AcDbLine
 62
7
  6
BYLAYER
 10
26.4642504611
 20
71.6496712428
 11
32.2271947211
 21
68.3225090935
  0
LINE
  5
2EC
100
AcDbEntity
  8
0
100
AcDbLine
 62
7
  6
BYLAYER
 10
26.5642494046
 20
71.7074060543
 11
32.3271936645
 21
68.380243905
  0
LINE
  5
2ED
100
AcDbEntity
  8
0
100
AcDbLine
 62
7
  6
BYLAYER
 10
32.9260804543
 20
68.2433257705
 11
27.1631361943
 21
71.5704879198
  0
LINE
  5
2EE
100
AcDbEntity
  8
0
100
AcDbLine
 62
7
  6
BYLAYER
 10
27.34538527
 20
71.9265080089
 11
33.1083295299
 21
68.5993458595
  0
LINE
  5
2EF
100
AcDbEntity
  8
0
100
AcDbLine
 62
7
  6
BYLAYER
 10
44.4061046472
 20
62.1591391803
 11
45.3253631749
 21
61.6284170284
  0
LINE
  5
2F0
100
AcDbEntity
  8
0
100
AcDbLine
 62
7
  6
BYLAYER
 10
27.4495517182
 20
71.9919005919
 11
33.2124959781
 21
68.6647384426
  0
LINE
  5
2F1
100
AcDbEntity
  8
0
100
AcDbLine
 62
7
  6
BYLAYER
 10
33.8409878356
 20
68.6118335829
 11
28.0780435757
 21
71.9389957323
  0
LINE
  5
2F2
100
AcDbEntity
  8
0
100
AcDbLine
 62
7
  6
BYLAYER
 10
28.2411023321
 20
72.3020376966
 11
34.0040465921
 21
68.9748755472
  0
LINE
  5
2F3
100
AcDbEntity
  8
0
100
AcDbLine
 62
7
  6
BYLAYER
 10
28.3485909677
 20
72.374285264
 11
34.1115352277
 21
69.0471231147
  0
LINE
  5
2F4
100
AcDbEntity
  8
0
100
AcDbLine
 62
7
  6
BYLAYER
 10
35.9313265393
 20
70.0868703226
 11
35.9233985109
 21
70.0931913001
  0
LINE
  5
2F5
100
AcDbEntity
  8
0
100
AcDbLine
 62
7
  6
BYLAYER
 10
35.0287070186
 20
69.5140648146
 11
35.0174679048
 21
69.5244855347
  0
LINE
  5
2F6
100
AcDbEntity
  8
0
100
AcDbLine
 62
7
  6
BYLAYER
 10
36.0939522243
 20
69.9125754148
 11
35.9313265393
 21
70.0868703226
  0
LINE
  5
2F7
100
AcDbEntity
  8
0
100
AcDbLine
 62
7
  6
BYLAYER
 10
24.0312202316
 20
8.0192889471
 11
29.3106393322
 21
11.0673447915
  0
LINE
  5
2F8
100
AcDbEntity
  8
0
100
AcDbLine
 62
7
  6
BYLAYER
 10
38.502989216
 20
16.3745187919
 11
39.280803437
 21
16.8235873612
  0
LINE
  5
2F9
100
AcDbEntity
  8
0
100
AcDbLine
 62
7
  6
BYLAYER
 10
46.0690002742
 20
20.7427312383
 11
48.1903117858
 21
21.9674636999
  0
LINE
  5
2FA
100
AcDbEntity
  8
0
100
AcDbLine
 62
7
  6
BYLAYER
 10
34.7644684266
 20
69.0779750665
 11
29.0015241667
 21
72.4051372158
  0
LINE
  5
2FB
100
AcDbEntity
  8
0
100
AcDbLine
 62
7
  6
BYLAYER
 10
29.1432887814
 20
72.7705170023
 11
34.9062330413
 21
69.443354853
  0
LINE
  5
2FC
100
AcDbEntity
  8
0
100
AcDbLine
 62
7
  6
BYLAYER
 10
29.2545249216
 20
72.8516498924
 11
35.0174691816
 21
69.5244877431
  0
LINE
  5
2FD
100
AcDbEntity
  8
0
100
AcDbLine
 62
7
  6
BYLAYER
 10
35.6894939824
 20
69.6382026031
 11
29.9265497224
 21
72.9653647524
  0
LINE
  5
2FE
100
AcDbEntity
  8
0
100
AcDbLine
 62
7
  6
BYLAYER
 10
30.0463743526
 20
73.3312658116
 11
35.8093186125
 21
70.0041036623
  0
LINE
  5
2FF
100
AcDbEntity
  8
0
100
AcDbLine
 62
7
  6
BYLAYER
 10
30.1604588756
 20
73.4203614441
 11
35.9234031355
 21
70.0931992948
  0
LINE
  5
300
100
AcDbEntity
  8
0
100
AcDbLine
 62
7
  6
BYLAYER
 10
36.6090244999
 20
70.2882525228
 11
30.84608024
 21
73.6154146721
  0
LINE
  5
301
100
AcDbEntity
  8
0
100
AcDbLine
 62
7
  6
BYLAYER
 10
30.9430529477
 20
73.9790522761
 11
36.7059972076
 21
70.6518901267
  0
LINE
  5
302
100
AcDbEntity
  8
0
100
AcDbLine
 62
7
  6
BYLAYER
 10
31.0594981251
 20
74.0760916808
 11
36.8224423851
 21
70.7489295314
  0
LINE
  5
303
100
AcDbEntity
  8
0
100
AcDbLine
 62
7
  6
BYLAYER
 10
36.827235128
 20
70.7455846605
 11
36.8224969748
 21
70.7490240577
  0
LINE
  5
304
100
AcDbEntity
  8
0
100
AcDbLine
 62
7
  6
BYLAYER
 10
37.0088596056
 20
70.6005053421
 11
36.827235128
 21
70.7455846605
  0
LINE
  5
305
100
AcDbEntity
  8
0
100
AcDbLine
 62
7
  6
BYLAYER
 10
19.5126215155
 20
7.209049106
 11
19.504727804
 21
7.2062527498
  0
LINE
  5
306
100
AcDbEntity
  8
0
100
AcDbLine
 62
7
  6
BYLAYER
 10
37.5160617968
 20
71.0231775533
 11
31.7531175368
 21
74.3503397026
  0
LINE
  5
307
100
AcDbEntity
  8
0
100
AcDbLine
 62
7
  6
BYLAYER
 10
31.8265003012
 20
74.7089463496
 11
37.5894445612
 21
71.3817842002
  0
LINE
  5
308
100
AcDbEntity
  8
0
100
AcDbLine
 62
7
  6
BYLAYER
 10
37.9082307797
 20
71.3709339476
 11
31.9448010789
 21
74.8138497297
  0
LINE
  5
309
100
AcDbEntity
  8
0
100
AcDbLine
 62
7
  6
BYLAYER
 10
38.4037027714
 20
71.8373844712
 11
32.6407585114
 21
75.1645466206
  0
LINE
  5
30A
100
AcDbEntity
  8
0
100
AcDbLine
 62
7
  6
BYLAYER
 10
32.6899928454
 20
75.5153930975
 11
38.4529371054
 21
72.1882309481
  0
LINE
  5
30B
100
AcDbEntity
  8
0
100
AcDbLine
 62
7
  6
BYLAYER
 10
38.568024998
 20
72.3030458755
 11
32.8050807381
 21
75.6302080249
  0
LINE
  5
30C
100
AcDbEntity
  8
0
100
AcDbLine
 62
7
  6
BYLAYER
 10
33.0222767287
 20
75.5451599539
 11
38.7852209887
 21
72.2179978045
  0
LINE
  5
30D
100
AcDbEntity
  8
0
100
AcDbLine
 62
7
  6
BYLAYER
 10
48.3980176982
 20
67.2548635485
 11
43.5499548195
 21
75.8076015715
  0
LINE
  5
30E
100
AcDbEntity
  8
0
100
AcDbLine
 62
7
  6
BYLAYER
 10
23.8249676805
 20
8.3647629524
 11
23.8153468529
 21
8.3614408116
  0
LINE
  5
30F
100
AcDbEntity
  8
0
100
AcDbLine
 62
7
  6
BYLAYER
 10
39.6331558077
 20
73.1352502454
 11
39.4018005076
 21
73.1887378195
  0
LINE
  5
310
100
AcDbEntity
  8
0
100
AcDbLine
 62
7
  6
BYLAYER
 10
38.7852209887
 20
72.2179978045
 11
38.568024998
 21
72.3030458755
  0
LINE
  5
311
100
AcDbEntity
  8
0
100
AcDbLine
 62
7
  6
BYLAYER
 10
32.8050807381
 20
75.6302080249
 11
33.0222767287
 21
75.5451599539
  0
LINE
  5
312
100
AcDbEntity
  8
0
100
AcDbLine
 62
7
  6
BYLAYER
 10
39.2651919399
 20
72.7246766705
 11
33.50224768
 21
76.0518388198
  0
LINE
  5
313
100
AcDbEntity
  8
0
100
AcDbLine
 62
7
  6
BYLAYER
 10
39.2899707568
 20
73.0660242916
 11
33.5270264954
 21
76.3931864208
  0
LINE
  5
314
100
AcDbEntity
  8
0
100
AcDbLine
 62
7
  6
BYLAYER
 10
39.4018005075
 20
73.1887378195
 11
33.6388562476
 21
76.5158999689
  0
LINE
  5
315
100
AcDbEntity
  8
0
100
AcDbLine
 62
7
  6
BYLAYER
 10
33.8702115478
 20
76.4624123947
 11
39.6331558077
 21
73.1352502454
  0
LINE
  5
316
100
AcDbEntity
  8
0
100
AcDbLine
 62
7
  6
BYLAYER
 10
34.7768570407
 20
77.5636658522
 11
40.5398013006
 21
74.2365037029
  0
LINE
  5
317
100
AcDbEntity
  8
0
100
AcDbLine
 62
7
  6
BYLAYER
 10
40.7255456763
 20
74.4046226934
 11
34.9626014163
 21
77.7317848428
  0
LINE
  5
318
100
AcDbEntity
  8
0
100
AcDbLine
 62
7
  6
BYLAYER
 10
43.5499548195
 20
75.8076015715
 11
43.4828583254
 21
75.8769759574
  0
LINE
  5
319
100
AcDbEntity
  8
0
100
AcDbLine
 62
7
  6
BYLAYER
 10
33.6388562476
 20
76.5158999689
 11
33.8702115478
 21
76.4624123947
  0
LINE
  5
31A
100
AcDbEntity
  8
0
100
AcDbLine
 62
7
  6
BYLAYER
 10
37.4699201426
 20
79.1793773433
 11
43.2328644025
 21
75.852215194
  0
LINE
  5
31B
100
AcDbEntity
  8
0
100
AcDbLine
 62
7
  6
BYLAYER
 10
37.7199159008
 20
79.2041412856
 11
43.4828601608
 21
75.8769791363
  0
ARC
  5
31C
100
AcDbEntity
  8
0
100
AcDbCircle
 62
7
  6
BYLAYER
 10
21.4847231985
 20
89.0004238093
 40
24.105379864
100
AcDbArc
 50
318.8403789405
 51
322.2313898985
  0
ARC
  5
31D
100
AcDbEntity
  8
0
100
AcDbCircle
 62
7
  6
BYLAYER
 10
15.8912887177
 20
92.188031094
 40
23.8859111111
100
AcDbArc
 50
318.8247956692
 51
322.2469731698
  0
ARC
  5
31E
100
AcDbEntity
  8
0
100
AcDbCircle
 62
7
  6
BYLAYER
 10
46.2858826689
 20
-3.9173856655
 40
22.6429024908
100
AcDbArc
 50
135.6690623567
 51
138.5638598111
  0
ARC
  5
31F
100
AcDbEntity
  8
0
100
AcDbCircle
 62
7
  6
BYLAYER
 10
22.8096570162
 20
87.8321371774
 40
22.338755395
100
AcDbArc
 50
315.6555047523
 51
317.4456506271
  0
ARC
  5
320
100
AcDbEntity
  8
0
100
AcDbCircle
 62
7
  6
BYLAYER
 10
17.1501480488
 20
91.0613162865
 40
22.1962964517
100
AcDbArc
 50
315.6497595768
 51
317.4513958026
  0
ARC
  5
321
100
AcDbEntity
  8
0
100
AcDbCircle
 62
7
  6
BYLAYER
 10
23.954458245
 20
86.689252613
 40
20.720971374
100
AcDbArc
 50
312.3310353584
 51
314.2127540535
  0
ARC
  5
322
100
AcDbEntity
  8
0
100
AcDbCircle
 62
7
  6
BYLAYER
 10
44.9198260589
 20
-2.5657432662
 40
20.7209713736
100
AcDbArc
 50
132.3310353583
 51
134.2127540535
  0
ARC
  5
323
100
AcDbEntity
  8
0
100
AcDbCircle
 62
7
  6
BYLAYER
 10
18.3018247069
 20
89.8992407636
 40
20.5600640597
100
AcDbArc
 50
312.3236713288
 51
314.2201180831
  0
ARC
  5
324
100
AcDbEntity
  8
0
100
AcDbCircle
 62
7
  6
BYLAYER
 10
43.7337293413
 20
-1.2344910137
 40
18.9378012003
100
AcDbArc
 50
128.8070123261
 51
130.8046256674
  0
ARC
  5
325
100
AcDbEntity
  8
0
100
AcDbCircle
 62
7
  6
BYLAYER
 10
25.1405549629
 20
85.3580003601
 40
18.9378012002
100
AcDbArc
 50
308.8070123261
 51
310.8046256674
  0
ARC
  5
326
100
AcDbEntity
  8
0
100
AcDbCircle
 62
7
  6
BYLAYER
 10
19.4656575124
 20
88.5793464767
 40
18.8001677554
100
AcDbArc
 50
308.9149513842
 51
310.812252302
  0
ARC
  5
327
100
AcDbEntity
  8
0
100
AcDbCircle
 62
7
  6
BYLAYER
 10
26.2994202305
 20
83.8823067112
 40
17.0612499387
100
AcDbArc
 50
305.0352689547
 51
307.1763415778
  0
ARC
  5
328
100
AcDbEntity
  8
0
100
AcDbCircle
 62
7
  6
BYLAYER
 10
42.5748640735
 20
0.2412026354
 40
17.0612499386
100
AcDbArc
 50
125.0352689546
 51
127.1763415778
  0
ARC
  5
329
100
AcDbEntity
  8
0
100
AcDbCircle
 62
7
  6
BYLAYER
 10
20.5954803004
 20
87.1280894938
 40
16.9607541093
100
AcDbArc
 50
305.2936827695
 51
307.1836440418
  0
ARC
  5
32A
100
AcDbEntity
  8
0
100
AcDbCircle
 62
7
  6
BYLAYER
 10
41.5045974386
 20
1.8085004869
 40
15.1631331633
100
AcDbArc
 50
120.9611880344
 51
123.2769509192
  0
ARC
  5
32B
100
AcDbEntity
  8
0
100
AcDbCircle
 62
7
  6
BYLAYER
 10
27.3696868655
 20
82.3150088595
 40
15.1631331632
100
AcDbArc
 50
300.9611880344
 51
303.2769509192
  0
ARC
  5
32C
100
AcDbEntity
  8
0
100
AcDbCircle
 62
7
  6
BYLAYER
 10
21.6338827578
 20
85.5978529219
 40
15.111190646
100
AcDbArc
 50
301.4218654549
 51
303.283119139
  0
ARC
  5
32D
100
AcDbEntity
  8
0
100
AcDbCircle
 62
7
  6
BYLAYER
 10
22.5349347687
 20
84.0458578573
 40
13.3162740845
100
AcDbArc
 50
297.2631031595
 51
299.0528076431
  0
ARC
  5
32E
100
AcDbEntity
  8
0
100
AcDbCircle
 62
7
  6
BYLAYER
 10
40.5730887945
 20
3.4088919687
 40
13.3110984175
100
AcDbArc
 50
116.5234138847
 51
119.0488533294
  0
ARC
  5
32F
100
AcDbEntity
  8
0
100
AcDbCircle
 62
7
  6
BYLAYER
 10
28.3011955096
 20
80.7146173777
 40
13.3110984174
100
AcDbArc
 50
296.5234138847
 51
299.0488533294
  0
ARC
  5
330
100
AcDbEntity
  8
0
100
AcDbCircle
 62
7
  6
BYLAYER
 10
23.2674930112
 20
82.5298362269
 40
11.6321665702
100
AcDbArc
 50
292.7841473798
 51
294.4284045221
  0
ARC
  5
331
100
AcDbEntity
  8
0
100
AcDbCircle
 62
7
  6
BYLAYER
 10
39.816044749
 20
4.9818129483
 40
11.565149892
100
AcDbArc
 50
111.6546812119
 51
114.4279303451
  0
ARC
  5
332
100
AcDbEntity
  8
0
100
AcDbCircle
 62
7
  6
BYLAYER
 10
29.0582395551
 20
79.1416963981
 40
11.5651498918
100
AcDbArc
 50
291.6546812119
 51
294.4279303451
  0
ARC
  5
333
100
AcDbEntity
  8
0
100
AcDbCircle
 62
7
  6
BYLAYER
 10
23.8162153659
 20
81.1059553436
 40
10.105791311
100
AcDbArc
 50
287.9721513054
 51
289.3409222468
  0
ARC
  5
334
100
AcDbEntity
  8
0
100
AcDbCircle
 62
7
  6
BYLAYER
 10
39.2524971909
 20
6.4684039666
 40
9.9749661604
100
AcDbArc
 50
106.2847414655
 51
109.3451852907
  0
ARC
  5
335
100
AcDbEntity
  8
0
100
AcDbCircle
 62
7
  6
BYLAYER
 10
29.6217871132
 20
77.6551053799
 40
9.9749661604
100
AcDbArc
 50
286.2847414655
 51
289.3451852907
  0
ARC
  5
336
100
AcDbEntity
  8
0
100
AcDbCircle
 62
7
  6
BYLAYER
 10
24.1829101808
 20
79.8244752899
 40
8.7724233498
100
AcDbArc
 50
282.8502672643
 51
283.7215829869
  0
ARC
  5
337
100
AcDbEntity
  8
0
100
AcDbCircle
 62
7
  6
BYLAYER
 10
38.8837540954
 20
7.8151535721
 40
8.5782616999
100
AcDbArc
 50
100.3468099705
 51
103.7310724292
  0
ARC
  5
338
100
AcDbEntity
  8
0
100
AcDbCircle
 62
7
  6
BYLAYER
 10
29.9905302087
 20
76.3083557743
 40
8.5782616998
100
AcDbArc
 50
280.3468099706
 51
283.7310724292
  0
ARC
  5
339
100
AcDbEntity
  8
0
100
AcDbCircle
 62
7
  6
BYLAYER
 10
30.1806915872
 20
75.1463280736
 40
7.4003809944
100
AcDbArc
 50
273.7891712961
 51
277.524083344
  0
ARC
  5
33A
100
AcDbEntity
  8
0
100
AcDbCircle
 62
7
  6
BYLAYER
 10
34.1606839776
 20
68.9032254357
 40
0.172246942
100
AcDbArc
 50
143.8170589657
 51
155.4193815583
  0
ARC
  5
33B
100
AcDbEntity
  8
0
100
AcDbCircle
 62
7
  6
BYLAYER
 10
33.2608032943
 20
68.5213778325
 40
0.1712520425
100
AcDbArc
 50
141.8797552381
 51
152.9168994135
  0
ARC
  5
33C
100
AcDbEntity
  8
0
100
AcDbCircle
 62
7
  6
BYLAYER
 10
32.3728078462
 20
68.2387013167
 40
0.1680087071
100
AcDbArc
 50
139.8643330839
 51
150.0773790371
  0
SPLINE
  5
33D
100
AcDbEntity
  8
0
100
AcDbSpline
 62
7
  6
BYLAYER
 70
0
 71
3
 72
14
 73
10
 74
0
 42
0.0000001
 43
0.0000001
 44
0.0000000001
 40
0.0
 40
0.0
 40
0.0
 40
0.0
 40
0.1399239021
 40
0.2877041138
 40
0.5748017707
 40
0.7030190482
 40
0.8159284345
 40
0.9134134895
 40
1.0
 40
1.0
 40
1.0
 40
1.0
 10
19.5126216002
 20
60.3588496023
 30
0.0
 10
19.5219343274
 20
60.3670189779
 30
0.0
 10
19.5394219942
 20
60.3857655153
 30
0.0
 10
19.5681582219
 20
60.427848572
 30
0.0
 10
19.5875815579
 20
60.4748999948
 30
0.0
 10
19.5931566178
 20
60.5215954673
 30
0.0
 10
19.5900796714
 20
60.5517526772
 30
0.0
 10
19.5796762339
 20
60.5764293203
 30
0.0
 10
19.5675543133
 20
60.5882444242
 30
0.0
 10
19.5609154862
 20
60.5920774624
 30
0.0
  0
SPLINE
  5
33E
100
AcDbEntity
  8
0
100
AcDbSpline
 62
7
  6
BYLAYER
 70
0
 71
3
 72
9
 73
5
 74
0
 42
0.0000001
 43
0.0000001
 44
0.0000000001
 40
0.0
 40
0.0
 40
0.0
 40
0.0
 40
0.2391382405
 40
1.0
 40
1.0
 40
1.0
 40
1.0
 10
23.7888779054
 20
64.1553557787
 30
0.0
 10
23.7913803548
 20
64.15680056
 30
0.0
 10
23.8016551039
 20
64.163166153
 30
0.0
 10
23.8112408709
 20
64.1706335103
 30
0.0
 10
23.8180495162
 20
64.1768114256
 30
0.0
  0
SPLINE
  5
33F
100
AcDbEntity
  8
0
100
AcDbSpline
 62
7
  6
BYLAYER
 70
0
 71
3
 72
9
 73
5
 74
0
 42
0.0000001
 43
0.0000001
 44
0.0000000001
 40
0.0
 40
0.0
 40
0.0
 40
0.0
 40
0.5427975982
 40
1.0
 40
1.0
 40
1.0
 40
1.0
 10
30.6450369194
 20
68.0740067766
 30
0.0
 10
30.6443910007
 20
68.0821589746
 30
0.0
 10
30.6410801932
 20
68.0973093442
 30
0.0
 10
30.6305630502
 20
68.1093855602
 30
0.0
 10
30.6245976352
 20
68.1128295108
 30
0.0
  0
SPLINE
  5
340
100
AcDbEntity
  8
0
100
AcDbSpline
 62
7
  6
BYLAYER
 70
0
 71
3
 72
9
 73
5
 74
0
 42
0.0000001
 43
0.0000001
 44
0.0000000001
 40
0.0
 40
0.0
 40
0.0
 40
0.0
 40
0.5350090369
 40
1.0
 40
1.0
 40
1.0
 40
1.0
 10
31.4820029545
 20
68.1635842635
 30
0.0
 10
31.4808636088
 20
68.1703877066
 30
0.0
 10
31.4769003096
 20
68.1830133373
 30
0.0
 10
31.4675604436
 20
68.1928108883
 30
0.0
 10
31.4623683198
 20
68.1958086669
 30
0.0
  0
SPLINE
  5
341
100
AcDbEntity
  8
0
100
AcDbSpline
 62
7
  6
BYLAYER
 70
0
 71
3
 72
9
 73
5
 74
0
 42
0.0000001
 43
0.0000001
 44
0.0000000001
 40
0.0
 40
0.0
 40
0.0
 40
0.0
 40
0.52725553
 40
1.0
 40
1.0
 40
1.0
 40
1.0
 10
32.3454954987
 20
68.3542068696
 30
0.0
 10
32.3440189946
 20
68.3597173349
 30
0.0
 10
32.3397214337
 20
68.3699116049
 30
0.0
 10
32.3316248839
 20
68.3776888203
 30
0.0
 10
32.3271954244
 20
68.3802468601
 30
0.0
  0
SPLINE
  5
342
100
AcDbEntity
  8
0
100
AcDbSpline
 62
7
  6
BYLAYER
 70
0
 71
3
 72
9
 73
5
 74
0
 42
0.0000001
 43
0.0000001
 44
0.0000000001
 40
0.0
 40
0.0
 40
0.0
 40
0.0
 40
0.2684411809
 40
1.0
 40
1.0
 40
1.0
 40
1.0
 10
33.2289428523
 20
68.6444238417
 30
0.0
 10
33.2280929699
 20
68.6466294588
 30
0.0
 10
33.2243996482
 20
68.6546146057
 30
0.0
 10
33.2180743506
 20
68.6615173109
 30
0.0
 10
33.2124969811
 20
68.6647401492
 30
0.0
  0
SPLINE
  5
343
100
AcDbEntity
  8
0
100
AcDbSpline
 62
7
  6
BYLAYER
 70
0
 71
3
 72
9
 73
5
 74
0
 42
0.0000001
 43
0.0000001
 44
0.0000000001
 40
0.0
 40
0.0
 40
0.0
 40
0.0
 40
0.2757187772
 40
1.0
 40
1.0
 40
1.0
 40
1.0
 10
48.5438637045
 20
66.6168015121
 30
0.0
 10
48.5438637045
 20
66.6773015048
 30
0.0
 10
48.5335000049
 20
66.8960493468
 30
0.0
 10
48.4763889324
 20
67.1166044846
 30
0.0
 10
48.3980176982
 20
67.2548635485
 30
0.0
  0
SPLINE
  5
344
100
AcDbEntity
  8
0
100
AcDbSpline
 62
7
  6
BYLAYER
 70
0
 71
3
 72
11
 73
7
 74
0
 42
0.0000001
 43
0.0000001
 44
0.0000000001
 40
0.0
 40
0.0
 40
0.0
 40
0.0
 40
0.2601961706
 40
0.5216200879
 40
0.7717973881
 40
1.0
 40
1.0
 40
1.0
 40
1.0
 10
47.7925181315
 20
63.8710864791
 30
0.0
 10
47.907276339
 20
64.0076547961
 30
0.0
 10
48.1147913091
 20
64.3010569146
 30
0.0
 10
48.3516023462
 20
64.776525891
 30
0.0
 10
48.5037679966
 20
65.2626031935
 30
0.0
 10
48.5438637045
 20
65.5909375204
 30
0.0
 10
48.5438637045
 20
65.7473863057
 30
0.0
  0
SPLINE
  5
345
100
AcDbEntity
  8
0
100
AcDbSpline
 62
7
  6
BYLAYER
 70
0
 71
3
 72
9
 73
5
 74
0
 42
0.0000001
 43
0.0000001
 44
0.0000000001
 40
0.0
 40
0.0
 40
0.0
 40
0.0
 40
0.4869145385
 40
1.0
 40
1.0
 40
1.0
 40
1.0
 10
45.6447379719
 20
61.8128070527
 30
0.0
 10
46.031370571
 20
62.1032939059
 30
0.0
 10
46.7868419642
 20
62.7522306856
 30
0.0
 10
47.4646848349
 20
63.4809475724
 30
0.0
 10
47.7925181315
 20
63.8710864791
 30
0.0
  0
SPLINE
  5
346
100
AcDbEntity
  8
0
100
AcDbSpline
 62
7
  6
BYLAYER
 70
0
 71
3
 72
15
 73
11
 74
0
 42
0.0000001
 43
0.0000001
 44
0.0000000001
 40
0.0
 40
0.0
 40
0.0
 40
0.0
 40
0.1092436603
 40
0.2295118199
 40
0.3581393476
 40
0.491839389
 40
0.6266976006
 40
0.7586902253
 40
0.8842112676
 40
1.0
 40
1.0
 40
1.0
 40
1.0
 10
43.5079625636
 20
34.8680400299
 30
0.0
 10
43.5602193228
 20
34.8908012881
 30
0.0
 10
43.6649007547
 20
34.950650508
 30
0.0
 10
43.8101809577
 20
35.0691804076
 30
0.0
 10
43.946024023
 20
35.2162785285
 30
0.0
 10
44.0666031077
 20
35.3854583147
 30
0.0
 10
44.1666800504
 20
35.5695065726
 30
0.0
 10
44.2420238069
 20
35.7604622451
 30
0.0
 10
44.2892367408
 20
35.9500126277
 30
0.0
 10
44.3012406812
 20
36.0760393969
 30
0.0
 10
44.3012406812
 20
36.1364529626
 30
0.0
  0
SPLINE
  5
347
100
AcDbEntity
  8
0
100
AcDbSpline
 62
7
  6
BYLAYER
 70
0
 71
3
 72
9
 73
5
 74
0
 42
0.0000001
 43
0.0000001
 44
0.0000000001
 40
0.0
 40
0.0
 40
0.0
 40
0.0
 40
0.242648996
 40
1.0
 40
1.0
 40
1.0
 40
1.0
 10
43.411124904
 20
34.8338666748
 30
0.0
 10
43.4191520711
 20
34.8360174919
 30
0.0
 10
43.4520515773
 20
34.8455544413
 30
0.0
 10
43.4841824166
 20
34.8576822106
 30
0.0
 10
43.5079625636
 20
34.8680400299
 30
0.0
  0
SPLINE
  5
348
100
AcDbEntity
  8
0
100
AcDbSpline
 62
7
  6
BYLAYER
 70
0
 71
3
 72
9
 73
5
 74
0
 42
0.0000001
 43
0.0000001
 44
0.0000000001
 40
0.0
 40
0.0
 40
0.0
 40
0.0
 40
0.2638121518
 40
1.0
 40
1.0
 40
1.0
 40
1.0
 10
40.1400610645
 20
33.9372483209
 30
0.0
 10
40.1506794046
 20
33.9433787858
 30
0.0
 10
40.1915530865
 20
33.9654836289
 30
0.0
 10
40.2351200107
 20
33.9828807891
 30
0.0
 10
40.2681694225
 20
33.9917361227
 30
0.0
  0
SPLINE
  5
349
100
AcDbEntity
  8
0
100
AcDbSpline
 62
7
  6
BYLAYER
 70
0
 71
3
 72
11
 73
7
 74
0
 42
0.0000001
 43
0.0000001
 44
0.0000000001
 40
0.0
 40
0.0
 40
0.0
 40
0.0
 40
0.2500013843
 40
0.5125537309
 40
0.7684369035
 40
1.0
 40
1.0
 40
1.0
 40
1.0
 10
39.6581670549
 20
33.2179956812
 30
0.0
 10
39.6714097512
 20
33.290834567
 30
0.0
 10
39.7168293048
 20
33.4370968787
 30
0.0
 10
39.8254673284
 20
33.638500174
 30
0.0
 10
39.966497679
 20
33.8117368975
 30
0.0
 10
40.0806752037
 20
33.9029620828
 30
0.0
 10
40.1400610645
 20
33.9372483209
 30
0.0
  0
SPLINE
  5
34A
100
AcDbEntity
  8
0
100
AcDbSpline
 62
7
  6
BYLAYER
 70
0
 71
3
 72
11
 73
7
 74
0
 42
0.0000001
 43
0.0000001
 44
0.0000000001
 40
0.0
 40
0.0
 40
0.0
 40
0.0
 40
0.2894272538
 40
0.5489749193
 40
0.782067492
 40
1.0
 40
1.0
 40
1.0
 40
1.0
 10
48.5438637045
 20
35.708418966
 30
0.0
 10
48.5438637045
 20
35.7337284151
 30
0.0
 10
48.5399846856
 20
35.7818921699
 30
0.0
 10
48.5205414957
 20
35.8480873365
 30
0.0
 10
48.4877000822
 20
35.9018507464
 30
0.0
 10
48.4567946345
 20
35.9277533245
 30
0.0
 10
48.4402879465
 20
35.9372778445
 30
0.0
  0
SPLINE
  5
34B
100
AcDbEntity
  8
0
100
AcDbSpline
 62
7
  6
BYLAYER
 70
0
 71
3
 72
11
 73
7
 74
0
 42
0.0000001
 43
0.0000001
 44
0.0000000001
 40
0.0
 40
0.0
 40
0.0
 40
0.0
 40
0.2372518718
 40
0.4999985497
 40
0.7627460178
 40
1.0
 40
1.0
 40
1.0
 40
1.0
 10
48.1903117858
 20
21.9674636999
 30
0.0
 10
48.2405087691
 20
21.9964447687
 30
0.0
 10
48.3355020359
 20
22.0763832236
 30
0.0
 10
48.4463296582
 20
22.2278991826
 30
0.0
 10
48.5221317861
 20
22.3996375875
 30
0.0
 10
48.5438637045
 20
22.5218740727
 30
0.0
 10
48.5438637045
 20
22.5798369854
 30
0.0
  0
SPLINE
  5
34C
100
AcDbEntity
  8
0
100
AcDbSpline
 62
7
  6
BYLAYER
 70
0
 71
3
 72
9
 73
5
 74
0
 42
0.0000001
 43
0.0000001
 44
0.0000000001
 40
0.0
 40
0.0
 40
0.0
 40
0.0
 40
0.2439822152
 40
1.0
 40
1.0
 40
1.0
 40
1.0
 10
46.025913134
 20
20.7208980574
 30
0.0
 10
46.0295157782
 20
20.7224672461
 30
0.0
 10
46.0441837581
 20
20.7291226834
 30
0.0
 10
46.0584552292
 20
20.7366430901
 30
0.0
 10
46.0690002742
 20
20.7427312383
 30
0.0
  0
SPLINE
  5
34D
100
AcDbEntity
  8
0
100
AcDbSpline
 62
7
  6
BYLAYER
 70
0
 71
3
 72
11
 73
7
 74
0
 42
0.0000001
 43
0.0000001
 44
0.0000000001
 40
0.0
 40
0.0
 40
0.0
 40
0.0
 40
0.2372518718
 40
0.4999985497
 40
0.7627460178
 40
1.0
 40
1.0
 40
1.0
 40
1.0
 10
39.280803437
 20
16.8235873612
 30
0.0
 10
39.3310004203
 20
16.85256843
 30
0.0
 10
39.4259936871
 20
16.9325068848
 30
0.0
 10
39.5368213094
 20
17.0840228438
 30
0.0
 10
39.6126234372
 20
17.2557612488
 30
0.0
 10
39.6343553556
 20
17.3779977339
 30
0.0
 10
39.6343553556
 20
17.4359606466
 30
0.0
  0
SPLINE
  5
34E
100
AcDbEntity
  8
0
100
AcDbSpline
 62
7
  6
BYLAYER
 70
0
 71
3
 72
9
 73
5
 74
0
 42
0.0000001
 43
0.0000001
 44
0.0000000001
 40
0.0
 40
0.0
 40
0.0
 40
0.0
 40
0.2541242938
 40
1.0
 40
1.0
 40
1.0
 40
1.0
 10
37.7245652329
 20
16.3138443152
 30
0.0
 10
37.7901545404
 20
16.3224927334
 30
0.0
 10
38.0486793148
 20
16.3531791582
 30
0.0
 10
38.3088604462
 20
16.3702218109
 30
0.0
 10
38.502989216
 20
16.3745187919
 30
0.0
  0
SPLINE
  5
34F
100
AcDbEntity
  8
0
100
AcDbSpline
 62
7
  6
BYLAYER
 70
0
 71
3
 72
9
 73
5
 74
0
 42
0.0000001
 43
0.0000001
 44
0.0000000001
 40
0.0
 40
0.0
 40
0.0
 40
0.0
 40
0.2288132709
 40
1.0
 40
1.0
 40
1.0
 40
1.0
 10
37.4533000556
 20
15.9282908215
 30
0.0
 10
37.4565145199
 20
15.9296909323
 30
0.0
 10
37.4701450092
 20
15.9367661533
 30
0.0
 10
37.4819913676
 20
15.9469610329
 30
0.0
 10
37.4900280146
 20
15.9556244533
 30
0.0
  0
SPLINE
  5
350
100
AcDbEntity
  8
0
100
AcDbSpline
 62
7
  6
BYLAYER
 70
0
 71
3
 72
9
 73
5
 74
0
 42
0.0000001
 43
0.0000001
 44
0.0000000001
 40
0.0
 40
0.0
 40
0.0
 40
0.0
 40
0.2458350189
 40
1.0
 40
1.0
 40
1.0
 40
1.0
 10
37.4900280146
 20
15.9556244533
 30
0.0
 10
37.4915490157
 20
15.9572640764
 30
0.0
 10
37.4975868409
 20
15.9640709074
 30
0.0
 10
37.50304419
 20
15.9713901675
 30
0.0
 10
37.506804833
 20
15.9771286868
 30
0.0
  0
SPLINE
  5
351
100
AcDbEntity
  8
0
100
AcDbSpline
 62
7
  6
BYLAYER
 70
0
 71
3
 72
9
 73
5
 74
0
 42
0.0000001
 43
0.0000001
 44
0.0000000001
 40
0.0
 40
0.0
 40
0.0
 40
0.0
 40
0.2358367002
 40
1.0
 40
1.0
 40
1.0
 40
1.0
 10
36.5884723632
 20
15.7438515938
 30
0.0
 10
36.5902742468
 20
15.7446364327
 30
0.0
 10
36.5977855153
 20
15.74825913
 30
0.0
 10
36.6047699331
 20
15.7529258238
 30
0.0
 10
36.609773437
 20
15.7568653902
 30
0.0
  0
SPLINE
  5
352
100
AcDbEntity
  8
0
100
AcDbSpline
 62
7
  6
BYLAYER
 70
0
 71
3
 72
9
 73
5
 74
0
 42
0.0000001
 43
0.0000001
 44
0.0000000001
 40
0.0
 40
0.0
 40
0.0
 40
0.0
 40
0.2373882138
 40
1.0
 40
1.0
 40
1.0
 40
1.0
 10
36.609773437
 20
15.7568653902
 30
0.0
 10
36.6133788694
 20
15.7597041689
 30
0.0
 10
36.6278735243
 20
15.7725322538
 30
0.0
 10
36.6397187067
 20
15.7882334498
 30
0.0
 10
36.647089583
 20
15.801000253
 30
0.0
  0
SPLINE
  5
353
100
AcDbEntity
  8
0
100
AcDbSpline
 62
7
  6
BYLAYER
 70
0
 71
3
 72
9
 73
5
 74
0
 42
0.0000001
 43
0.0000001
 44
0.0000000001
 40
0.0
 40
0.0
 40
0.0
 40
0.0
 40
0.2346572022
 40
1.0
 40
1.0
 40
1.0
 40
1.0
 10
35.7031700496
 20
15.4593570562
 30
0.0
 10
35.7051479096
 20
15.4602185445
 30
0.0
 10
35.7134197111
 20
15.4642480856
 30
0.0
 10
35.7210510854
 20
15.4695260605
 30
0.0
 10
35.7264864269
 20
15.4739943375
 30
0.0
  0
SPLINE
  5
354
100
AcDbEntity
  8
0
100
AcDbSpline
 62
7
  6
BYLAYER
 70
0
 71
3
 72
9
 73
5
 74
0
 42
0.0000001
 43
0.0000001
 44
0.0000000001
 40
0.0
 40
0.0
 40
0.0
 40
0.0
 40
0.2383617731
 40
1.0
 40
1.0
 40
1.0
 40
1.0
 10
35.7264864269
 20
15.4739943375
 30
0.0
 10
35.7304195994
 20
15.4772277137
 30
0.0
 10
35.7460748834
 20
15.4918049212
 30
0.0
 10
35.7585413185
 20
15.509681443
 30
0.0
 10
35.7659547741
 20
15.524163487
 30
0.0
  0
SPLINE
  5
355
100
AcDbEntity
  8
0
100
AcDbSpline
 62
7
  6
BYLAYER
 70
0
 71
3
 72
9
 73
5
 74
0
 42
0.0000001
 43
0.0000001
 44
0.0000000001
 40
0.0
 40
0.0
 40
0.0
 40
0.0
 40
0.2332589281
 40
1.0
 40
1.0
 40
1.0
 40
1.0
 10
34.8041308
 20
15.0769723841
 30
0.0
 10
34.8063307898
 20
15.0779306244
 30
0.0
 10
34.8155670288
 20
15.0824843046
 30
0.0
 10
34.8240059073
 20
15.0885638127
 30
0.0
 10
34.8299672817
 20
15.0937289448
 30
0.0
  0
SPLINE
  5
356
100
AcDbEntity
  8
0
100
AcDbSpline
 62
7
  6
BYLAYER
 70
0
 71
3
 72
9
 73
5
 74
0
 42
0.0000001
 43
0.0000001
 44
0.0000000001
 40
0.0
 40
0.0
 40
0.0
 40
0.0
 40
0.2399918411
 40
1.0
 40
1.0
 40
1.0
 40
1.0
 10
34.8299672817
 20
15.0937289448
 30
0.0
 10
34.8341014008
 20
15.0973108824
 30
0.0
 10
34.8503553848
 20
15.1133346034
 30
0.0
 10
34.8630412339
 20
15.1328768681
 30
0.0
 10
34.870237712
 20
15.1486337993
 30
0.0
  0
SPLINE
  5
357
100
AcDbEntity
  8
0
100
AcDbSpline
 62
7
  6
BYLAYER
 70
0
 71
3
 72
9
 73
5
 74
0
 42
0.0000001
 43
0.0000001
 44
0.0000000001
 40
0.0
 40
0.0
 40
0.0
 40
0.0
 40
0.2323758914
 40
1.0
 40
1.0
 40
1.0
 40
1.0
 10
33.8981968461
 20
14.5996077557
 30
0.0
 10
33.900533345
 20
14.6006254548
 30
0.0
 10
33.9103652215
 20
14.6055138045
 30
0.0
 10
33.919288863
 20
14.6121147206
 30
0.0
 10
33.9255657204
 20
14.6177250307
 30
0.0
  0
SPLINE
  5
358
100
AcDbEntity
  8
0
100
AcDbSpline
 62
7
  6
BYLAYER
 70
0
 71
3
 72
9
 73
5
 74
0
 42
0.0000001
 43
0.0000001
 44
0.0000000001
 40
0.0
 40
0.0
 40
0.0
 40
0.0
 40
0.2415115981
 40
1.0
 40
1.0
 40
1.0
 40
1.0
 10
33.9255657204
 20
14.6177250307
 30
0.0
 10
33.9301212581
 20
14.6217968103
 30
0.0
 10
33.9477924003
 20
14.6399535867
 30
0.0
 10
33.9611101962
 20
14.6622648007
 30
0.0
 10
33.9680512627
 20
14.6801544935
 30
0.0
  0
SPLINE
  5
359
100
AcDbEntity
  8
0
100
AcDbSpline
 62
7
  6
BYLAYER
 70
0
 71
3
 72
9
 73
5
 74
0
 42
0.0000001
 43
0.0000001
 44
0.0000000001
 40
0.0
 40
0.0
 40
0.0
 40
0.0
 40
0.2312982135
 40
1.0
 40
1.0
 40
1.0
 40
1.0
 10
32.9922628922
 20
14.030896204
 30
0.0
 10
32.9947779313
 20
14.0319916691
 30
0.0
 10
33.0053908029
 20
14.0373225293
 30
0.0
 10
33.0149437648
 20
14.0446193804
 30
0.0
 10
33.0216192579
 20
14.0508288583
 30
0.0
  0
SPLINE
  5
35A
100
AcDbEntity
  8
0
100
AcDbSpline
 62
7
  6
BYLAYER
 70
0
 71
3
 72
9
 73
5
 74
0
 42
0.0000001
 43
0.0000001
 44
0.0000000001
 40
0.0
 40
0.0
 40
0.0
 40
0.0
 40
0.2436795344
 40
1.0
 40
1.0
 40
1.0
 40
1.0
 10
33.0216192579
 20
14.0508288583
 30
0.0
 10
33.0264719744
 20
14.0553428074
 30
0.0
 10
33.0450006493
 20
14.0753045972
 30
0.0
 10
33.0585638955
 20
14.0998569158
 30
0.0
 10
33.0649656916
 20
14.1194056842
 30
0.0
  0
SPLINE
  5
35B
100
AcDbEntity
  8
0
100
AcDbSpline
 62
7
  6
BYLAYER
 70
0
 71
3
 72
9
 73
5
 74
0
 42
0.0000001
 43
0.0000001
 44
0.0000000001
 40
0.0
 40
0.0
 40
0.0
 40
0.0
 40
0.2302565934
 40
1.0
 40
1.0
 40
1.0
 40
1.0
 10
32.0932236426
 20
13.3751659674
 30
0.0
 10
32.0959177434
 20
13.3763394256
 30
0.0
 10
32.107316189
 20
13.3821241263
 30
0.0
 10
32.1174903932
 20
13.3901427972
 30
0.0
 10
32.1245514733
 20
13.3969724256
 30
0.0
  0
SPLINE
  5
35C
100
AcDbEntity
  8
0
100
AcDbSpline
 62
7
  6
BYLAYER
 70
0
 71
3
 72
9
 73
5
 74
0
 42
0.0000001
 43
0.0000001
 44
0.0000000001
 40
0.0
 40
0.0
 40
0.0
 40
0.0
 40
0.4991406955
 40
1.0
 40
1.0
 40
1.0
 40
1.0
 10
32.1245514733
 20
13.3969724256
 30
0.0
 10
32.1349869242
 20
13.4070658176
 30
0.0
 10
32.1528564898
 20
13.4304994412
 30
0.0
 10
32.1645333478
 20
13.4575430512
 30
0.0
 10
32.1682870965
 20
13.4716192198
 30
0.0
  0
SPLINE
  5
35D
100
AcDbEntity
  8
0
100
AcDbSpline
 62
7
  6
BYLAYER
 70
0
 71
3
 72
9
 73
5
 74
0
 42
0.0000001
 43
0.0000001
 44
0.0000000001
 40
0.0
 40
0.0
 40
0.0
 40
0.0
 40
0.2292513478
 40
1.0
 40
1.0
 40
1.0
 40
1.0
 10
31.207921329
 20
12.6374075488
 30
0.0
 10
31.2107949999
 20
12.6386592216
 30
0.0
 10
31.2229831075
 20
12.6449091676
 30
0.0
 10
31.2337699793
 20
12.6536748652
 30
0.0
 10
31.2412029485
 20
12.6611448889
 30
0.0
  0
SPLINE
  5
35E
100
AcDbEntity
  8
0
100
AcDbSpline
 62
7
  6
BYLAYER
 70
0
 71
3
 72
9
 73
5
 74
0
 42
0.0000001
 43
0.0000001
 44
0.0000000001
 40
0.0
 40
0.0
 40
0.0
 40
0.0
 40
0.5037032084
 40
1.0
 40
1.0
 40
1.0
 40
1.0
 10
31.2412029485
 20
12.6611448889
 30
0.0
 10
31.2521617539
 20
12.6721583257
 30
0.0
 10
31.2704965315
 20
12.6975068316
 30
0.0
 10
31.281770753
 20
12.7267276166
 30
0.0
 10
31.2848397429
 20
12.7417251463
 30
0.0
  0
SPLINE
  5
35F
100
AcDbEntity
  8
0
100
AcDbSpline
 62
7
  6
BYLAYER
 70
0
 71
3
 72
9
 73
5
 74
0
 42
0.0000001
 43
0.0000001
 44
0.0000000001
 40
0.0
 40
0.0
 40
0.0
 40
0.0
 40
0.4598085899
 40
1.0
 40
1.0
 40
1.0
 40
1.0
 10
31.1665389653
 20
12.6368217661
 30
0.0
 10
31.1721883707
 20
12.6335599871
 30
0.0
 10
31.1868501649
 20
12.6303683343
 30
0.0
 10
31.2008950746
 20
12.6343471525
 30
0.0
 10
31.207921329
 20
12.6374075488
 30
0.0
  0
SPLINE
  5
360
100
AcDbEntity
  8
0
100
AcDbSpline
 62
7
  6
BYLAYER
 70
0
 71
3
 72
11
 73
7
 74
0
 42
0.0000001
 43
0.0000001
 44
0.0000000001
 40
0.0
 40
0.0
 40
0.0
 40
0.0
 40
0.2249111003
 40
0.4818564643
 40
0.7486989023
 40
1.0
 40
1.0
 40
1.0
 40
1.0
 10
30.3430936366
 20
11.8232357354
 30
0.0
 10
30.3528143212
 20
11.8274697333
 30
0.0
 10
30.371816797
 20
11.840688212
 30
0.0
 10
30.3951461829
 20
11.8675132525
 30
0.0
 10
30.4127598307
 20
11.8998251861
 30
0.0
 10
30.4197008622
 20
11.923546517
 30
0.0
 10
30.4213471987
 20
11.9352783984
 30
0.0
  0
SPLINE
  5
361
100
AcDbEntity
  8
0
100
AcDbSpline
 62
7
  6
BYLAYER
 70
0
 71
3
 72
9
 73
5
 74
0
 42
0.0000001
 43
0.0000001
 44
0.0000000001
 40
0.0
 40
0.0
 40
0.0
 40
0.0
 40
0.4625032345
 40
1.0
 40
1.0
 40
1.0
 40
1.0
 10
30.3062593061
 20
11.8204634709
 30
0.0
 10
30.3116655123
 20
11.8183465469
 30
0.0
 10
30.324638934
 20
11.8168971946
 30
0.0
 10
30.3369076578
 20
11.8205413345
 30
0.0
 10
30.3430936366
 20
11.8232357354
 30
0.0
  0
SPLINE
  5
362
100
AcDbEntity
  8
0
100
AcDbSpline
 62
7
  6
BYLAYER
 70
0
 71
3
 72
9
 73
5
 74
0
 42
0.0000001
 43
0.0000001
 44
0.0000000001
 40
0.0
 40
0.0
 40
0.0
 40
0.0
 40
0.2439822152
 40
1.0
 40
1.0
 40
1.0
 40
1.0
 10
23.9881330918
 20
7.9974557664
 30
0.0
 10
23.991735736
 20
7.9990249551
 30
0.0
 10
24.0064037157
 20
8.0056803923
 30
0.0
 10
24.0206751867
 20
8.0132007989
 30
0.0
 10
24.0312202316
 20
8.0192889471
 30
0.0
  0
SPLINE
  5
363
100
AcDbEntity
  8
0
100
AcDbSpline
 62
7
  6
BYLAYER
 70
0
 71
3
 72
13
 73
9
 74
0
 42
0.0000001
 43
0.0000001
 44
0.0000000001
 40
0.0
 40
0.0
 40
0.0
 40
0.0
 40
0.3058855983
 40
0.5832702814
 40
0.7041497134
 40
0.8118887564
 40
0.9089304304
 40
1.0
 40
1.0
 40
1.0
 40
1.0
 10
19.5609154862
 20
7.031585938
 30
0.0
 10
19.5705295367
 20
7.0482380544
 30
0.0
 10
19.5853454822
 20
7.0821284205
 30
0.0
 10
19.5933150586
 20
7.1263259514
 30
0.0
 10
19.5908987629
 20
7.1582210769
 30
0.0
 10
19.5850050337
 20
7.1780344595
 30
0.0
 10
19.5750608959
 20
7.1940463189
 30
0.0
 10
19.5658025812
 20
7.2018082263
 30
0.0
 10
19.560846575
 20
7.2046735623
 30
0.0
  0
SPLINE
  5
364
100
AcDbEntity
  8
0
100
AcDbSpline
 62
7
  6
BYLAYER
 70
0
 71
3
 72
9
 73
5
 74
0
 42
0.0000001
 43
0.0000001
 44
0.0000000001
 40
0.0
 40
0.0
 40
0.0
 40
0.0
 40
0.2439822152
 40
1.0
 40
1.0
 40
1.0
 40
1.0
 10
19.9347168323
 20
33.1733602244
 30
0.0
 10
19.9383194765
 20
33.1749294131
 30
0.0
 10
19.9529874563
 20
33.1815848503
 30
0.0
 10
19.9672589275
 20
33.189105257
 30
0.0
 10
19.9778039725
 20
33.1951934053
 30
0.0
  0
SPLINE
  5
365
100
AcDbEntity
  8
0
100
AcDbSpline
 62
7
  6
BYLAYER
 70
0
 71
3
 72
9
 73
5
 74
0
 42
0.0000001
 43
0.0000001
 44
0.0000000001
 40
0.0
 40
0.0
 40
0.0
 40
0.0
 40
0.2356689777
 40
1.0
 40
1.0
 40
1.0
 40
1.0
 10
19.8401647974
 20
33.1479350762
 30
0.0
 10
19.8478450586
 20
33.1486210057
 30
0.0
 10
19.8802942626
 20
33.1530891202
 30
0.0
 10
19.9117892478
 20
33.1633737522
 30
0.0
 10
19.9347168323
 20
33.1733602244
 30
0.0
  0
SPLINE
  5
366
100
AcDbEntity
  8
0
100
AcDbSpline
 62
7
  6
BYLAYER
 70
0
 71
3
 72
11
 73
7
 74
0
 42
0.0000001
 43
0.0000001
 44
0.0000000001
 40
0.0
 40
0.0
 40
0.0
 40
0.0
 40
0.2292950979
 40
0.4917473116
 40
0.7587613484
 40
1.0
 40
1.0
 40
1.0
 40
1.0
 10
20.0576780714
 20
40.3255015656
 30
0.0
 10
20.0762762124
 20
40.3336022801
 30
0.0
 10
20.1122885691
 20
40.3597488785
 30
0.0
 10
20.1545056971
 20
40.4126584817
 30
0.0
 10
20.1839128213
 20
40.4748090606
 30
0.0
 10
20.1925353514
 20
40.5197893473
 30
0.0
 10
20.1925353514
 20
40.5411317641
 30
0.0
  0
SPLINE
  5
367
100
AcDbEntity
  8
0
100
AcDbSpline
 62
7
  6
BYLAYER
 70
0
 71
3
 72
9
 73
5
 74
0
 42
0.0000001
 43
0.0000001
 44
0.0000000001
 40
0.0
 40
0.0
 40
0.0
 40
0.0
 40
0.2350072091
 40
1.0
 40
1.0
 40
1.0
 40
1.0
 10
20.0239656868
 20
40.3167324092
 30
0.0
 10
20.0266955036
 20
40.3169232292
 30
0.0
 10
20.0382698122
 20
40.3183282258
 30
0.0
 10
20.0495113794
 20
40.3219444337
 30
0.0
 10
20.0576780714
 20
40.3255015656
 30
0.0
  0
SPLINE
  5
368
100
AcDbEntity
  8
0
100
AcDbSpline
 62
7
  6
BYLAYER
 70
0
 71
3
 72
11
 73
7
 74
0
 42
0.0000001
 43
0.0000001
 44
0.0000000001
 40
0.0
 40
0.0
 40
0.0
 40
0.0
 40
0.2309837786
 40
0.486057365
 40
0.7485170102
 40
1.0
 40
1.0
 40
1.0
 40
1.0
 10
12.9411375141
 20
63.1039971268
 30
0.0
 10
12.9411375141
 20
63.151764331
 30
0.0
 10
12.9560365115
 20
63.2523850026
 30
0.0
 10
13.0103910284
 20
63.398245199
 30
0.0
 10
13.0928194373
 20
63.5352483133
 30
0.0
 10
13.1642721083
 20
63.6151242107
 30
0.0
 10
13.2031834627
 20
63.6496289086
 30
0.0
  0
SPLINE
  5
369
100
AcDbEntity
  8
0
100
AcDbSpline
 62
7
  6
BYLAYER
 70
0
 71
3
 72
9
 73
5
 74
0
 42
0.0000001
 43
0.0000001
 44
0.0000000001
 40
0.0
 40
0.0
 40
0.0
 40
0.0
 40
0.2644203965
 40
1.0
 40
1.0
 40
1.0
 40
1.0
 10
14.2610214269
 20
39.1704979527
 30
0.0
 10
14.2647650611
 20
39.1745590154
 30
0.0
 10
14.2794083885
 20
39.1894464817
 30
0.0
 10
14.2960768743
 20
39.2024663202
 30
0.0
 10
14.3093834391
 20
39.2101488231
 30
0.0
  0
SPLINE
  5
36A
100
AcDbEntity
  8
0
100
AcDbSpline
 62
7
  6
BYLAYER
 70
0
 71
3
 72
11
 73
7
 74
0
 42
0.0000001
 43
0.0000001
 44
0.0000000001
 40
0.0
 40
0.0
 40
0.0
 40
0.0
 40
0.2288337186
 40
0.4804303557
 40
0.7422653267
 40
1.0
 40
1.0
 40
1.0
 40
1.0
 10
12.9411375141
 20
37.4721740553
 30
0.0
 10
12.9411375141
 20
37.5140946317
 30
0.0
 10
12.9526466853
 20
37.6022044826
 30
0.0
 10
12.9957555149
 20
37.7318367947
 30
0.0
 10
13.062326265
 20
37.8571364153
 30
0.0
 10
13.1204464842
 20
37.9332119218
 30
0.0
 10
13.1524482204
 20
37.9679271339
 30
0.0
  0
SPLINE
  5
36B
100
AcDbEntity
  8
0
100
AcDbSpline
 62
7
  6
BYLAYER
 70
0
 71
3
 72
11
 73
7
 74
0
 42
0.0000001
 43
0.0000001
 44
0.0000000001
 40
0.0
 40
0.0
 40
0.0
 40
0.0
 40
0.2177310465
 40
0.4508559663
 40
0.7103638015
 40
1.0
 40
1.0
 40
1.0
 40
1.0
 10
13.0446955213
 20
36.4154137177
 30
0.0
 10
13.0282086014
 20
36.4249378642
 30
0.0
 10
12.9973435201
 20
36.4508622918
 30
0.0
 10
12.9644938167
 20
36.5045900967
 30
0.0
 10
12.9449895189
 20
36.5707917975
 30
0.0
 10
12.9411375141
 20
36.6189754942
 30
0.0
 10
12.9411375141
 20
36.6443036281
 30
0.0
  0
SPLINE
  5
36C
100
AcDbEntity
  8
0
100
AcDbSpline
 62
7
  6
BYLAYER
 70
0
 71
3
 72
9
 73
5
 74
0
 42
0.0000001
 43
0.0000001
 44
0.0000000001
 40
0.0
 40
0.0
 40
0.0
 40
0.0
 40
0.2641155018
 40
1.0
 40
1.0
 40
1.0
 40
1.0
 10
14.0772205375
 20
29.8786634658
 30
0.0
 10
14.0879201689
 20
29.8900626706
 30
0.0
 10
14.1297592124
 20
29.9319142962
 30
0.0
 10
14.1771356069
 20
29.968556325
 30
0.0
 10
14.2148597126
 20
29.9903362176
 30
0.0
  0
SPLINE
  5
36D
100
AcDbEntity
  8
0
100
AcDbSpline
 62
7
  6
BYLAYER
 70
0
 71
3
 72
11
 73
7
 74
0
 42
0.0000001
 43
0.0000001
 44
0.0000000001
 40
0.0
 40
0.0
 40
0.0
 40
0.0
 40
0.2289868868
 40
0.4808752395
 40
0.7427799866
 40
1.0
 40
1.0
 40
1.0
 40
1.0
 10
12.9411375141
 20
28.3976292151
 30
0.0
 10
12.9411375141
 20
28.440091386
 30
0.0
 10
12.9529434977
 20
28.5293621834
 30
0.0
 10
12.9970564464
 20
28.6605353641
 30
0.0
 10
13.0650683001
 20
28.7870166904
 30
0.0
 10
13.1244070184
 20
28.8635521986
 30
0.0
 10
13.1570502576
 20
28.8983297488
 30
0.0
  0
SPLINE
  5
36E
100
AcDbEntity
  8
0
100
AcDbSpline
 62
7
  6
BYLAYER
 70
0
 71
3
 72
14
 73
10
 74
0
 42
0.0000001
 43
0.0000001
 44
0.0000000001
 40
0.0
 40
0.0
 40
0.0
 40
0.0
 40
0.108046144
 40
0.2181359093
 40
0.3321085861
 40
0.4514831362
 40
0.5774302378
 40
0.7107534897
 40
1.0
 40
1.0
 40
1.0
 40
1.0
 10
14.1256635718
 20
17.3644896199
 30
0.0
 10
14.1830454443
 20
17.3976188637
 30
0.0
 10
14.3048677472
 20
17.45470615
 30
0.0
 10
14.5020201972
 20
17.5091554979
 30
0.0
 10
14.7121502358
 20
17.5326289387
 30
0.0
 10
14.9330513005
 20
17.5249633745
 30
0.0
 10
15.162666493
 20
17.486458929
 30
0.0
 10
15.4861349318
 20
17.3921010997
 30
0.0
 10
15.7220272504
 20
17.2798649392
 30
0.0
 10
15.8756428734
 20
17.1911769242
 30
0.0
  0
SPLINE
  5
36F
100
AcDbEntity
  8
0
100
AcDbSpline
 62
7
  6
BYLAYER
 70
0
 71
3
 72
11
 73
7
 74
0
 42
0.0000001
 43
0.0000001
 44
0.0000000001
 40
0.0
 40
0.0
 40
0.0
 40
0.0
 40
0.2176732262
 40
0.4508319884
 40
0.7104838574
 40
1.0
 40
1.0
 40
1.0
 40
1.0
 10
13.0446994026
 20
9.9557270162
 30
0.0
 10
13.0282147233
 20
9.9652442271
 30
0.0
 10
12.9973556281
 20
9.9911701249
 30
0.0
 10
12.9644807826
 20
10.0448950852
 30
0.0
 10
12.9450105737
 20
10.1111122424
 30
0.0
 10
12.9411375141
 20
10.159292963
 30
0.0
 10
12.9411375141
 20
10.1846101293
 30
0.0
  0
SPLINE
  5
370
100
AcDbEntity
  8
0
100
AcDbSpline
 62
7
  6
BYLAYER
 70
0
 71
3
 72
11
 73
7
 74
0
 42
0.0000001
 43
0.0000001
 44
0.0000000001
 40
0.0
 40
0.0
 40
0.0
 40
0.0
 40
0.2245465908
 40
0.4608125874
 40
0.7179145835
 40
1.0
 40
1.0
 40
1.0
 40
1.0
 10
23.7812440194
 20
7.9945588356
 30
0.0
 10
23.7951280042
 20
7.9865316434
 30
0.0
 10
23.8262156822
 20
7.9742093557
 30
0.0
 10
23.8777795302
 20
7.9690211632
 30
0.0
 10
23.9330543546
 20
7.9767363254
 30
0.0
 10
23.9696621761
 20
7.9894104668
 30
0.0
 10
23.9881330918
 20
7.9974557664
 30
0.0
  0
SPLINE
  5
371
100
AcDbEntity
  8
0
100
AcDbSpline
 62
7
  6
BYLAYER
 70
0
 71
3
 72
9
 73
5
 74
0
 42
0.0000001
 43
0.0000001
 44
0.0000000001
 40
0.0
 40
0.0
 40
0.0
 40
0.0
 40
0.4597979036
 40
1.0
 40
1.0
 40
1.0
 40
1.0
 10
32.0518389286
 20
13.374574714
 30
0.0
 10
32.0574908075
 20
13.3713171933
 30
0.0
 10
32.0721511169
 20
13.3681270631
 30
0.0
 10
32.0861970701
 20
13.3721054325
 30
0.0
 10
32.0932236426
 20
13.3751659674
 30
0.0
  0
SPLINE
  5
372
100
AcDbEntity
  8
0
100
AcDbSpline
 62
7
  6
BYLAYER
 70
0
 71
3
 72
9
 73
5
 74
0
 42
0.0000001
 43
0.0000001
 44
0.0000000001
 40
0.0
 40
0.0
 40
0.0
 40
0.0
 40
0.4598441182
 40
1.0
 40
1.0
 40
1.0
 40
1.0
 10
32.9508831412
 20
14.030313454
 30
0.0
 10
32.9565319096
 20
14.0270500574
 30
0.0
 10
32.9711933366
 20
14.0238551159
 30
0.0
 10
32.9852373656
 20
14.0278361248
 30
0.0
 10
32.9922628922
 20
14.030896204
 30
0.0
  0
SPLINE
  5
373
100
AcDbEntity
  8
0
100
AcDbSpline
 62
7
  6
BYLAYER
 70
0
 71
3
 72
9
 73
5
 74
0
 42
0.0000001
 43
0.0000001
 44
0.0000000001
 40
0.0
 40
0.0
 40
0.0
 40
0.0
 40
0.4598127151
 40
1.0
 40
1.0
 40
1.0
 40
1.0
 10
33.8568164602
 20
14.5990239172
 30
0.0
 10
33.8624623674
 20
14.5957563785
 30
0.0
 10
33.8771281982
 20
14.5925702058
 30
0.0
 10
33.8911708658
 20
14.5965474788
 30
0.0
 10
33.8981968461
 20
14.5996077557
 30
0.0
  0
SPLINE
  5
374
100
AcDbEntity
  8
0
100
AcDbSpline
 62
7
  6
BYLAYER
 70
0
 71
3
 72
9
 73
5
 74
0
 42
0.0000001
 43
0.0000001
 44
0.0000000001
 40
0.0
 40
0.0
 40
0.0
 40
0.0
 40
0.4597546478
 40
1.0
 40
1.0
 40
1.0
 40
1.0
 10
34.7627603776
 20
15.076405927
 30
0.0
 10
34.7684051142
 20
15.0731376324
 30
0.0
 10
34.7830610686
 20
15.0698963933
 30
0.0
 10
34.7971038604
 20
15.0739116894
 30
0.0
 10
34.8041308
 20
15.0769723841
 30
0.0
  0
SPLINE
  5
375
100
AcDbEntity
  8
0
100
AcDbSpline
 62
7
  6
BYLAYER
 70
0
 71
3
 72
9
 73
5
 74
0
 42
0.0000001
 43
0.0000001
 44
0.0000000001
 40
0.0
 40
0.0
 40
0.0
 40
0.0
 40
0.4598757652
 40
1.0
 40
1.0
 40
1.0
 40
1.0
 10
35.661787323
 20
15.4587691973
 30
0.0
 10
35.667436089
 20
15.4555051032
 30
0.0
 10
35.6821013584
 20
15.4523292965
 30
0.0
 10
35.6961450445
 20
15.4562972041
 30
0.0
 10
35.7031700496
 20
15.4593570562
 30
0.0
  0
SPLINE
  5
376
100
AcDbEntity
  8
0
100
AcDbSpline
 62
7
  6
BYLAYER
 70
0
 71
3
 72
9
 73
5
 74
0
 42
0.0000001
 43
0.0000001
 44
0.0000000001
 40
0.0
 40
0.0
 40
0.0
 40
0.0
 40
0.4599987997
 40
1.0
 40
1.0
 40
1.0
 40
1.0
 10
36.5470888796
 20
15.7432624864
 30
0.0
 10
36.5527397565
 20
15.7399990707
 30
0.0
 10
36.5674055281
 20
15.7368328117
 30
0.0
 10
36.5814492349
 20
15.7407925592
 30
0.0
 10
36.5884723632
 20
15.7438515938
 30
0.0
  0
SPLINE
  5
377
100
AcDbEntity
  8
0
100
AcDbSpline
 62
7
  6
BYLAYER
 70
0
 71
3
 72
9
 73
5
 74
0
 42
0.0000001
 43
0.0000001
 44
0.0000000001
 40
0.0
 40
0.0
 40
0.0
 40
0.0
 40
0.4601767648
 40
1.0
 40
1.0
 40
1.0
 40
1.0
 10
37.4119159843
 20
15.9277006796
 30
0.0
 10
37.4175690422
 20
15.9244367713
 30
0.0
 10
37.432236431
 20
15.9212846127
 30
0.0
 10
37.4462796608
 20
15.9252329775
 30
0.0
 10
37.4533000556
 20
15.9282908215
 30
0.0
  0
SPLINE
  5
378
100
AcDbEntity
  8
0
100
AcDbSpline
 62
7
  6
BYLAYER
 70
0
 71
3
 72
12
 73
8
 74
0
 42
0.0000001
 43
0.0000001
 44
0.0000000001
 40
0.0
 40
0.0
 40
0.0
 40
0.0
 40
0.1002416415
 40
0.2040093547
 40
0.4318139328
 40
0.6974475769
 40
1.0
 40
1.0
 40
1.0
 40
1.0
 10
39.8000473672
 20
32.6505011812
 30
0.0
 10
39.7820418916
 20
32.6608958418
 30
0.0
 10
39.7477837374
 20
32.6864979132
 30
0.0
 10
39.6896387293
 20
32.7554817289
 30
0.0
 10
39.641949269
 20
32.8730385376
 30
0.0
 10
39.6281971162
 20
33.0391418038
 30
0.0
 10
39.6443506542
 20
33.1567850013
 30
0.0
 10
39.6581670549
 20
33.2179956812
 30
0.0
  0
SPLINE
  5
379
100
AcDbEntity
  8
0
100
AcDbSpline
 62
7
  6
BYLAYER
 70
0
 71
3
 72
11
 73
7
 74
0
 42
0.0000001
 43
0.0000001
 44
0.0000000001
 40
0.0
 40
0.0
 40
0.0
 40
0.0
 40
0.2818893782
 40
0.5390797744
 40
0.7753504609
 40
1.0
 40
1.0
 40
1.0
 40
1.0
 10
37.5130072827
 20
79.2012105242
 30
0.0
 10
37.5314656118
 20
79.2092503415
 30
0.0
 10
37.5680770934
 20
79.2218907007
 30
0.0
 10
37.6233378787
 20
79.2296270817
 30
0.0
 10
37.6749199246
 20
79.2244829224
 30
0.0
 10
37.7060260932
 20
79.2121735234
 30
0.0
 10
37.7199136481
 20
79.2041373843
 30
0.0
  0
SPLINE
  5
37A
100
AcDbEntity
  8
0
100
AcDbSpline
 62
7
  6
BYLAYER
 70
0
 71
3
 72
9
 73
5
 74
0
 42
0.0000001
 43
0.0000001
 44
0.0000000001
 40
0.0
 40
0.0
 40
0.0
 40
0.0
 40
0.2560789452
 40
1.0
 40
1.0
 40
1.0
 40
1.0
 10
37.4699201426
 20
79.1793773433
 30
0.0
 10
37.4734919343
 20
79.1814395059
 30
0.0
 10
37.4875446139
 20
79.1893087035
 30
0.0
 10
37.5020226414
 20
79.1964259899
 30
0.0
 10
37.5130072827
 20
79.2012105242
 30
0.0
  0
SPLINE
  5
37B
100
AcDbEntity
  8
0
100
AcDbSpline
 62
7
  6
BYLAYER
 70
0
 71
3
 72
9
 73
5
 74
0
 42
0.0000001
 43
0.0000001
 44
0.0000000001
 40
0.0
 40
0.0
 40
0.0
 40
0.0
 40
0.5232356992
 40
1.0
 40
1.0
 40
1.0
 40
1.0
 10
34.7768570407
 20
77.5636658523
 30
0.0
 10
34.8037455837
 20
77.5983605581
 30
0.0
 10
34.8604813979
 20
77.660733399
 30
0.0
 10
34.9279639168
 20
77.7117869924
 30
0.0
 10
34.9626014163
 20
77.7317848428
 30
0.0
  0
SPLINE
  5
37C
100
AcDbEntity
  8
0
100
AcDbSpline
 62
7
  6
BYLAYER
 70
0
 71
3
 72
9
 73
5
 74
0
 42
0.0000001
 43
0.0000001
 44
0.0000000001
 40
0.0
 40
0.0
 40
0.0
 40
0.0
 40
0.2785904355
 40
1.0
 40
1.0
 40
1.0
 40
1.0
 10
33.606017618
 20
76.5118246296
 30
0.0
 10
33.6088619917
 20
76.5130635416
 30
0.0
 10
33.6192756907
 20
76.5169085652
 30
0.0
 10
33.6310774446
 20
76.5179082374
 30
0.0
 10
33.6388562476
 20
76.5158999689
 30
0.0
  0
SPLINE
  5
37D
100
AcDbEntity
  8
0
100
AcDbSpline
 62
7
  6
BYLAYER
 70
0
 71
3
 72
11
 73
7
 74
0
 42
0.0000001
 43
0.0000001
 44
0.0000000001
 40
0.0
 40
0.0
 40
0.0
 40
0.0
 40
0.2468100376
 40
0.513699797
 40
0.7732374349
 40
1.0
 40
1.0
 40
1.0
 40
1.0
 10
33.5270264954
 20
76.3931864208
 30
0.0
 10
33.5280136231
 20
76.4053219788
 30
0.0
 10
33.5342174963
 20
76.430265097
 30
0.0
 10
33.5517372726
 20
76.4644858646
 30
0.0
 10
33.5758176863
 20
76.4931512736
 30
0.0
 10
33.5957616095
 20
76.5073574629
 30
0.0
 10
33.606017618
 20
76.5118246296
 30
0.0
  0
SPLINE
  5
37E
100
AcDbEntity
  8
0
100
AcDbSpline
 62
7
  6
BYLAYER
 70
0
 71
3
 72
9
 73
5
 74
0
 42
0.0000001
 43
0.0000001
 44
0.0000000001
 40
0.0
 40
0.0
 40
0.0
 40
0.0
 40
0.5374967655
 40
1.0
 40
1.0
 40
1.0
 40
1.0
 10
32.7682464076
 20
75.6274357604
 30
0.0
 10
32.7744323863
 20
75.6301301614
 30
0.0
 10
32.7867011101
 20
75.6337743012
 30
0.0
 10
32.7996745318
 20
75.6323249489
 30
0.0
 10
32.8050807381
 20
75.6302080249
 30
0.0
  0
SPLINE
  5
37F
100
AcDbEntity
  8
0
100
AcDbSpline
 62
7
  6
BYLAYER
 70
0
 71
3
 72
11
 73
7
 74
0
 42
0.0000001
 43
0.0000001
 44
0.0000000001
 40
0.0
 40
0.0
 40
0.0
 40
0.0
 40
0.2512994593
 40
0.5181403221
 40
0.7750872825
 40
1.0
 40
1.0
 40
1.0
 40
1.0
 10
32.6899928454
 20
75.5153930974
 30
0.0
 10
32.6916391712
 20
75.5271249021
 30
0.0
 10
32.698580055
 20
75.5508461114
 30
0.0
 10
32.7161936792
 20
75.5831579863
 30
0.0
 10
32.7395231176
 20
75.6099830598
 30
0.0
 10
32.7585256533
 20
75.6232017321
 30
0.0
 10
32.7682464076
 20
75.6274357604
 30
0.0
  0
SPLINE
  5
380
100
AcDbEntity
  8
0
100
AcDbSpline
 62
7
  6
BYLAYER
 70
0
 71
3
 72
9
 73
5
 74
0
 42
0.0000001
 43
0.0000001
 44
0.0000000001
 40
0.0
 40
0.0
 40
0.0
 40
0.0
 40
0.5401914101
 40
1.0
 40
1.0
 40
1.0
 40
1.0
 10
31.9034187151
 20
74.813263947
 30
0.0
 10
31.9104449695
 20
74.8163243433
 30
0.0
 10
31.9244898793
 20
74.8203031615
 30
0.0
 10
31.9391516734
 20
74.8171115087
 30
0.0
 10
31.9448010789
 20
74.8138497297
 30
0.0
  0
SPLINE
  5
381
100
AcDbEntity
  8
0
100
AcDbSpline
 62
7
  6
BYLAYER
 70
0
 71
3
 72
11
 73
7
 74
0
 42
0.0000001
 43
0.0000001
 44
0.0000000001
 40
0.0
 40
0.0
 40
0.0
 40
0.0
 40
0.2557433665
 40
0.5221958614
 40
0.7766571859
 40
1.0
 40
1.0
 40
1.0
 40
1.0
 10
31.8265003012
 20
74.7089463496
 30
0.0
 10
31.8287844372
 20
74.7201084573
 30
0.0
 10
31.8363803721
 20
74.7423354823
 30
0.0
 10
31.8539681312
 20
74.7723934264
 30
0.0
 10
31.8763814059
 20
74.7971286431
 30
0.0
 10
31.8942965145
 20
74.8092906283
 30
0.0
 10
31.9034187151
 20
74.813263947
 30
0.0
  0
SPLINE
  5
382
100
AcDbEntity
  8
0
100
AcDbSpline
 62
7
  6
BYLAYER
 70
0
 71
3
 72
11
 73
7
 74
0
 42
0.0000001
 43
0.0000001
 44
0.0000000001
 40
0.0
 40
0.0
 40
0.0
 40
0.0
 40
0.2044397698
 40
0.4326998122
 40
0.698429181
 40
1.0
 40
1.0
 40
1.0
 40
1.0
 10
17.9509429997
 20
67.4751030188
 30
0.0
 10
17.9443903093
 20
67.4788812921
 30
0.0
 10
17.9323375049
 20
67.4903084728
 30
0.0
 10
17.9219354662
 20
67.5145210054
 30
0.0
 10
17.9188110716
 20
67.5441029424
 30
0.0
 10
17.9212169635
 20
67.5651117894
 30
0.0
 10
17.9234589041
 20
67.5760418511
 30
0.0
  0
SPLINE
  5
383
100
AcDbEntity
  8
0
100
AcDbSpline
 62
7
  6
BYLAYER
 70
0
 71
3
 72
9
 73
5
 74
0
 42
0.0000001
 43
0.0000001
 44
0.0000000001
 40
0.0
 40
0.0
 40
0.0
 40
0.0
 40
0.5402025366
 40
1.0
 40
1.0
 40
1.0
 40
1.0
 10
31.0181164015
 20
74.0755055285
 30
0.0
 10
31.0251429813
 20
74.0785660665
 30
0.0
 10
31.0391889271
 20
74.0825444296
 30
0.0
 10
31.0538492633
 20
74.0793543395
 30
0.0
 10
31.0595011234
 20
74.076096796
 30
0.0
  0
SPLINE
  5
384
100
AcDbEntity
  8
0
100
AcDbSpline
 62
7
  6
BYLAYER
 70
0
 71
3
 72
10
 73
6
 74
0
 42
0.0000001
 43
0.0000001
 44
0.0000000001
 40
0.0
 40
0.0
 40
0.0
 40
0.0
 40
0.5244498674
 40
0.7773130735
 40
1.0
 40
1.0
 40
1.0
 40
1.0
 10
30.9430529477
 20
73.9790522761
 30
0.0
 10
30.9486974985
 20
74.0002187567
 30
0.0
 10
30.9639903676
 20
74.0301622065
 30
0.0
 10
30.9927565022
 20
74.0606426109
 30
0.0
 10
31.0095886308
 20
74.071791123
 30
0.0
 10
31.0181164015
 20
74.0755055285
 30
0.0
  0
SPLINE
  5
385
100
AcDbEntity
  8
0
100
AcDbSpline
 62
7
  6
BYLAYER
 70
0
 71
3
 72
9
 73
5
 74
0
 42
0.0000001
 43
0.0000001
 44
0.0000000001
 40
0.0
 40
0.0
 40
0.0
 40
0.0
 40
0.5401558818
 40
1.0
 40
1.0
 40
1.0
 40
1.0
 10
30.119077152
 20
73.4197752918
 30
0.0
 10
30.1261026785
 20
73.4228353711
 30
0.0
 10
30.1401467075
 20
73.4268163799
 30
0.0
 10
30.1548081346
 20
73.4236214384
 30
0.0
 10
30.1604569029
 20
73.4203580419
 30
0.0
  0
SPLINE
  5
386
100
AcDbEntity
  8
0
100
AcDbSpline
 62
7
  6
BYLAYER
 70
0
 71
3
 72
10
 73
6
 74
0
 42
0.0000001
 43
0.0000001
 44
0.0000000001
 40
0.0
 40
0.0
 40
0.0
 40
0.0
 40
0.5274489812
 40
0.7782468259
 40
1.0
 40
1.0
 40
1.0
 40
1.0
 10
30.0463743526
 20
73.3312658116
 30
0.0
 10
30.0527832643
 20
73.350836309
 30
0.0
 10
30.0679196978
 20
73.378251329
 30
0.0
 10
30.0954163474
 20
73.4061617606
 30
0.0
 10
30.1111395269
 20
73.4163179337
 30
0.0
 10
30.119077152
 20
73.4197752918
 30
0.0
  0
SPLINE
  5
387
100
AcDbEntity
  8
0
100
AcDbSpline
 62
7
  6
BYLAYER
 70
0
 71
3
 72
9
 73
5
 74
0
 42
0.0000001
 43
0.0000001
 44
0.0000000001
 40
0.0
 40
0.0
 40
0.0
 40
0.0
 40
0.5401872849
 40
1.0
 40
1.0
 40
1.0
 40
1.0
 10
29.213143198
 20
72.8510637402
 30
0.0
 10
29.2201691783
 20
72.854124017
 30
0.0
 10
29.234211846
 20
72.85810129
 30
0.0
 10
29.2488776768
 20
72.8549151173
 30
0.0
 10
29.254523584
 20
72.8516475787
 30
0.0
  0
SPLINE
  5
388
100
AcDbEntity
  8
0
100
AcDbSpline
 62
7
  6
BYLAYER
 70
0
 71
3
 72
9
 73
5
 74
0
 42
0.0000001
 43
0.0000001
 44
0.0000000001
 40
0.0
 40
0.0
 40
0.0
 40
0.0
 40
0.5312769031
 40
1.0
 40
1.0
 40
1.0
 40
1.0
 10
29.1432887814
 20
72.7705170023
 30
0.0
 10
29.1502365002
 20
72.7884238405
 30
0.0
 10
29.1690435686
 20
72.8199678519
 30
0.0
 10
29.1976070659
 20
72.844296732
 30
0.0
 10
29.213143198
 20
72.8510637402
 30
0.0
  0
SPLINE
  5
389
100
AcDbEntity
  8
0
100
AcDbSpline
 62
7
  6
BYLAYER
 70
0
 71
3
 72
14
 73
10
 74
0
 42
0.0000001
 43
0.0000001
 44
0.0000000001
 40
0.0
 40
0.0
 40
0.0
 40
0.0
 40
0.108046144
 40
0.2181359093
 40
0.3321085861
 40
0.4514831362
 40
0.5774302378
 40
0.7107534897
 40
1.0
 40
1.0
 40
1.0
 40
1.0
 10
14.1256635718
 20
59.6057179755
 30
0.0
 10
14.1830454443
 20
59.6388472193
 30
0.0
 10
14.3048677472
 20
59.6959345057
 30
0.0
 10
14.5020201972
 20
59.7503838535
 30
0.0
 10
14.7121502358
 20
59.7738572943
 30
0.0
 10
14.9330513005
 20
59.7661917302
 30
0.0
 10
15.162666493
 20
59.7276872846
 30
0.0
 10
15.4861349318
 20
59.6333294553
 30
0.0
 10
15.7220272504
 20
59.5210932948
 30
0.0
 10
15.8756428734
 20
59.4324052799
 30
0.0
  0
SPLINE
  5
38A
100
AcDbEntity
  8
0
100
AcDbSpline
 62
7
  6
BYLAYER
 70
0
 71
3
 72
9
 73
5
 74
0
 42
0.0000001
 43
0.0000001
 44
0.0000000001
 40
0.0
 40
0.0
 40
0.0
 40
0.0
 40
0.5402466508
 40
1.0
 40
1.0
 40
1.0
 40
1.0
 10
28.3072092441
 20
72.3736991117
 30
0.0
 10
28.3142362051
 20
72.3767598158
 30
0.0
 10
28.3282789769
 20
72.3807757875
 30
0.0
 10
28.3429348094
 20
72.3775336299
 30
0.0
 10
28.3485794846
 20
72.3742652575
 30
0.0
  0
SPLINE
  5
38B
100
AcDbEntity
  8
0
100
AcDbSpline
 62
7
  6
BYLAYER
 70
0
 71
3
 72
9
 73
5
 74
0
 42
0.0000001
 43
0.0000001
 44
0.0000000001
 40
0.0
 40
0.0
 40
0.0
 40
0.0
 40
0.5329593114
 40
1.0
 40
1.0
 40
1.0
 40
1.0
 10
28.2411023321
 20
72.3020376965
 30
0.0
 10
28.248406268
 20
72.3180299101
 30
0.0
 10
28.2666406645
 20
72.3460530114
 30
0.0
 10
28.2930842887
 20
72.3675467639
 30
0.0
 10
28.3072092441
 20
72.3736991117
 30
0.0
  0
SPLINE
  5
38C
100
AcDbEntity
  8
0
100
AcDbSpline
 62
7
  6
BYLAYER
 70
0
 71
3
 72
9
 73
5
 74
0
 42
0.0000001
 43
0.0000001
 44
0.0000000001
 40
0.0
 40
0.0
 40
0.0
 40
0.0
 40
0.5401240518
 40
1.0
 40
1.0
 40
1.0
 40
1.0
 10
27.4081699946
 20
71.9913144396
 30
0.0
 10
27.4151949979
 20
71.9943742909
 30
0.0
 10
27.4292386814
 20
71.9983422154
 30
0.0
 10
27.4439039541
 20
71.9951663976
 30
0.0
 10
27.4495527203
 20
71.9919022976
 30
0.0
  0
SPLINE
  5
38D
100
AcDbEntity
  8
0
100
AcDbSpline
 62
7
  6
BYLAYER
 70
0
 71
3
 72
9
 73
5
 74
0
 42
0.0000001
 43
0.0000001
 44
0.0000000001
 40
0.0
 40
0.0
 40
0.0
 40
0.0
 40
0.5337215279
 40
1.0
 40
1.0
 40
1.0
 40
1.0
 10
27.34538527
 20
71.9265080089
 30
0.0
 10
27.3527983557
 20
71.9409893303
 30
0.0
 10
27.3704326018
 20
71.9662986879
 30
0.0
 10
27.3951396795
 20
71.9856388797
 30
0.0
 10
27.4081699946
 20
71.9913144396
 30
0.0
  0
SPLINE
  5
38E
100
AcDbEntity
  8
0
100
AcDbSpline
 62
7
  6
BYLAYER
 70
0
 71
3
 72
9
 73
5
 74
0
 42
0.0000001
 43
0.0000001
 44
0.0000000001
 40
0.0
 40
0.0
 40
0.0
 40
0.0
 40
0.540001163
 40
1.0
 40
1.0
 40
1.0
 40
1.0
 10
26.522867681
 20
71.7068199021
 30
0.0
 10
26.52989081
 20
71.709878937
 30
0.0
 10
26.5439345158
 20
71.7138387163
 30
0.0
 10
26.5586002871
 20
71.7106724276
 30
0.0
 10
26.5642511646
 20
71.7074090096
 30
0.0
  0
SPLINE
  5
38F
100
AcDbEntity
  8
0
100
AcDbSpline
 62
7
  6
BYLAYER
 70
0
 71
3
 72
9
 73
5
 74
0
 42
0.0000001
 43
0.0000001
 44
0.0000000001
 40
0.0
 40
0.0
 40
0.0
 40
0.0
 40
0.5339854851
 40
1.0
 40
1.0
 40
1.0
 40
1.0
 10
26.4642504611
 20
71.6496712428
 30
0.0
 10
26.4716213375
 20
71.6624380461
 30
0.0
 10
26.4884154376
 20
71.6847144595
 30
0.0
 10
26.5110726528
 20
71.7016823909
 30
0.0
 10
26.522867681
 20
71.7068199021
 30
0.0
  0
SPLINE
  5
390
100
AcDbEntity
  8
0
100
AcDbSpline
 62
7
  6
BYLAYER
 70
0
 71
3
 72
11
 73
7
 74
0
 42
0.0000001
 43
0.0000001
 44
0.0000000001
 40
0.0
 40
0.0
 40
0.0
 40
0.0
 40
0.2177382977
 40
0.4508602761
 40
0.7103539614
 40
1.0
 40
1.0
 40
1.0
 40
1.0
 10
13.0446950948
 20
43.5892662488
 30
0.0
 10
13.0282074865
 20
43.5987905191
 30
0.0
 10
12.9973429335
 20
43.6247165822
 30
0.0
 10
12.9644944542
 20
43.6784436902
 30
0.0
 10
12.9449877781
 20
43.7446442108
 30
0.0
 10
12.9411375141
 20
43.7928278626
 30
0.0
 10
12.9411375141
 20
43.8181568887
 30
0.0
  0
SPLINE
  5
391
100
AcDbEntity
  8
0
100
AcDbSpline
 62
7
  6
BYLAYER
 70
0
 71
3
 72
9
 73
5
 74
0
 42
0.0000001
 43
0.0000001
 44
0.0000000001
 40
0.0
 40
0.0
 40
0.0
 40
0.0
 40
0.5398234162
 40
1.0
 40
1.0
 40
1.0
 40
1.0
 10
25.6580399885
 20
71.5223806743
 30
0.0
 10
25.6650603879
 20
71.5254385203
 30
0.0
 10
25.6791036185
 20
71.5293869377
 30
0.0
 10
25.6937710026
 20
71.5262347231
 30
0.0
 10
25.6994240608
 20
71.5229708161
 30
0.0
  0
SPLINE
  5
392
100
AcDbEntity
  8
0
100
AcDbSpline
 62
7
  6
BYLAYER
 70
0
 71
3
 72
9
 73
5
 74
0
 42
0.0000001
 43
0.0000001
 44
0.0000000001
 40
0.0
 40
0.0
 40
0.0
 40
0.0
 40
0.5336154402
 40
1.0
 40
1.0
 40
1.0
 40
1.0
 10
25.6045352111
 20
71.473542809
 30
0.0
 10
25.611667355
 20
71.4844260399
 30
0.0
 10
25.6273303328
 20
71.5034025453
 30
0.0
 10
25.6476135028
 20
71.5178392535
 30
0.0
 10
25.6580399885
 20
71.5223806743
 30
0.0
  0
SPLINE
  5
393
100
AcDbEntity
  8
0
100
AcDbSpline
 62
7
  6
BYLAYER
 70
0
 71
3
 72
9
 73
5
 74
0
 42
0.0000001
 43
0.0000001
 44
0.0000000001
 40
0.0
 40
0.0
 40
0.0
 40
0.0
 40
0.5395946238
 40
1.0
 40
1.0
 40
1.0
 40
1.0
 10
24.8202687781
 20
71.4394004502
 30
0.0
 10
24.8272856503
 20
71.4424567599
 30
0.0
 10
24.841328075
 20
71.4463907204
 30
0.0
 10
24.8559978272
 20
71.4432567154
 30
0.0
 10
24.8616533763
 20
71.4399916591
 30
0.0
  0
SPLINE
  5
394
100
AcDbEntity
  8
0
100
AcDbSpline
 62
7
  6
BYLAYER
 70
0
 71
3
 72
9
 73
5
 74
0
 42
0.0000001
 43
0.0000001
 44
0.0000000001
 40
0.0
 40
0.0
 40
0.0
 40
0.0
 40
0.5325852644
 40
1.0
 40
1.0
 40
1.0
 40
1.0
 10
24.7710935402
 20
71.396851612
 30
0.0
 10
24.7779056253
 20
71.4062923854
 30
0.0
 10
24.7925277379
 20
71.4227756637
 30
0.0
 10
24.810901501
 20
71.4353203845
 30
0.0
 10
24.8202687781
 20
71.4394004502
 30
0.0
  0
SPLINE
  5
395
100
AcDbEntity
  8
0
100
AcDbSpline
 62
7
  6
BYLAYER
 70
0
 71
3
 72
9
 73
5
 74
0
 42
0.0000001
 43
0.0000001
 44
0.0000000001
 40
0.0
 40
0.0
 40
0.0
 40
0.0
 40
0.2459529802
 40
1.0
 40
1.0
 40
1.0
 40
1.0
 10
23.6321944994
 20
71.1293303418
 30
0.0
 10
23.7060207641
 20
71.1193178814
 30
0.0
 10
24.0069493398
 20
71.0843744371
 30
0.0
 10
24.3104457945
 20
71.0722929157
 30
0.0
 10
24.5388399922
 20
71.0749746739
 30
0.0
  0
SPLINE
  5
396
100
AcDbEntity
  8
0
100
AcDbSpline
 62
7
  6
BYLAYER
 70
0
 71
3
 72
9
 73
5
 74
0
 42
0.0000001
 43
0.0000001
 44
0.0000000001
 40
0.0
 40
0.0
 40
0.0
 40
0.0
 40
0.5301407627
 40
1.0
 40
1.0
 40
1.0
 40
1.0
 10
23.4895372638
 20
71.1048046628
 30
0.0
 10
23.5132061024
 20
71.1151139999
 30
0.0
 10
23.5599749034
 20
71.1303026109
 30
0.0
 10
23.609521045
 20
71.1324053594
 30
0.0
 10
23.6321944994
 20
71.1293303418
 30
0.0
  0
SPLINE
  5
397
100
AcDbEntity
  8
0
100
AcDbSpline
 62
7
  6
BYLAYER
 70
0
 71
3
 72
9
 73
5
 74
0
 42
0.0000001
 43
0.0000001
 44
0.0000000001
 40
0.0
 40
0.0
 40
0.0
 40
0.0
 40
0.2560789452
 40
1.0
 40
1.0
 40
1.0
 40
1.0
 10
23.4464501237
 20
71.082971482
 30
0.0
 10
23.4500219154
 20
71.0850336445
 30
0.0
 10
23.464074595
 20
71.0929028421
 30
0.0
 10
23.4785526225
 20
71.1000201285
 30
0.0
 10
23.4895372638
 20
71.1048046628
 30
0.0
  0
SPLINE
  5
398
100
AcDbEntity
  8
0
100
AcDbSpline
 62
7
  6
BYLAYER
 70
0
 71
3
 72
11
 73
7
 74
0
 42
0.0000001
 43
0.0000001
 44
0.0000000001
 40
0.0
 40
0.0
 40
0.0
 40
0.0
 40
0.2514296391
 40
0.5139041419
 40
0.7690331228
 40
1.0
 40
1.0
 40
1.0
 40
1.0
 10
17.9262228969
 20
67.5919043927
 30
0.0
 10
17.9365346944
 20
67.6430206345
 30
0.0
 10
17.9701212722
 20
67.7451280236
 30
0.0
 10
18.0475598666
 20
67.8855207392
 30
0.0
 10
18.1468678302
 20
68.0060032645
 30
0.0
 10
18.2267915204
 20
68.0694181708
 30
0.0
 10
18.268275972
 20
68.0933690871
 30
0.0
  0
SPLINE
  5
399
100
AcDbEntity
  8
0
100
AcDbSpline
 62
7
  6
BYLAYER
 70
0
 71
3
 72
15
 73
11
 74
0
 42
0.0000001
 43
0.0000001
 44
0.0000000001
 40
0.0
 40
0.0
 40
0.0
 40
0.0
 40
0.1141465952
 40
0.2373352439
 40
0.366975646
 40
0.4999989181
 40
0.6330223406
 40
0.7626631822
 40
0.8858525235
 40
1.0
 40
1.0
 40
1.0
 40
1.0
 10
15.8756428734
 20
59.4324052799
 30
0.0
 10
16.0450561976
 20
59.3345966643
 30
0.0
 10
16.3797007265
 20
59.0999898518
 30
0.0
 10
16.8401812861
 20
58.6692297111
 30
0.0
 10
17.2644859862
 20
58.1599654407
 30
0.0
 10
17.6367335557
 20
57.591441623
 30
0.0
 10
17.9429690541
 20
56.9848046462
 30
0.0
 10
18.1718565204
 20
56.3627130169
 30
0.0
 10
18.3146701399
 20
55.7485426537
 30
0.0
 10
18.3505269115
 20
55.3414262397
 30
0.0
 10
18.3505269115
 20
55.1458041791
 30
0.0
  0
SPLINE
  5
39A
100
AcDbEntity
  8
0
100
AcDbSpline
 62
7
  6
BYLAYER
 70
0
 71
3
 72
14
 73
10
 74
0
 42
0.0000001
 43
0.0000001
 44
0.0000000001
 40
0.0
 40
0.0
 40
0.0
 40
0.0
 40
0.2892474877
 40
0.422571007
 40
0.5485181942
 40
0.667892638
 40
0.7818650293
 40
0.8919543638
 40
1.0
 40
1.0
 40
1.0
 40
1.0
 10
18.3505269115
 20
54.329301762
 30
0.0
 10
18.3505269115
 20
54.1519173712
 30
0.0
 10
18.329781986
 20
53.8915025836
 30
0.0
 10
18.2497644382
 20
53.5641815434
 30
0.0
 10
18.1683020268
 20
53.3460701367
 30
0.0
 10
18.0644884614
 20
53.1509257602
 30
0.0
 10
17.9390923591
 20
52.9806799191
 30
0.0
 10
17.7933582657
 20
52.8371621779
 30
0.0
 10
17.6830053151
 20
52.7602032228
 30
0.0
 10
17.6256221751
 20
52.7270732472
 30
0.0
  0
SPLINE
  5
39B
100
AcDbEntity
  8
0
100
AcDbSpline
 62
7
  6
BYLAYER
 70
0
 71
3
 72
15
 73
11
 74
0
 42
0.0000001
 43
0.0000001
 44
0.0000000001
 40
0.0
 40
0.0
 40
0.0
 40
0.0
 40
0.1141465952
 40
0.2373352439
 40
0.366975646
 40
0.4999989181
 40
0.6330223406
 40
0.7626631822
 40
0.8858525235
 40
1.0
 40
1.0
 40
1.0
 40
1.0
 10
15.8756428734
 20
17.1911769242
 30
0.0
 10
16.0450561976
 20
17.0933683086
 30
0.0
 10
16.3797007265
 20
16.8587614961
 30
0.0
 10
16.8401812861
 20
16.4280013554
 30
0.0
 10
17.2644859862
 20
15.918737085
 30
0.0
 10
17.6367335557
 20
15.3502132674
 30
0.0
 10
17.9429690541
 20
14.7435762905
 30
0.0
 10
18.1718565204
 20
14.1214846613
 30
0.0
 10
18.3146701399
 20
13.507314298
 30
0.0
 10
18.3505269115
 20
13.1001978841
 30
0.0
 10
18.3505269115
 20
12.9045758235
 30
0.0
  0
SPLINE
  5
39C
100
AcDbEntity
  8
0
100
AcDbSpline
 62
7
  6
BYLAYER
 70
0
 71
3
 72
14
 73
10
 74
0
 42
0.0000001
 43
0.0000001
 44
0.0000000001
 40
0.0
 40
0.0
 40
0.0
 40
0.0
 40
0.2892474877
 40
0.422571007
 40
0.5485181942
 40
0.667892638
 40
0.7818650293
 40
0.8919543638
 40
1.0
 40
1.0
 40
1.0
 40
1.0
 10
18.3505269115
 20
12.0880734063
 30
0.0
 10
18.3505269115
 20
11.9106890156
 30
0.0
 10
18.329781986
 20
11.6502742279
 30
0.0
 10
18.2497644382
 20
11.3229531877
 30
0.0
 10
18.1683020268
 20
11.1048417811
 30
0.0
 10
18.0644884614
 20
10.9096974045
 30
0.0
 10
17.9390923591
 20
10.7394515635
 30
0.0
 10
17.7933582658
 20
10.5959338222
 30
0.0
 10
17.6830053151
 20
10.5189748672
 30
0.0
 10
17.6256221751
 20
10.4858448916
 30
0.0
  0
SPLINE
  5
39D
100
AcDbEntity
  8
0
100
AcDbSpline
 62
7
  6
BYLAYER
 70
0
 71
3
 72
11
 73
7
 74
0
 42
0.0000001
 43
0.0000001
 44
0.0000000001
 40
0.0
 40
0.0
 40
0.0
 40
0.0
 40
0.2249111003
 40
0.4818564643
 40
0.7486989023
 40
1.0
 40
1.0
 40
1.0
 40
1.0
 10
38.5311906675
 20
72.3002736111
 30
0.0
 10
38.5214699829
 20
72.2960396131
 30
0.0
 10
38.5024675071
 20
72.2828211345
 30
0.0
 10
38.4791381211
 20
72.255996094
 30
0.0
 10
38.4615244734
 20
72.2236841604
 30
0.0
 10
38.4545834419
 20
72.1999628295
 30
0.0
 10
38.4529371054
 20
72.1882309481
 30
0.0
  0
SPLINE
  5
39E
100
AcDbEntity
  8
0
100
AcDbSpline
 62
7
  6
BYLAYER
 70
0
 71
3
 72
11
 73
7
 74
0
 42
0.0000001
 43
0.0000001
 44
0.0000000001
 40
0.0
 40
0.0
 40
0.0
 40
0.0
 40
0.2246495391
 40
0.4609202256
 40
0.7181106218
 40
1.0
 40
1.0
 40
1.0
 40
1.0
 10
43.482857908
 20
75.8769752349
 30
0.0
 10
43.4689703532
 20
75.8850113741
 30
0.0
 10
43.4378641845
 20
75.8973207731
 30
0.0
 10
43.3862821387
 20
75.9024649324
 30
0.0
 10
43.3310213533
 20
75.8947285513
 30
0.0
 10
43.2944098718
 20
75.8820881921
 30
0.0
 10
43.2759515427
 20
75.8740483749
 30
0.0
  0
SPLINE
  5
39F
100
AcDbEntity
  8
0
100
AcDbSpline
 62
7
  6
BYLAYER
 70
0
 71
3
 72
9
 73
5
 74
0
 42
0.0000001
 43
0.0000001
 44
0.0000000001
 40
0.0
 40
0.0
 40
0.0
 40
0.0
 40
0.4625032345
 40
1.0
 40
1.0
 40
1.0
 40
1.0
 10
38.568024998
 20
72.3030458755
 30
0.0
 10
38.5626187918
 20
72.3051627996
 30
0.0
 10
38.5496453701
 20
72.3066121519
 30
0.0
 10
38.5373766463
 20
72.302968012
 30
0.0
 10
38.5311906675
 20
72.3002736111
 30
0.0
  0
SPLINE
  5
3A0
100
AcDbEntity
  8
0
100
AcDbSpline
 62
7
  6
BYLAYER
 70
0
 71
3
 72
9
 73
5
 74
0
 42
0.0000001
 43
0.0000001
 44
0.0000000001
 40
0.0
 40
0.0
 40
0.0
 40
0.0
 40
0.4597979036
 40
1.0
 40
1.0
 40
1.0
 40
1.0
 10
36.8224453754
 20
70.7489346325
 30
0.0
 10
36.8167934965
 20
70.7521921532
 30
0.0
 10
36.8021331872
 20
70.7553822834
 30
0.0
 10
36.788087234
 20
70.751403914
 30
0.0
 10
36.7810606615
 20
70.7483433791
 30
0.0
  0
SPLINE
  5
3A1
100
AcDbEntity
  8
0
100
AcDbSpline
 62
7
  6
BYLAYER
 70
0
 71
3
 72
9
 73
5
 74
0
 42
0.0000001
 43
0.0000001
 44
0.0000000001
 40
0.0
 40
0.0
 40
0.0
 40
0.0
 40
0.4598441182
 40
1.0
 40
1.0
 40
1.0
 40
1.0
 10
35.9234011629
 20
70.0931958925
 30
0.0
 10
35.9177523945
 20
70.0964592891
 30
0.0
 10
35.9030909674
 20
70.0996542306
 30
0.0
 10
35.8890469385
 20
70.0956732217
 30
0.0
 10
35.8820214119
 20
70.0926131425
 30
0.0
  0
SPLINE
  5
3A2
100
AcDbEntity
  8
0
100
AcDbSpline
 62
7
  6
BYLAYER
 70
0
 71
3
 72
9
 73
5
 74
0
 42
0.0000001
 43
0.0000001
 44
0.0000000001
 40
0.0
 40
0.0
 40
0.0
 40
0.0
 40
0.4598127151
 40
1.0
 40
1.0
 40
1.0
 40
1.0
 10
35.0174678439
 20
69.5244854293
 30
0.0
 10
35.0118219367
 20
69.527752968
 30
0.0
 10
34.9971561059
 20
69.5309391407
 30
0.0
 10
34.9831134382
 20
69.5269618677
 30
0.0
 10
34.976087458
 20
69.5239015908
 30
0.0
  0
SPLINE
  5
3A3
100
AcDbEntity
  8
0
100
AcDbSpline
 62
7
  6
BYLAYER
 70
0
 71
3
 72
13
 73
9
 74
0
 42
0.0000001
 43
0.0000001
 44
0.0000000001
 40
0.0
 40
0.0
 40
0.0
 40
0.0
 40
0.1065982425
 40
0.2284018645
 40
0.4998300675
 40
0.77143219
 40
0.8933562285
 40
1.0
 40
1.0
 40
1.0
 40
1.0
 10
23.8153468529
 20
8.3614408116
 30
0.0
 10
23.8058466568
 20
8.3589007874
 30
0.0
 10
23.7863688354
 20
8.3501212499
 30
0.0
 10
23.7492912117
 20
8.3223066982
 30
0.0
 10
23.7110193248
 20
8.2730533781
 30
0.0
 10
23.6873868892
 20
8.215318394
 30
0.0
 10
23.6817336482
 20
8.1692817583
 30
0.0
 10
23.683847465
 20
8.1480017285
 30
0.0
 10
23.6864010765
 20
8.1385008264
 30
0.0
  0
SPLINE
  5
3A4
100
AcDbEntity
  8
0
100
AcDbSpline
 62
7
  6
BYLAYER
 70
0
 71
3
 72
9
 73
5
 74
0
 42
0.0000001
 43
0.0000001
 44
0.0000000001
 40
0.0
 40
0.0
 40
0.0
 40
0.0
 40
0.4597546478
 40
1.0
 40
1.0
 40
1.0
 40
1.0
 10
34.1115239265
 20
69.0471034195
 30
0.0
 10
34.1058791899
 20
69.0503717141
 30
0.0
 10
34.0912232355
 20
69.0536129532
 30
0.0
 10
34.0771804436
 20
69.0495976571
 30
0.0
 10
34.070153504
 20
69.0465369624
 30
0.0
  0
SPLINE
  5
3A5
100
AcDbEntity
  8
0
100
AcDbSpline
 62
7
  6
BYLAYER
 70
0
 71
3
 72
9
 73
5
 74
0
 42
0.0000001
 43
0.0000001
 44
0.0000000001
 40
0.0
 40
0.0
 40
0.0
 40
0.0
 40
0.4598757652
 40
1.0
 40
1.0
 40
1.0
 40
1.0
 10
33.2124969811
 20
68.6647401492
 30
0.0
 10
33.2068482151
 20
68.6680042433
 30
0.0
 10
33.1921829457
 20
68.67118005
 30
0.0
 10
33.1781392596
 20
68.6672121424
 30
0.0
 10
33.1711142545
 20
68.6641522903
 30
0.0
  0
SPLINE
  5
3A6
100
AcDbEntity
  8
0
100
AcDbSpline
 62
7
  6
BYLAYER
 70
0
 71
3
 72
11
 73
7
 74
0
 42
0.0000001
 43
0.0000001
 44
0.0000000001
 40
0.0
 40
0.0
 40
0.0
 40
0.0
 40
0.2266191701
 40
0.4860184228
 40
0.7530510237
 40
1.0
 40
1.0
 40
1.0
 40
1.0
 10
39.3689618779
 20
73.1846624803
 30
0.0
 10
39.3587122554
 20
73.1801980951
 30
0.0
 10
39.3387686115
 20
73.166016836
 30
0.0
 10
39.3146971366
 20
73.1373482707
 30
0.0
 10
39.2971795797
 20
73.1031209684
 30
0.0
 10
39.2909584498
 20
73.078166799
 30
0.0
 10
39.2899707568
 20
73.0660242916
 30
0.0
  0
SPLINE
  5
3A7
100
AcDbEntity
  8
0
100
AcDbSpline
 62
7
  6
BYLAYER
 70
0
 71
3
 72
9
 73
5
 74
0
 42
0.0000001
 43
0.0000001
 44
0.0000000001
 40
0.0
 40
0.0
 40
0.0
 40
0.0
 40
0.4599987997
 40
1.0
 40
1.0
 40
1.0
 40
1.0
 10
32.3271954244
 20
68.3802468601
 30
0.0
 10
32.3215445476
 20
68.3835102758
 30
0.0
 10
32.306878776
 20
68.3866765348
 30
0.0
 10
32.2928350692
 20
68.3827167873
 30
0.0
 10
32.2858119409
 20
68.3796577527
 30
0.0
  0
SPLINE
  5
3A8
100
AcDbEntity
  8
0
100
AcDbSpline
 62
7
  6
BYLAYER
 70
0
 71
3
 72
9
 73
5
 74
0
 42
0.0000001
 43
0.0000001
 44
0.0000000001
 40
0.0
 40
0.0
 40
0.0
 40
0.0
 40
0.2276922023
 40
1.0
 40
1.0
 40
1.0
 40
1.0
 10
39.4018005076
 20
73.1887378195
 30
0.0
 10
39.3993419862
 20
73.1893725407
 30
0.0
 10
39.3882300336
 20
73.1909850824
 30
0.0
 10
39.3768578541
 20
73.1881016976
 30
0.0
 10
39.3689618779
 20
73.1846624803
 30
0.0
  0
SPLINE
  5
3A9
100
AcDbEntity
  8
0
100
AcDbSpline
 62
7
  6
BYLAYER
 70
0
 71
3
 72
9
 73
5
 74
0
 42
0.0000001
 43
0.0000001
 44
0.0000000001
 40
0.0
 40
0.0
 40
0.0
 40
0.0
 40
0.4601767648
 40
1.0
 40
1.0
 40
1.0
 40
1.0
 10
31.4623683198
 20
68.1958086669
 30
0.0
 10
31.4567152618
 20
68.1990725752
 30
0.0
 10
31.4420478731
 20
68.2022247338
 30
0.0
 10
31.4280046433
 20
68.198276369
 30
0.0
 10
31.4209842484
 20
68.1952185249
 30
0.0
  0
SPLINE
  5
3AA
100
AcDbEntity
  8
0
100
AcDbSpline
 62
7
  6
BYLAYER
 70
0
 71
3
 72
9
 73
5
 74
0
 42
0.0000001
 43
0.0000001
 44
0.0000000001
 40
0.0
 40
0.0
 40
0.0
 40
0.0
 40
0.4604058607
 40
1.0
 40
1.0
 40
1.0
 40
1.0
 10
30.6245976352
 20
68.1128295108
 30
0.0
 10
30.618942084
 20
68.1160945711
 30
0.0
 10
30.6042723228
 20
68.1192284874
 30
0.0
 10
30.5902299006
 20
68.1152946063
 30
0.0
 10
30.583213038
 20
68.1122383008
 30
0.0
  0
SPLINE
  5
3AB
100
AcDbEntity
  8
0
100
AcDbSpline
 62
7
  6
BYLAYER
 70
0
 71
3
 72
9
 73
5
 74
0
 42
0.0000001
 43
0.0000001
 44
0.0000000001
 40
0.0
 40
0.0
 40
0.0
 40
0.0
 40
0.4767643008
 40
1.0
 40
1.0
 40
1.0
 40
1.0
 10
40.7255456763
 20
74.4046226934
 30
0.0
 10
40.6909081767
 20
74.3846248431
 30
0.0
 10
40.6234256579
 20
74.3335712496
 30
0.0
 10
40.5666898437
 20
74.2711984088
 30
0.0
 10
40.5398013007
 20
74.236503703
 30
0.0
  0
SPLINE
  5
3AC
100
AcDbEntity
  8
0
100
AcDbSpline
 62
7
  6
BYLAYER
 70
0
 71
3
 72
11
 73
7
 74
0
 42
0.0000001
 43
0.0000001
 44
0.0000000001
 40
0.0
 40
0.0
 40
0.0
 40
0.0
 40
0.2895161426
 40
0.5491680116
 40
0.7823267738
 40
1.0
 40
1.0
 40
1.0
 40
1.0
 10
18.704081774
 20
6.85744798
 30
0.0
 10
18.704081774
 20
6.8321308136
 30
0.0
 10
18.7079548336
 20
6.7839500931
 30
0.0
 10
18.7274250425
 20
6.7177329359
 30
0.0
 10
18.760299888
 20
6.6640079755
 30
0.0
 10
18.7911589833
 20
6.6380820778
 30
0.0
 10
18.8076436625
 20
6.6285648668
 30
0.0
  0
SPLINE
  5
3AD
100
AcDbEntity
  8
0
100
AcDbSpline
 62
7
  6
BYLAYER
 70
0
 71
3
 72
11
 73
7
 74
0
 42
0.0000001
 43
0.0000001
 44
0.0000000001
 40
0.0
 40
0.0
 40
0.0
 40
0.0
 40
0.2572200134
 40
0.5191247605
 40
0.7710131132
 40
1.0
 40
1.0
 40
1.0
 40
1.0
 10
18.9199945175
 20
25.5711675994
 30
0.0
 10
18.8873512783
 20
25.5363900493
 30
0.0
 10
18.82801256
 20
25.4598545411
 30
0.0
 10
18.7600007064
 20
25.3333732147
 30
0.0
 10
18.7158877576
 20
25.2022000341
 30
0.0
 10
18.704081774
 20
25.1129292366
 30
0.0
 10
18.704081774
 20
25.0704670657
 30
0.0
  0
SPLINE
  5
3AE
100
AcDbEntity
  8
0
100
AcDbSpline
 62
7
  6
BYLAYER
 70
0
 71
3
 72
9
 73
5
 74
0
 42
0.0000001
 43
0.0000001
 44
0.0000000001
 40
0.0
 40
0.0
 40
0.0
 40
0.0
 40
0.2353342387
 40
1.0
 40
1.0
 40
1.0
 40
1.0
 10
19.9778039725
 20
26.6631740682
 30
0.0
 10
19.9657380355
 20
26.6562078378
 30
0.0
 10
19.9157854557
 20
26.6243326721
 30
0.0
 10
19.8711470657
 20
26.5845092965
 30
0.0
 10
19.8401647974
 20
26.5515013164
 30
0.0
  0
SPLINE
  5
3AF
100
AcDbEntity
  8
0
100
AcDbSpline
 62
7
  6
BYLAYER
 70
0
 71
3
 72
9
 73
5
 74
0
 42
0.0000001
 43
0.0000001
 44
0.0000000001
 40
0.0
 40
0.0
 40
0.0
 40
0.0
 40
0.2439822152
 40
1.0
 40
1.0
 40
1.0
 40
1.0
 10
43.2759515427
 20
75.8740483749
 30
0.0
 10
43.2723488985
 20
75.8724791862
 30
0.0
 10
43.2576809187
 20
75.8658237489
 30
0.0
 10
43.2434094475
 20
75.8583033422
 30
0.0
 10
43.2328644025
 20
75.852215194
 30
0.0
  0
SPLINE
  5
3B0
100
AcDbEntity
  8
0
100
AcDbSpline
 62
7
  6
BYLAYER
 70
0
 71
3
 72
11
 73
7
 74
0
 42
0.0000001
 43
0.0000001
 44
0.0000000001
 40
0.0
 40
0.0
 40
0.0
 40
0.0
 40
0.2309896048
 40
0.4861426619
 40
0.7486026093
 40
1.0
 40
1.0
 40
1.0
 40
1.0
 10
24.031220232
 20
64.7662069378
 30
0.0
 10
23.9897109677
 20
64.7422416959
 30
0.0
 10
23.9097446898
 20
64.6787803363
 30
0.0
 10
23.8104042536
 20
64.5582148432
 30
0.0
 10
23.7329567653
 20
64.4177389983
 30
0.0
 10
23.6993879658
 20
64.3155816922
 30
0.0
 10
23.6890723391
 20
64.2644464686
 30
0.0
  0
SPLINE
  5
3B1
100
AcDbEntity
  8
0
100
AcDbSpline
 62
7
  6
BYLAYER
 70
0
 71
3
 72
11
 73
7
 74
0
 42
0.0000001
 43
0.0000001
 44
0.0000000001
 40
0.0
 40
0.0
 40
0.0
 40
0.0
 40
0.2896361985
 40
0.5491440337
 40
0.7822689535
 40
1.0
 40
1.0
 40
1.0
 40
1.0
 10
18.704081774
 20
33.3171414787
 30
0.0
 10
18.704081774
 20
33.2918133449
 30
0.0
 10
18.7079337789
 20
33.2436296481
 30
0.0
 10
18.7274380767
 20
33.1774279474
 30
0.0
 10
18.7602877801
 20
33.1237001425
 30
0.0
 10
18.7911528613
 20
33.0977757149
 30
0.0
 10
18.8076397812
 20
33.0882515684
 30
0.0
  0
SPLINE
  5
3B2
100
AcDbEntity
  8
0
100
AcDbSpline
 62
7
  6
BYLAYER
 70
0
 71
3
 72
11
 73
7
 74
0
 42
0.0000001
 43
0.0000001
 44
0.0000000001
 40
0.0
 40
0.0
 40
0.0
 40
0.0
 40
0.2577346733
 40
0.5195696443
 40
0.7711662814
 40
1.0
 40
1.0
 40
1.0
 40
1.0
 10
18.9153924803
 20
34.6407649846
 30
0.0
 10
18.8833907442
 20
34.6060497724
 30
0.0
 10
18.8252705249
 20
34.5299742659
 30
0.0
 10
18.7586997749
 20
34.4046746454
 30
0.0
 10
18.7155909453
 20
34.2750423333
 30
0.0
 10
18.704081774
 20
34.1869324824
 30
0.0
 10
18.704081774
 20
34.1450119059
 30
0.0
  0
SPLINE
  5
3B3
100
AcDbEntity
  8
0
100
AcDbSpline
 62
7
  6
BYLAYER
 70
0
 71
3
 72
9
 73
5
 74
0
 42
0.0000001
 43
0.0000001
 44
0.0000000001
 40
0.0
 40
0.0
 40
0.0
 40
0.0
 40
0.2349676349
 40
1.0
 40
1.0
 40
1.0
 40
1.0
 10
20.072327699
 20
35.8829866737
 30
0.0
 10
20.0680764483
 20
35.8805322276
 30
0.0
 10
20.0504658437
 20
35.8692548707
 30
0.0
 10
20.0347987349
 20
35.855087402
 30
0.0
 10
20.0239656868
 20
35.8433358034
 30
0.0
  0
SPLINE
  5
3B4
100
AcDbEntity
  8
0
100
AcDbSpline
 62
7
  6
BYLAYER
 70
0
 71
3
 72
9
 73
5
 74
0
 42
0.0000001
 43
0.0000001
 44
0.0000000001
 40
0.0
 40
0.0
 40
0.0
 40
0.0
 40
0.2439822152
 40
1.0
 40
1.0
 40
1.0
 40
1.0
 10
29.2524815238
 20
67.7776425135
 30
0.0
 10
29.2488788796
 20
67.7760733248
 30
0.0
 10
29.2342108998
 20
67.7694178875
 30
0.0
 10
29.2199394286
 20
67.7618974808
 30
0.0
 10
29.2093943836
 20
67.7558093326
 30
0.0
  0
SPLINE
  5
3B5
100
AcDbEntity
  8
0
100
AcDbSpline
 62
7
  6
BYLAYER
 70
0
 71
3
 72
9
 73
5
 74
0
 42
0.0000001
 43
0.0000001
 44
0.0000000001
 40
0.0
 40
0.0
 40
0.0
 40
0.0
 40
0.4698592373
 40
1.0
 40
1.0
 40
1.0
 40
1.0
 10
29.3951387593
 20
67.8021681925
 30
0.0
 10
29.372465305
 20
67.8052432101
 30
0.0
 10
29.3229191634
 20
67.8031404615
 30
0.0
 10
29.2761503623
 20
67.7879518506
 30
0.0
 10
29.2524815238
 20
67.7776425135
 30
0.0
  0
SPLINE
  5
3B6
100
AcDbEntity
  8
0
100
AcDbSpline
 62
7
  6
BYLAYER
 70
0
 71
3
 72
9
 73
5
 74
0
 42
0.0000001
 43
0.0000001
 44
0.0000000001
 40
0.0
 40
0.0
 40
0.0
 40
0.0
 40
0.2543994342
 40
1.0
 40
1.0
 40
1.0
 40
1.0
 10
30.3017842522
 20
67.7478125245
 30
0.0
 10
30.2247297797
 20
67.7469077666
 30
0.0
 10
29.9218130793
 20
67.7486052645
 30
0.0
 10
29.6189387723
 20
67.7718160031
 30
0.0
 10
29.3951387593
 20
67.8021681925
 30
0.0
  0
SPLINE
  5
3B7
100
AcDbEntity
  8
0
100
AcDbSpline
 62
7
  6
BYLAYER
 70
0
 71
3
 72
9
 73
5
 74
0
 42
0.0000001
 43
0.0000001
 44
0.0000000001
 40
0.0
 40
0.0
 40
0.0
 40
0.0
 40
0.2299948272
 40
1.0
 40
1.0
 40
1.0
 40
1.0
 10
30.583213038
 20
68.1122383008
 30
0.0
 10
30.5802627159
 20
68.1109532414
 30
0.0
 10
30.5677857431
 20
68.1045635768
 30
0.0
 10
30.5567942295
 20
68.0955149433
 30
0.0
 10
30.5492552748
 20
68.0878183284
 30
0.0
  0
SPLINE
  5
3B8
100
AcDbEntity
  8
0
100
AcDbSpline
 62
7
  6
BYLAYER
 70
0
 71
3
 72
9
 73
5
 74
0
 42
0.0000001
 43
0.0000001
 44
0.0000000001
 40
0.0
 40
0.0
 40
0.0
 40
0.0
 40
0.2454683955
 40
1.0
 40
1.0
 40
1.0
 40
1.0
 10
30.5492552748
 20
68.0878183284
 30
0.0
 10
30.5478993661
 20
68.086434064
 30
0.0
 10
30.54248941
 20
68.0806840912
 30
0.0
 10
30.5375229874
 20
68.0745195349
 30
0.0
 10
30.5340378001
 20
68.0696894627
 30
0.0
  0
SPLINE
  5
3B9
100
AcDbEntity
  8
0
100
AcDbSpline
 62
7
  6
BYLAYER
 70
0
 71
3
 72
9
 73
5
 74
0
 42
0.0000001
 43
0.0000001
 44
0.0000000001
 40
0.0
 40
0.0
 40
0.0
 40
0.0
 40
0.2288132709
 40
1.0
 40
1.0
 40
1.0
 40
1.0
 10
31.4209842484
 20
68.1952185249
 30
0.0
 10
31.4177697842
 20
68.1938184142
 30
0.0
 10
31.4041392948
 20
68.1867431932
 30
0.0
 10
31.3922929365
 20
68.1765483136
 30
0.0
 10
31.3842562895
 20
68.1678848932
 30
0.0
  0
SPLINE
  5
3BA
100
AcDbEntity
  8
0
100
AcDbSpline
 62
7
  6
BYLAYER
 70
0
 71
3
 72
9
 73
5
 74
0
 42
0.0000001
 43
0.0000001
 44
0.0000000001
 40
0.0
 40
0.0
 40
0.0
 40
0.0
 40
0.2458350189
 40
1.0
 40
1.0
 40
1.0
 40
1.0
 10
31.3842562895
 20
68.1678848932
 30
0.0
 10
31.3827352884
 20
68.1662452701
 30
0.0
 10
31.3766974631
 20
68.1594384391
 30
0.0
 10
31.3712401141
 20
68.152119179
 30
0.0
 10
31.3674794711
 20
68.1463806597
 30
0.0
  0
SPLINE
  5
3BB
100
AcDbEntity
  8
0
100
AcDbSpline
 62
7
  6
BYLAYER
 70
0
 71
3
 72
14
 73
10
 74
0
 42
0.0000001
 43
0.0000001
 44
0.0000000001
 40
0.0
 40
0.0
 40
0.0
 40
0.0
 40
0.108046144
 40
0.2181359093
 40
0.3321085861
 40
0.4514831362
 40
0.5774302378
 40
0.7107534897
 40
1.0
 40
1.0
 40
1.0
 40
1.0
 10
17.6256221751
 20
52.7270732472
 30
0.0
 10
17.5682403026
 20
52.6939440034
 30
0.0
 10
17.4464179997
 20
52.6368567171
 30
0.0
 10
17.2492655497
 20
52.5824073692
 30
0.0
 10
17.0391355111
 20
52.5589339284
 30
0.0
 10
16.8182344464
 20
52.5665994925
 30
0.0
 10
16.5886192539
 20
52.6051039381
 30
0.0
 10
16.265150815
 20
52.6994617674
 30
0.0
 10
16.0292584965
 20
52.8116979279
 30
0.0
 10
15.8756428734
 20
52.9003859428
 30
0.0
  0
SPLINE
  5
3BC
100
AcDbEntity
  8
0
100
AcDbSpline
 62
7
  6
BYLAYER
 70
0
 71
3
 72
11
 73
7
 74
0
 42
0.0000001
 43
0.0000001
 44
0.0000000001
 40
0.0
 40
0.0
 40
0.0
 40
0.0
 40
0.2287673509
 40
0.4700857253
 40
0.7266533072
 40
1.0
 40
1.0
 40
1.0
 40
1.0
 10
48.3873333768
 20
35.957032227
 30
0.0
 10
48.177746664
 20
35.9984500384
 30
0.0
 10
47.7385853354
 20
36.0442490356
 30
0.0
 10
47.0586457897
 20
36.0044441274
 30
0.0
 10
46.3510324907
 20
35.859038034
 30
0.0
 10
45.8814755896
 20
35.6985719243
 30
0.0
 10
45.6447379719
 20
35.6030794629
 30
0.0
  0
SPLINE
  5
3BD
100
AcDbEntity
  8
0
100
AcDbSpline
 62
7
  6
BYLAYER
 70
0
 71
3
 72
9
 73
5
 74
0
 42
0.0000001
 43
0.0000001
 44
0.0000000001
 40
0.0
 40
0.0
 40
0.0
 40
0.0
 40
0.2269535621
 40
1.0
 40
1.0
 40
1.0
 40
1.0
 10
32.2858119409
 20
68.3796577527
 30
0.0
 10
32.2821336057
 20
68.3780555956
 30
0.0
 10
32.2664813156
 20
68.3697296015
 30
0.0
 10
32.2531824508
 20
68.3574378597
 30
0.0
 10
32.244361782
 20
68.3469996743
 30
0.0
  0
SPLINE
  5
3BE
100
AcDbEntity
  8
0
100
AcDbSpline
 62
7
  6
BYLAYER
 70
0
 71
3
 72
11
 73
7
 74
0
 42
0.0000001
 43
0.0000001
 44
0.0000000001
 40
0.0
 40
0.0
 40
0.0
 40
0.0
 40
0.2896460386
 40
0.5491397239
 40
0.7822617023
 40
1.0
 40
1.0
 40
1.0
 40
1.0
 10
18.704081774
 20
40.4909947394
 30
0.0
 10
18.704081774
 20
40.4656657132
 30
0.0
 10
18.7079320381
 20
40.4174820615
 30
0.0
 10
18.7274387141
 20
40.3512815409
 30
0.0
 10
18.7602871934
 20
40.2975544329
 30
0.0
 10
18.7911517465
 20
40.2716283697
 30
0.0
 10
18.8076393547
 20
40.2621040994
 30
0.0
  0
SPLINE
  5
3BF
100
AcDbEntity
  8
0
100
AcDbSpline
 62
7
  6
BYLAYER
 70
0
 71
3
 72
14
 73
10
 74
0
 42
0.0000001
 43
0.0000001
 44
0.0000000001
 40
0.0
 40
0.0
 40
0.0
 40
0.0
 40
0.108046144
 40
0.2181359093
 40
0.3321085861
 40
0.4514831362
 40
0.5774302378
 40
0.7107534897
 40
1.0
 40
1.0
 40
1.0
 40
1.0
 10
17.6256221751
 20
10.4858448916
 30
0.0
 10
17.5682403026
 20
10.4527156478
 30
0.0
 10
17.4464179997
 20
10.3956283614
 30
0.0
 10
17.2492655497
 20
10.3411790135
 30
0.0
 10
17.0391355111
 20
10.3177055728
 30
0.0
 10
16.8182344464
 20
10.3253711369
 30
0.0
 10
16.5886192539
 20
10.3638755825
 30
0.0
 10
16.265150815
 20
10.4582334118
 30
0.0
 10
16.0292584965
 20
10.5704695722
 30
0.0
 10
15.8756428734
 20
10.6591575872
 30
0.0
  0
SPLINE
  5
3C0
100
AcDbEntity
  8
0
100
AcDbSpline
 62
7
  6
BYLAYER
 70
0
 71
3
 72
9
 73
5
 74
0
 42
0.0000001
 43
0.0000001
 44
0.0000000001
 40
0.0
 40
0.0
 40
0.0
 40
0.0
 40
0.2256899411
 40
1.0
 40
1.0
 40
1.0
 40
1.0
 10
33.1711142545
 20
68.6641522903
 30
0.0
 10
33.1670682667
 20
68.6623899963
 30
0.0
 10
33.149818751
 20
68.6530388847
 30
0.0
 10
33.135433608
 20
68.638997335
 30
0.0
 10
33.1260764096
 20
68.6270940971
 30
0.0
  0
SPLINE
  5
3C1
100
AcDbEntity
  8
0
100
AcDbSpline
 62
7
  6
BYLAYER
 70
0
 71
3
 72
11
 73
7
 74
0
 42
0.0000001
 43
0.0000001
 44
0.0000000001
 40
0.0
 40
0.0
 40
0.0
 40
0.0
 40
0.2514829898
 40
0.513942635
 40
0.7690162214
 40
1.0
 40
1.0
 40
1.0
 40
1.0
 10
18.9661277227
 20
60.3224667593
 30
0.0
 10
18.9272163683
 20
60.2879620614
 30
0.0
 10
18.8557636973
 20
60.208086164
 30
0.0
 10
18.7733352883
 20
60.0710830497
 30
0.0
 10
18.7189807715
 20
59.9252228532
 30
0.0
 10
18.704081774
 20
59.8246021816
 30
0.0
 10
18.704081774
 20
59.7768349775
 30
0.0
  0
SPLINE
  5
3C2
100
AcDbEntity
  8
0
100
AcDbSpline
 62
7
  6
BYLAYER
 70
0
 71
3
 72
9
 73
5
 74
0
 42
0.0000001
 43
0.0000001
 44
0.0000000001
 40
0.0
 40
0.0
 40
0.0
 40
0.0
 40
0.5350090369
 40
1.0
 40
1.0
 40
1.0
 40
1.0
 10
37.3922813496
 20
15.959925083
 30
0.0
 10
37.3934206953
 20
15.9531216398
 30
0.0
 10
37.3973839945
 20
15.9404960091
 30
0.0
 10
37.4067238605
 20
15.9306984582
 30
0.0
 10
37.4119159843
 20
15.9277006796
 30
0.0
  0
SPLINE
  5
3C3
100
AcDbEntity
  8
0
100
AcDbSpline
 62
7
  6
BYLAYER
 70
0
 71
3
 72
9
 73
5
 74
0
 42
0.0000001
 43
0.0000001
 44
0.0000000001
 40
0.0
 40
0.0
 40
0.0
 40
0.0
 40
0.2246217341
 40
1.0
 40
1.0
 40
1.0
 40
1.0
 10
34.070153504
 20
69.0465369624
 30
0.0
 10
34.0657374645
 20
69.0446134865
 30
0.0
 10
34.046886288
 20
69.0342120875
 30
0.0
 10
34.0314724558
 20
69.0183350386
 30
0.0
 10
34.0216572491
 20
69.0049140672
 30
0.0
  0
SPLINE
  5
3C4
100
AcDbEntity
  8
0
100
AcDbSpline
 62
7
  6
BYLAYER
 70
0
 71
3
 72
9
 73
5
 74
0
 42
0.0000001
 43
0.0000001
 44
0.0000000001
 40
0.0
 40
0.0
 40
0.0
 40
0.0
 40
0.52725553
 40
1.0
 40
1.0
 40
1.0
 40
1.0
 10
36.5287888054
 20
15.7693024769
 30
0.0
 10
36.5302653095
 20
15.7637920116
 30
0.0
 10
36.5345628704
 20
15.7535977416
 30
0.0
 10
36.5426594202
 20
15.7458205262
 30
0.0
 10
36.5470888796
 20
15.7432624864
 30
0.0
  0
SPLINE
  5
3C5
100
AcDbEntity
  8
0
100
AcDbSpline
 62
7
  6
BYLAYER
 70
0
 71
3
 72
14
 73
10
 74
0
 42
0.0000001
 43
0.0000001
 44
0.0000000001
 40
0.0
 40
0.0
 40
0.0
 40
0.0
 40
0.2892474877
 40
0.422571007
 40
0.5485181942
 40
0.667892638
 40
0.7818650293
 40
0.8919543638
 40
1.0
 40
1.0
 40
1.0
 40
1.0
 10
13.4007588354
 20
58.0034894607
 30
0.0
 10
13.4007588354
 20
58.1808738515
 30
0.0
 10
13.4215037609
 20
58.4412886392
 30
0.0
 10
13.5015213087
 20
58.7686096794
 30
0.0
 10
13.5829837201
 20
58.986721086
 30
0.0
 10
13.6867972855
 20
59.1818654625
 30
0.0
 10
13.8121933878
 20
59.3521113036
 30
0.0
 10
13.9579274811
 20
59.4956290448
 30
0.0
 10
14.0682804318
 20
59.5725879999
 30
0.0
 10
14.1256635718
 20
59.6057179755
 30
0.0
  0
SPLINE
  5
3C6
100
AcDbEntity
  8
0
100
AcDbSpline
 62
7
  6
BYLAYER
 70
0
 71
3
 72
15
 73
11
 74
0
 42
0.0000001
 43
0.0000001
 44
0.0000000001
 40
0.0
 40
0.0
 40
0.0
 40
0.0
 40
0.1141465952
 40
0.2373352439
 40
0.366975646
 40
0.4999989181
 40
0.6330223406
 40
0.7626631822
 40
0.8858525235
 40
1.0
 40
1.0
 40
1.0
 40
1.0
 10
15.8756428734
 20
52.9003859428
 30
0.0
 10
15.7062295493
 20
52.9981945584
 30
0.0
 10
15.3715850204
 20
53.2328013709
 30
0.0
 10
14.9111044608
 20
53.6635615117
 30
0.0
 10
14.4867997607
 20
54.172825782
 30
0.0
 10
14.1145521912
 20
54.7413495997
 30
0.0
 10
13.8083166927
 20
55.3479865765
 30
0.0
 10
13.5794292265
 20
55.9700782058
 30
0.0
 10
13.436615607
 20
56.584248569
 30
0.0
 10
13.4007588354
 20
56.991364983
 30
0.0
 10
13.4007588354
 20
57.1869870436
 30
0.0
  0
SPLINE
  5
3C7
100
AcDbEntity
  8
0
100
AcDbSpline
 62
7
  6
BYLAYER
 70
0
 71
3
 72
9
 73
5
 74
0
 42
0.0000001
 43
0.0000001
 44
0.0000000001
 40
0.0
 40
0.0
 40
0.0
 40
0.0
 40
0.2684411809
 40
1.0
 40
1.0
 40
1.0
 40
1.0
 10
35.6453414518
 20
15.4790855049
 30
0.0
 10
35.6461913342
 20
15.4768798878
 30
0.0
 10
35.6498846559
 20
15.4688947408
 30
0.0
 10
35.6562099535
 20
15.4619920356
 30
0.0
 10
35.661787323
 20
15.4587691973
 30
0.0
  0
SPLINE
  5
3C8
100
AcDbEntity
  8
0
100
AcDbSpline
 62
7
  6
BYLAYER
 70
0
 71
3
 72
9
 73
5
 74
0
 42
0.0000001
 43
0.0000001
 44
0.0000000001
 40
0.0
 40
0.0
 40
0.0
 40
0.0
 40
0.4668281409
 40
1.0
 40
1.0
 40
1.0
 40
1.0
 10
34.976087458
 20
69.5239015908
 30
0.0
 10
34.9660902916
 20
69.5195471668
 30
0.0
 10
34.9465806751
 20
69.5058860535
 30
0.0
 10
34.9313193382
 20
69.4879363295
 30
0.0
 10
34.9243105411
 20
69.4776417185
 30
0.0
  0
SPLINE
  5
3C9
100
AcDbEntity
  8
0
100
AcDbSpline
 62
7
  6
BYLAYER
 70
0
 71
3
 72
9
 73
5
 74
0
 42
0.0000001
 43
0.0000001
 44
0.0000000001
 40
0.0
 40
0.0
 40
0.0
 40
0.0
 40
0.7531417731
 40
1.0
 40
1.0
 40
1.0
 40
1.0
 10
34.9243105411
 20
69.4776417185
 30
0.0
 10
34.9188277735
 20
69.4695885591
 30
0.0
 10
34.9124342103
 20
69.4582461508
 30
0.0
 10
34.9073881134
 20
69.4463319004
 30
0.0
 10
34.9062330413
 20
69.443354853
 30
0.0
  0
SPLINE
  5
3CA
100
AcDbEntity
  8
0
100
AcDbSpline
 62
7
  6
BYLAYER
 70
0
 71
3
 72
9
 73
5
 74
0
 42
0.0000001
 43
0.0000001
 44
0.0000000001
 40
0.0
 40
0.0
 40
0.0
 40
0.0
 40
0.4663093904
 40
1.0
 40
1.0
 40
1.0
 40
1.0
 10
35.8820214119
 20
70.0926131425
 30
0.0
 10
35.8712190009
 20
70.0879079815
 30
0.0
 10
35.8502819529
 20
70.0727864288
 30
0.0
 10
35.8342799939
 20
70.0529225039
 30
0.0
 10
35.827072093
 20
70.041525253
 30
0.0
  0
SPLINE
  5
3CB
100
AcDbEntity
  8
0
100
AcDbSpline
 62
7
  6
BYLAYER
 70
0
 71
3
 72
9
 73
5
 74
0
 42
0.0000001
 43
0.0000001
 44
0.0000000001
 40
0.0
 40
0.0
 40
0.0
 40
0.0
 40
0.2534709888
 40
1.0
 40
1.0
 40
1.0
 40
1.0
 10
35.827072093
 20
70.041525253
 30
0.0
 10
35.8251989844
 20
70.038563463
 30
0.0
 10
35.8181750876
 20
70.0266532873
 30
0.0
 10
35.8125307327
 20
70.013912315
 30
0.0
 10
35.8093186125
 20
70.0041036623
 30
0.0
  0
SPLINE
  5
3CC
100
AcDbEntity
  8
0
100
AcDbSpline
 62
7
  6
BYLAYER
 70
0
 71
3
 72
9
 73
5
 74
0
 42
0.0000001
 43
0.0000001
 44
0.0000000001
 40
0.0
 40
0.0
 40
0.0
 40
0.0
 40
0.4660752119
 40
1.0
 40
1.0
 40
1.0
 40
1.0
 10
36.7810606615
 20
70.7483433791
 30
0.0
 10
36.7694467782
 20
70.7432847685
 30
0.0
 10
36.7471074577
 20
70.7266534426
 30
0.0
 10
36.7304360014
 20
70.7048315342
 30
0.0
 10
36.7230961889
 20
70.6923126838
 30
0.0
  0
SPLINE
  5
3CD
100
AcDbEntity
  8
0
100
AcDbSpline
 62
7
  6
BYLAYER
 70
0
 71
3
 72
9
 73
5
 74
0
 42
0.0000001
 43
0.0000001
 44
0.0000000001
 40
0.0
 40
0.0
 40
0.0
 40
0.0
 40
0.255735133
 40
1.0
 40
1.0
 40
1.0
 40
1.0
 10
36.7230961889
 20
70.6923126838
 30
0.0
 10
36.7212007632
 20
70.6890798287
 30
0.0
 10
36.7142124803
 20
70.6761988479
 30
0.0
 10
36.7088074584
 20
70.6624282757
 30
0.0
 10
36.7059972076
 20
70.6518901268
 30
0.0
  0
SPLINE
  5
3CE
100
AcDbEntity
  8
0
100
AcDbSpline
 62
7
  6
BYLAYER
 70
0
 71
3
 72
9
 73
5
 74
0
 42
0.0000001
 43
0.0000001
 44
0.0000000001
 40
0.0
 40
0.0
 40
0.0
 40
0.0
 40
0.4661253207
 40
1.0
 40
1.0
 40
1.0
 40
1.0
 10
37.666362975
 20
71.4861017977
 30
0.0
 10
37.6539318343
 20
71.4806872177
 30
0.0
 10
37.6302193313
 20
71.462500765
 30
0.0
 10
37.6129507565
 20
71.4386838567
 30
0.0
 10
37.6055505713
 20
71.4250304305
 30
0.0
  0
SPLINE
  5
3CF
100
AcDbEntity
  8
0
100
AcDbSpline
 62
7
  6
BYLAYER
 70
0
 71
3
 72
9
 73
5
 74
0
 42
0.0000001
 43
0.0000001
 44
0.0000000001
 40
0.0
 40
0.0
 40
0.0
 40
0.0
 40
0.2582694801
 40
1.0
 40
1.0
 40
1.0
 40
1.0
 10
37.6055505713
 20
71.4250304305
 30
0.0
 10
37.6036538056
 20
71.421530876
 30
0.0
 10
37.5967953909
 20
71.4077297738
 30
0.0
 10
37.5917363876
 20
71.3929838898
 30
0.0
 10
37.5894445612
 20
71.3817842002
 30
0.0
  0
SPLINE
  5
3D0
100
AcDbEntity
  8
0
100
AcDbSpline
 62
7
  6
BYLAYER
 70
0
 71
3
 72
9
 73
5
 74
0
 42
0.0000001
 43
0.0000001
 44
0.0000000001
 40
0.0
 40
0.0
 40
0.0
 40
0.0
 40
0.4598085899
 40
1.0
 40
1.0
 40
1.0
 40
1.0
 10
37.7077453388
 20
71.4866875804
 30
0.0
 10
37.7020959333
 20
71.4899493594
 30
0.0
 10
37.6874341392
 20
71.4931410122
 30
0.0
 10
37.6733892295
 20
71.489162194
 30
0.0
 10
37.666362975
 20
71.4861017977
 30
0.0
  0
SPLINE
  5
3D1
100
AcDbEntity
  8
0
100
AcDbSpline
 62
7
  6
BYLAYER
 70
0
 71
3
 72
11
 73
7
 74
0
 42
0.0000001
 43
0.0000001
 44
0.0000000001
 40
0.0
 40
0.0
 40
0.0
 40
0.0
 40
0.3015974329
 40
0.5673601454
 40
0.7955970111
 40
1.0
 40
1.0
 40
1.0
 40
1.0
 10
23.6864370252
 20
64.2489933157
 30
0.0
 10
23.6841925637
 20
64.2380509639
 30
0.0
 10
23.6817690223
 20
64.2170220314
 30
0.0
 10
23.684860102
 20
64.1874028893
 30
0.0
 10
23.6952658626
 20
64.1631609893
 30
0.0
 10
23.7073293416
 20
64.1517230385
 30
0.0
 10
23.7138876485
 20
64.147941544
 30
0.0
  0
SPLINE
  5
3D2
100
AcDbEntity
  8
0
100
AcDbSpline
 62
7
  6
BYLAYER
 70
0
 71
3
 72
15
 73
11
 74
0
 42
0.0000001
 43
0.0000001
 44
0.0000000001
 40
0.0
 40
0.0
 40
0.0
 40
0.0
 40
0.1141465952
 40
0.2373352439
 40
0.366975646
 40
0.4999989181
 40
0.6330223406
 40
0.7626631822
 40
0.8858525235
 40
1.0
 40
1.0
 40
1.0
 40
1.0
 10
15.8756428734
 20
10.6591575872
 30
0.0
 10
15.7062295493
 20
10.7569662028
 30
0.0
 10
15.3715850204
 20
10.9915730153
 30
0.0
 10
14.9111044608
 20
11.422333156
 30
0.0
 10
14.4867997607
 20
11.9315974264
 30
0.0
 10
14.1145521912
 20
12.500121244
 30
0.0
 10
13.8083166927
 20
13.1067582209
 30
0.0
 10
13.5794292265
 20
13.7288498501
 30
0.0
 10
13.436615607
 20
14.3430202134
 30
0.0
 10
13.4007588354
 20
14.7501366273
 30
0.0
 10
13.4007588354
 20
14.945758688
 30
0.0
  0
SPLINE
  5
3D3
100
AcDbEntity
  8
0
100
AcDbSpline
 62
7
  6
BYLAYER
 70
0
 71
3
 72
14
 73
10
 74
0
 42
0.0000001
 43
0.0000001
 44
0.0000000001
 40
0.0
 40
0.0
 40
0.0
 40
0.0
 40
0.2892474877
 40
0.422571007
 40
0.5485181942
 40
0.667892638
 40
0.7818650293
 40
0.8919543638
 40
1.0
 40
1.0
 40
1.0
 40
1.0
 10
13.4007588354
 20
15.7622611051
 30
0.0
 10
13.4007588354
 20
15.9396454959
 30
0.0
 10
13.4215037609
 20
16.2000602835
 30
0.0
 10
13.5015213087
 20
16.5273813237
 30
0.0
 10
13.5829837201
 20
16.7454927303
 30
0.0
 10
13.6867972855
 20
16.9406371069
 30
0.0
 10
13.8121933878
 20
17.1108829479
 30
0.0
 10
13.9579274811
 20
17.2544006892
 30
0.0
 10
14.0682804318
 20
17.3313596442
 30
0.0
 10
14.1256635718
 20
17.3644896199
 30
0.0
  0
ENDSEC
  0
SECTION
  2
OBJECTS
  0
DICTIONARY
  5
C
100
AcDbDictionary
280
0
281
1
  3
ACAD_GROUP
350
D
  3
ACAD_MLINESTYLE
350
17
  3
ACAD_LAYOUT
350
1A
  3
ACAD_PLOTSETTINGS
350
19
  3
ACAD_PLOTSTYLENAME
350
E
  0
DICTIONARY
  5
D
102
{ACAD_REACTORS
330
C
102
}
100
AcDbDictionary
280
0
281
1
  0
ACDBDICTIONARYWDFLT
  5
E
102
{ACAD_REACTORS
330
C
102
}
100
AcDbDictionary
281
1
  3
Normal
350
F
100
AcDbDictionaryWithDefault
340
F
  0
DICTIONARY
  5
17
102
{ACAD_REACTORS
330
C
102
}
100
AcDbDictionary
280
0
281
1
  3
Standard
350
18
  0
DICTIONARY
  5
19
102
{ACAD_REACTORS
330
C
102
}
100
AcDbDictionary
281
1
  0
DICTIONARY
  5
1A
102
{ACAD_REACTORS
330
C
102
}
100
AcDbDictionary
281
1
  3
Model
350
3D4
  3
Layout1
350
3D5
  0
ACDBPLACEHOLDER
  5
F
102
{ACAD_REACTORS
330
E
102
}
  0
MLINESTYLE
  5
18
102
{ACAD_REACTORS
330
17
102
}
100
AcDbMlineStyle
  2
STANDARD
 70
0
  3

 62
256
 51
90.0
 52
90.0
 71
2
 49
0.5
 62
256
  6
BYLAYER
 49
-0.5
 62
256
  6
BYLAYER
  0
LAYOUT
  5
3D4
102
{ACAD_REACTORS
330
1A
102
}
100
AcDbPlotSettings
  1

  2
none_device
  4

  6

 40
0.0
 41
0.0
 42
0.0
 43
0.0
 44
210.0
 45
297.0
 46
0.0
 47
0.0
 48
0.0
 49
0.0
140
0.0
141
0.0
142
1.0
143
1.0
 70
1024
 72
1
 73
0
 74
0
  7

 75
0
147
1.0
148
0.0
149
0.0
100
AcDbLayout
  1
Model
 70
0
 71
0
 10
0.0
 20
0.0
 11
210.0
 21
297.0
 12
0.0
 22
0.0
 32
0.0
 14
0.0
 24
0.0
 34
0.0
 15
0.0
 25
0.0
 35
0.0
146
0.0
 13
0.0
 23
0.0
 33
0.0
 16
1.0
 26
0.0
 36
0.0
 17
0.0
 27
1.0
 37
0.0
 76
0
330
210
345
0
346
0
  0
LAYOUT
  5
3D5
102
{ACAD_REACTORS
330
1A
102
}
100
AcDbPlotSettings
  1

  2
none_device
  4

  6

 40
0.0
 41
0.0
 42
0.0
 43
0.0
 44
210.0
 45
297.0
 46
0.0
 47
0.0
 48
0.0
 49
0.0
140
0.0
141
0.0
142
1.0
143
1.0
 70
0
 72
1
 73
0
 74
0
  7

 75
0
147
1.0
148
0.0
149
0.0
100
AcDbLayout
  1
Layout1
 70
0
 71
1
 10
0.0
 20
0.0
 11
210.0
 21
297.0
 12
0.0
 22
0.0
 32
0.0
 14
0.0
 24
0.0
 34
0.0
 15
0.0
 25
0.0
 35
0.0
146
0.0
 13
0.0
 23
0.0
 33
0.0
 16
1.0
 26
0.0
 36
0.0
 17
0.0
 27
1.0
 37
0.0
 76
0
330
211
345
0
346
0
  0
ENDSEC
  0
EOF
