999
DXF file: C:\Users\sesa63760\Dev\_Creo\CAD\MCADPD0004146_3D-CAD\drw0001_6.dxf
999
Pro/ENGINEER 2019471 by Parametric Technology Corporation
  0
SECTION
  2
HEADER
  9
$ACADVER
  1
AC1024
  9
$DWGCODEPAGE
  3
ANSI_1252
  9
$EXTMAX
 10
104.2851932896
 20
147.489059081
 30
0.0
  9
$EXTMIN
 10
0.0
 20
0.0
 30
0.0
  9
$LIMMIN
 10
0.0
 20
0.0
  9
$LIMMAX
 10
104.2851932896
 20
147.489059081
  9
$VIEWCTR
 10
52.1425966448
 20
73.7445295405
  9
$VIEWSIZE
 40
147.489059081
  9
$CLAYER
  8
0
  9
$LTSCALE
 40
9.614101629
  9
$CELTYPE
  6
BYLAYER
  9
$DIMSCALE
 40
1.0
  9
$DIMASZ
 40
1.2414903963
  9
$DIMEXO
 40
1.0
  9
$DIMDLI
 40
6.6424702164
  9
$DIMEXE
 40
1.0
  9
$DIMCEN
 40
1.5732166302
  9
$DIMLFAC
 40
1.0
  9
$DIMBLK
  1
_FILLED
  9
$DIMALT
 70
0
  9
$DIMALTF
 40
0.0393700787
  9
$DIMTXT
 40
1.7380865548
  9
$DIMTOL
 70
1
  9
$DIMLIM
 70
0
  9
$DIMTFAC
 40
1.0
  9
$DIMTP
 40
0.01
  9
$DIMTM
 40
0.01
  9
$DIMGAP
 40
0.625
  9
$DIMDSEP
 70
46
  9
$AUNITS
 70
0
  9
$PDMODE
 70
3
  9
$PDSIZE
 40
0.3125
  9
$HANDSEED
  5
2B4
  9
$TILEMODE
 70
1
  9
$MEASUREMENT
 70
1
  9
$INSUNITS
 70
4
  0
ENDSEC
  0
SECTION
  2
CLASSES
  0
CLASS
  1
ACDBDICTIONARYWDFLT
  2
AcDbDictionaryWithDefault
  3
AutoCAD 2000
 90
0
 91
1
280
0
281
0
  0
CLASS
  1
ACDBPLACEHOLDER
  2
AcDbPlaceHolder
  3
AutoCAD 2000
 90
0
 91
1
280
0
281
0
  0
CLASS
  1
LAYOUT
  2
AcDbLayout
  3
AutoCAD 2000
 90
0
 91
0
280
0
281
0
  0
ENDSEC
  0
SECTION
  2
TABLES
  0
TABLE
  2
VPORT
  5
8
100
AcDbSymbolTable
 70
2
  0
VPORT
  5
1F4
100
AcDbSymbolTableRecord
100
AcDbViewportTableRecord
  2
*ACTIVE
 70
0
 10
0.0
 20
0.0
 11
1.0
 21
1.0
 12
52.1425966448
 22
73.7445295405
 13
0.0
 23
0.0
 14
1.0
 24
1.0
 15
0.0
 25
0.0
 16
0.0
 26
0.0
 36
1.0
 17
0.0
 27
0.0
 37
0.0
 40
147.489059081
 41
0.7070707071
 42
50.0
 43
0.0
 44
0.0
 50
0.0
 51
0.0
 71
0
 72
100
 73
1
 74
1
 75
0
 76
0
 77
0
 78
0
  0
ENDTAB
  0
TABLE
  2
LTYPE
  5
5
100
AcDbSymbolTable
 70
6
  0
LTYPE
  5
14
100
AcDbSymbolTableRecord
100
AcDbLinetypeTableRecord
  2
BYBLOCK
 70
0
  3

 72
65
 73
0
 40
0.0
  0
LTYPE
  5
15
100
AcDbSymbolTableRecord
100
AcDbLinetypeTableRecord
  2
BYLAYER
 70
0
  3

 72
65
 73
0
 40
0.0
  0
LTYPE
  5
16
100
AcDbSymbolTableRecord
100
AcDbLinetypeTableRecord
  2
CONTINUOUS
 70
64
  3
Solid line
 72
65
 73
0
 40
0.0
  0
LTYPE
  5
1F5
100
AcDbSymbolTableRecord
100
AcDbLinetypeTableRecord
  2
CENTER
 70
64
  3
____ _ ____ _ ____ _ ____ _ ____ _ ____ _ ____
 72
65
 73
4
 40
0.6
 49
0.375
 74
0
 49
-0.075
 74
0
 49
0.075
 74
0
 49
-0.075
 74
0
  0
LTYPE
  5
1F6
100
AcDbSymbolTableRecord
100
AcDbLinetypeTableRecord
  2
HIDDEN
 70
64
  3
- - - - - - - - - - - - - - - - - - - -
 72
65
 73
2
 40
0.2
 49
0.1
 74
0
 49
-0.1
 74
0
  0
LTYPE
  5
1F7
100
AcDbSymbolTableRecord
100
AcDbLinetypeTableRecord
  2
PHANTOM
 70
64
  3
_____ _ _ _____ _ _ _____ _ _ _____
 72
65
 73
6
 40
0.8
 49
0.45
 74
0
 49
-0.05
 74
0
 49
0.1
 74
0
 49
-0.05
 74
0
 49
0.1
 74
0
 49
-0.05
 74
0
  0
LTYPE
  5
1F8
100
AcDbSymbolTableRecord
100
AcDbLinetypeTableRecord
  2
DOT
 70
64
  3
. . . . . . . . . . . . . . . . . . . .
 72
65
 73
2
 40
0.2
 49
0.1
 74
0
 49
-0.1
 74
0
  0
LTYPE
  5
1F9
100
AcDbSymbolTableRecord
100
AcDbLinetypeTableRecord
  2
DASHED
 70
64
  3
- - - - - - - - - - - - - - - - - - - -
 72
65
 73
2
 40
0.2
 49
0.1
 74
0
 49
-0.1
 74
0
  0
ENDTAB
  0
TABLE
  2
LAYER
  5
2
100
AcDbSymbolTable
 70
36
  0
LAYER
  5
10
100
AcDbSymbolTableRecord
100
AcDbLayerTableRecord
  2
0
 70
0
 62
7
  6
CONTINUOUS
370
-3
390
F
  0
LAYER
  5
1FA
100
AcDbSymbolTableRecord
100
AcDbLayerTableRecord
  2
DEFAULT_1
 70
0
 62
7
  6
CENTER
370
-3
390
F
  0
LAYER
  5
1FB
100
AcDbSymbolTableRecord
100
AcDbLayerTableRecord
  2
DEFAULT_2
 70
0
 62
7
  6
HIDDEN
370
-3
390
F
  0
LAYER
  5
1FC
100
AcDbSymbolTableRecord
100
AcDbLayerTableRecord
  2
DEFAULT_3
 70
0
 62
7
  6
PHANTOM
370
-3
390
F
  0
LAYER
  5
1FD
100
AcDbSymbolTableRecord
100
AcDbLayerTableRecord
  2
00_COMPONENTS
 70
0
 62
7
  6
CONTINUOUS
370
-3
390
F
  0
LAYER
  5
1FE
100
AcDbSymbolTableRecord
100
AcDbLayerTableRecord
  2
01_1_DEFAULT_DATUMS
 70
0
 62
7
  6
CONTINUOUS
370
-3
390
F
  0
LAYER
  5
1FF
100
AcDbSymbolTableRecord
100
AcDbLayerTableRecord
  2
01_PLANES
 70
0
 62
7
  6
CONTINUOUS
370
-3
390
F
  0
LAYER
  5
200
100
AcDbSymbolTableRecord
100
AcDbLayerTableRecord
  2
02_COORD_SYS
 70
0
 62
7
  6
CONTINUOUS
370
-3
390
F
  0
LAYER
  5
201
100
AcDbSymbolTableRecord
100
AcDbLayerTableRecord
  2
03_AXES
 70
0
 62
7
  6
CONTINUOUS
370
-3
390
F
  0
LAYER
  5
202
100
AcDbSymbolTableRecord
100
AcDbLayerTableRecord
  2
04_POINTS
 70
0
 62
7
  6
CONTINUOUS
370
-3
390
F
  0
LAYER
  5
203
100
AcDbSymbolTableRecord
100
AcDbLayerTableRecord
  2
05_CURVES
 70
0
 62
7
  6
CONTINUOUS
370
-3
390
F
  0
LAYER
  5
204
100
AcDbSymbolTableRecord
100
AcDbLayerTableRecord
  2
06_SURFS
 70
0
 62
7
  6
CONTINUOUS
370
-3
390
F
  0
LAYER
  5
205
100
AcDbSymbolTableRecord
100
AcDbLayerTableRecord
  2
07_COSMETICS
 70
0
 62
7
  6
CONTINUOUS
370
-3
390
F
  0
LAYER
  5
206
100
AcDbSymbolTableRecord
100
AcDbLayerTableRecord
  2
10_NOTES
 70
0
 62
7
  6
CONTINUOUS
370
-3
390
F
  0
LAYER
  5
207
100
AcDbSymbolTableRecord
100
AcDbLayerTableRecord
  2
11_NOTES_PUB
 70
0
 62
7
  6
CONTINUOUS
370
-3
390
F
  0
LAYER
  5
208
100
AcDbSymbolTableRecord
100
AcDbLayerTableRecord
  2
13_REF_GTOL
 70
0
 62
7
  6
CONTINUOUS
370
-3
390
F
  0
LAYER
  5
209
100
AcDbSymbolTableRecord
100
AcDbLayerTableRecord
  2
16_MISC
 70
0
 62
7
  6
CONTINUOUS
370
-3
390
F
  0
LAYER
  5
20A
100
AcDbSymbolTableRecord
100
AcDbLayerTableRecord
  2
17_NO_PRINT
 70
0
 62
7
  6
CONTINUOUS
370
-3
390
F
  0
LAYER
  5
20B
100
AcDbSymbolTableRecord
100
AcDbLayerTableRecord
  2
18_DATUM_CAMS_JOINTS
 70
0
 62
7
  6
CONTINUOUS
370
-3
390
F
  0
LAYER
  5
20C
100
AcDbSymbolTableRecord
100
AcDbLayerTableRecord
  2
19_DATUM_FUNCTIONAL
 70
0
 62
7
  6
CONTINUOUS
370
-3
390
F
  0
LAYER
  5
20D
100
AcDbSymbolTableRecord
100
AcDbLayerTableRecord
  2
20_DATUM_KINEMATIC_SCHEME
 70
0
 62
7
  6
CONTINUOUS
370
-3
390
F
  0
ENDTAB
  0
TABLE
  2
STYLE
  5
3
100
AcDbSymbolTable
 70
1
  0
STYLE
  5
11
100
AcDbSymbolTableRecord
100
AcDbTextStyleTableRecord
  2
STANDARD
 70
0
 40
0.0
 41
1.0
 50
0.0
 71
0
 42
0.2
  3
ARIAL.TTF
  4

  0
STYLE
  5
20E
100
AcDbSymbolTableRecord
100
AcDbTextStyleTableRecord
  2
TEXTSTYLE_1
 70
0
 40
0.0
 41
0.8
 50
0.0
 71
0
 42
0.2
  3
gdt
  4

  0
ENDTAB
  0
TABLE
  2
VIEW
  5
6
100
AcDbSymbolTable
 70
0
  0
ENDTAB
  0
TABLE
  2
UCS
  5
7
100
AcDbSymbolTable
 70
0
  0
ENDTAB
  0
TABLE
  2
APPID
  5
9
100
AcDbSymbolTable
 70
1
  0
APPID
  5
20F
100
AcDbSymbolTableRecord
100
AcDbRegAppTableRecord
  2
ACAD
 70
0
  0
ENDTAB
  0
TABLE
  2
BLOCK_RECORD
  5
1
100
AcDbSymbolTable
 70
0
  0
BLOCK_RECORD
  5
210
100
AcDbSymbolTableRecord
100
AcDbBlockTableRecord
  2
*Model_Space
  0
BLOCK_RECORD
  5
211
100
AcDbSymbolTableRecord
100
AcDbBlockTableRecord
  2
*Paper_Space
  0
BLOCK_RECORD
  5
212
100
AcDbSymbolTableRecord
100
AcDbBlockTableRecord
  2
_FILLED
  0
ENDTAB
  0
TABLE
  2
DIMSTYLE
  5
A
100
AcDbSymbolTable
 70
1
100
AcDbDimStyleTable
 71
0
  0
DIMSTYLE
105
213
100
AcDbSymbolTableRecord
100
AcDbDimStyleTableRecord
  2
STANDARD
 70
0
  3

  4

 40
1.0
 41
1.2414903963
 42
1.0
 43
0.38
 44
1.0
 45
0.0
 46
0.0
 47
0.01
 48
0.01
140
1.7380865548
141
0.09
142
0.0
143
25.4
144
1.0
145
0.0
146
1.0
147
0.625
 71
1
 72
0
 73
0
 74
0
 75
0
 76
0
 77
1
 78
8
 79
2
170
0
171
1
172
0
173
0
174
0
175
0
176
0
177
0
178
0
270
2
179
2
271
2
272
2
273
2
274
2
275
0
280
0
281
0
282
0
283
1
284
8
285
0
286
0
287
3
288
0
340
11
278
46
341
212
342
212
343
212
344
212
  0
ENDTAB
  0
ENDSEC
  0
SECTION
  2
BLOCKS
  0
BLOCK
  5
20
100
AcDbEntity
  8
0
100
AcDbBlockBegin
  2
*Model_Space
 70
0
 10
0.0
 20
0.0
 30
0.0
  3
*Model_Space
  1

  0
ENDBLK
  5
21
100
AcDbEntity
  8
0
100
AcDbBlockEnd
  0
BLOCK
  5
1C
100
AcDbEntity
  8
0
100
AcDbBlockBegin
  2
*Paper_Space
 70
0
 10
0.0
 20
0.0
 30
0.0
  3
*Paper_Space
  1

  0
ENDBLK
  5
1D
100
AcDbEntity
  8
0
100
AcDbBlockEnd
  0
BLOCK
  5
214
100
AcDbEntity
  8
0
100
AcDbBlockBegin
  2
_FILLED
 70
64
 10
0.0
 20
0.0
  3
_FILLED
  1

  0
SOLID
  5
215
100
AcDbEntity
  8
0
  6
BYBLOCK
 62
0
100
AcDbTrace
 10
0.0
 20
0.0
 11
-1.0
 21
0.25
 12
-1.0
 22
-0.25
 13
-1.0
 23
-0.25
  0
ENDBLK
  5
216
100
AcDbEntity
  8
0
  6
BYBLOCK
 62
0
100
AcDbBlockEnd
  0
ENDSEC
  0
SECTION
  2
ENTITIES
  0
LINE
  5
217
100
AcDbEntity
  8
0
100
AcDbLine
 62
7
  6
BYLAYER
 10
22.3946025064
 20
118.0939839766
 11
32.3952224654
 21
126.8945295405
  0
LINE
  5
218
100
AcDbEntity
  8
0
100
AcDbLine
 62
7
  6
BYLAYER
 10
18.6952224654
 20
20.5945295405
 11
26.6952224654
 21
20.5945295405
  0
LINE
  5
219
100
AcDbEntity
  8
0
100
AcDbLine
 62
7
  6
BYLAYER
 10
48.7952224654
 20
20.5945295405
 11
57.2952224654
 21
20.5945295405
  0
LINE
  5
21A
100
AcDbEntity
  8
0
100
AcDbLine
 62
7
  6
BYLAYER
 10
78.1952224654
 20
20.5945295405
 11
86.1952224654
 21
20.5945295405
  0
LINE
  5
21B
100
AcDbEntity
  8
0
100
AcDbLine
 62
7
  6
BYLAYER
 10
14.0952224654
 20
21.5945295405
 11
91.9952224654
 21
21.5945295405
  0
LINE
  5
21C
100
AcDbEntity
  8
0
100
AcDbLine
 62
7
  6
BYLAYER
 10
11.7952224654
 20
57.6945295405
 11
11.7952224654
 21
68.1945295405
  0
LINE
  5
21D
100
AcDbEntity
  8
0
100
AcDbLine
 62
7
  6
BYLAYER
 10
11.7952224654
 20
57.6945295405
 11
14.0649100323
 21
54.7340674967
  0
LINE
  5
21E
100
AcDbEntity
  8
0
100
AcDbLine
 62
7
  6
BYLAYER
 10
14.0952224654
 20
21.5945295405
 11
14.0952224654
 21
54.7573070287
  0
LINE
  5
21F
100
AcDbEntity
  8
0
100
AcDbLine
 62
7
  6
BYLAYER
 10
14.0952224654
 20
72.3661943351
 11
14.0952224654
 21
90.5943701187
  0
LINE
  5
220
100
AcDbEntity
  8
0
100
AcDbLine
 62
7
  6
BYLAYER
 10
15.0952224654
 20
91.5945295405
 11
15.0952224654
 21
87.3785830528
  0
LINE
  5
221
100
AcDbEntity
  8
0
100
AcDbLine
 62
7
  6
BYLAYER
 10
17.0952224654
 20
86.8679884048
 11
17.0952224654
 21
98.0945295405
  0
LINE
  5
222
100
AcDbEntity
  8
0
100
AcDbLine
 62
7
  6
BYLAYER
 10
22.67178119
 20
54.6945295405
 11
20.4798102978
 21
57.5536220086
  0
LINE
  5
223
100
AcDbEntity
  8
0
100
AcDbLine
 62
7
  6
BYLAYER
 10
18.6952224654
 20
20.5945295405
 11
18.6952224654
 21
21.5945295405
  0
LINE
  5
224
100
AcDbEntity
  8
0
100
AcDbLine
 62
7
  6
BYLAYER
 10
21.0952224654
 20
54.8441290771
 11
21.0952224654
 21
21.5945295405
  0
LINE
  5
225
100
AcDbEntity
  8
0
100
AcDbLine
 62
7
  6
BYLAYER
 10
21.0952224654
 20
72.2246124305
 11
21.0952224654
 21
99.0945295405
  0
LINE
  5
226
100
AcDbEntity
  8
0
100
AcDbLine
 62
7
  6
BYLAYER
 10
21.7952224654
 20
68.1945295405
 11
21.7952224654
 21
57.6945295405
  0
LINE
  5
227
100
AcDbEntity
  8
0
100
AcDbLine
 62
7
  6
BYLAYER
 10
14.0952224654
 20
72.6945295405
 11
11.7952224654
 21
68.1945295405
  0
LINE
  5
228
100
AcDbEntity
  8
0
100
AcDbLine
 62
7
  6
BYLAYER
 10
22.3952224654
 20
99.0945295405
 11
22.3952224654
 21
118.0945295405
  0
LINE
  5
229
100
AcDbEntity
  8
0
100
AcDbLine
 62
7
  6
BYLAYER
 10
22.5806916736
 20
118.2577424437
 11
22.5806916736
 21
114.0945295405
  0
LINE
  5
22A
100
AcDbEntity
  8
0
100
AcDbLine
 62
7
  6
BYLAYER
 10
26.6952224654
 20
20.5945295405
 11
26.6952224654
 21
21.5945295405
  0
LINE
  5
22B
100
AcDbEntity
  8
0
100
AcDbLine
 62
7
  6
BYLAYER
 10
28.3300286605
 20
106.7945295405
 11
28.3300286605
 21
99.0945295405
  0
LINE
  5
22C
100
AcDbEntity
  8
0
100
AcDbLine
 62
7
  6
BYLAYER
 10
21.1113833258
 20
68.2514708328
 11
23.3822799985
 21
72.6945295405
  0
LINE
  5
22D
100
AcDbEntity
  8
0
100
AcDbLine
 62
7
  6
BYLAYER
 10
31.3172270363
 20
99.0945295405
 11
31.3172270392
 21
106.7945296368
  0
LINE
  5
22E
100
AcDbEntity
  8
0
100
AcDbLine
 62
7
  6
BYLAYER
 10
34.9702174481
 20
99.0945295405
 11
34.9702174481
 21
106.7945295405
  0
LINE
  5
22F
100
AcDbEntity
  8
0
100
AcDbLine
 62
7
  6
BYLAYER
 10
49.335820646
 20
53.1945295405
 11
58.0602318521
 21
53.1945295405
  0
LINE
  5
230
100
AcDbEntity
  8
0
100
AcDbLine
 62
7
  6
BYLAYER
 10
83.4186637407
 20
54.6945295405
 11
80.5137467167
 21
54.6945295405
  0
LINE
  5
231
100
AcDbEntity
  8
0
100
AcDbLine
 62
7
  6
BYLAYER
 10
24.1041169889
 20
54.6945295405
 11
22.67178119
 21
54.6945295405
  0
LINE
  5
232
100
AcDbEntity
  8
0
100
AcDbLine
 62
7
  6
BYLAYER
 10
38.3952224654
 20
102.4679480792
 11
38.3952224654
 21
59.4313196146
  0
LINE
  5
233
100
AcDbEntity
  8
0
100
AcDbLine
 62
7
  6
BYLAYER
 10
38.8952224654
 20
99.0945295405
 11
38.8952224654
 21
96.7189897965
  0
LINE
  5
234
100
AcDbEntity
  8
0
100
AcDbLine
 62
7
  6
BYLAYER
 10
39.3952224654
 20
103.3274020116
 11
39.3952224654
 21
99.0945295405
  0
LINE
  5
235
100
AcDbEntity
  8
0
100
AcDbLine
 62
7
  6
BYLAYER
 10
39.3952224654
 20
95.7185410566
 11
39.3952224654
 21
59.2611878738
  0
LINE
  5
236
100
AcDbEntity
  8
0
100
AcDbLine
 62
7
  6
BYLAYER
 10
84.2952224654
 20
57.6945295405
 11
75.3357800919
 21
57.6945295405
  0
LINE
  5
237
100
AcDbEntity
  8
0
100
AcDbLine
 62
7
  6
BYLAYER
 10
28.2356130001
 20
57.6945295405
 11
21.7952224654
 21
57.6945295405
  0
LINE
  5
238
100
AcDbEntity
  8
0
100
AcDbLine
 62
7
  6
BYLAYER
 10
48.7952224654
 20
20.5945295405
 11
48.7952224654
 21
21.5945295405
  0
LINE
  5
239
100
AcDbEntity
  8
0
100
AcDbLine
 62
7
  6
BYLAYER
 10
21.7952224654
 20
68.1945295405
 11
38.3952224654
 21
68.1945295405
  0
LINE
  5
23A
100
AcDbEntity
  8
0
100
AcDbLine
 62
7
  6
BYLAYER
 10
67.6952224654
 20
68.1945295405
 11
84.2952224654
 21
68.1945295405
  0
LINE
  5
23B
100
AcDbEntity
  8
0
100
AcDbLine
 62
7
  6
BYLAYER
 10
23.3822799985
 20
72.6945295405
 11
38.3952224654
 21
72.6945295405
  0
LINE
  5
23C
100
AcDbEntity
  8
0
100
AcDbLine
 62
7
  6
BYLAYER
 10
67.6952224654
 20
72.6945295405
 11
82.7081649322
 21
72.6945295405
  0
LINE
  5
23D
100
AcDbEntity
  8
0
100
AcDbLine
 62
7
  6
BYLAYER
 10
57.2952224654
 20
20.5945295405
 11
57.2952224654
 21
21.5945295405
  0
LINE
  5
23E
100
AcDbEntity
  8
0
100
AcDbLine
 62
7
  6
BYLAYER
 10
67.1808806343
 20
96.6898489196
 11
66.6952260596
 21
95.7185392595
  0
LINE
  5
23F
100
AcDbEntity
  8
0
100
AcDbLine
 62
7
  6
BYLAYER
 10
66.6952224654
 20
58.2398962668
 11
66.6952224654
 21
95.7185410566
  0
LINE
  5
240
100
AcDbEntity
  8
0
100
AcDbLine
 62
7
  6
BYLAYER
 10
66.6952224654
 20
99.0945295405
 11
66.6952224654
 21
103.7897001708
  0
LINE
  5
241
100
AcDbEntity
  8
0
100
AcDbLine
 62
7
  6
BYLAYER
 10
38.4239162667
 20
96.2041941691
 11
39.3952224654
 21
95.7185410566
  0
LINE
  5
242
100
AcDbEntity
  8
0
100
AcDbLine
 62
7
  6
BYLAYER
 10
67.1952224654
 20
96.718985735
 11
67.1952224654
 21
99.0945295405
  0
LINE
  5
243
100
AcDbEntity
  8
0
100
AcDbLine
 62
7
  6
BYLAYER
 10
67.6952224654
 20
58.4210105138
 11
67.6952224654
 21
102.9623210455
  0
LINE
  5
244
100
AcDbEntity
  8
0
100
AcDbLine
 62
7
  6
BYLAYER
 10
70.7952224654
 20
106.7945295405
 11
70.7952224654
 21
99.0945295405
  0
LINE
  5
245
100
AcDbEntity
  8
0
100
AcDbLine
 62
7
  6
BYLAYER
 10
15.0952224654
 20
91.5945295405
 11
17.0952224654
 21
91.5945295405
  0
LINE
  5
246
100
AcDbEntity
  8
0
100
AcDbLine
 62
7
  6
BYLAYER
 10
88.9952224654
 20
91.5945295405
 11
90.9952224654
 21
91.5945295405
  0
LINE
  5
247
100
AcDbEntity
  8
0
100
AcDbLine
 62
7
  6
BYLAYER
 10
73.9099241097
 20
99.0945295405
 11
73.9099241097
 21
106.7945295405
  0
LINE
  5
248
100
AcDbEntity
  8
0
100
AcDbLine
 62
7
  6
BYLAYER
 10
74.2097532571
 20
114.0945295405
 11
74.2097532571
 21
118.1733676308
  0
LINE
  5
249
100
AcDbEntity
  8
0
100
AcDbLine
 62
7
  6
BYLAYER
 10
74.3952224654
 20
99.0945295405
 11
74.3952224654
 21
118.0945295405
  0
LINE
  5
24A
100
AcDbEntity
  8
0
100
AcDbLine
 62
7
  6
BYLAYER
 10
66.6952224654
 20
95.7185410566
 11
39.3952224654
 21
95.7185410566
  0
LINE
  5
24B
100
AcDbEntity
  8
0
100
AcDbLine
 62
7
  6
BYLAYER
 10
67.1808634505
 20
96.6898413345
 11
38.9095752402
 21
96.6898413345
  0
LINE
  5
24C
100
AcDbEntity
  8
0
100
AcDbLine
 62
7
  6
BYLAYER
 10
78.1952224654
 20
20.5945295405
 11
78.1952224654
 21
21.5945295405
  0
LINE
  5
24D
100
AcDbEntity
  8
0
100
AcDbLine
 62
7
  6
BYLAYER
 10
88.9952224654
 20
98.0945295405
 11
67.6952224654
 21
98.0945295405
  0
LINE
  5
24E
100
AcDbEntity
  8
0
100
AcDbLine
 62
7
  6
BYLAYER
 10
38.3952224654
 20
98.0945295405
 11
17.0952224654
 21
98.0945295405
  0
LINE
  5
24F
100
AcDbEntity
  8
0
100
AcDbLine
 62
7
  6
BYLAYER
 10
18.0952224654
 20
99.0945295405
 11
39.3952224654
 21
99.0945295405
  0
LINE
  5
250
100
AcDbEntity
  8
0
100
AcDbLine
 62
7
  6
BYLAYER
 10
66.6952224654
 20
99.0945295405
 11
87.9952224654
 21
99.0945295405
  0
LINE
  5
251
100
AcDbEntity
  8
0
100
AcDbLine
 62
7
  6
BYLAYER
 10
82.7081649322
 20
72.6945295405
 11
84.979061605
 21
68.2514708328
  0
LINE
  5
252
100
AcDbEntity
  8
0
100
AcDbLine
 62
7
  6
BYLAYER
 10
84.2952224654
 20
57.6945295405
 11
84.2952224654
 21
68.1945295405
  0
LINE
  5
253
100
AcDbEntity
  8
0
100
AcDbLine
 62
7
  6
BYLAYER
 10
84.9952224654
 20
21.5945295405
 11
84.9952224654
 21
54.8441290771
  0
LINE
  5
254
100
AcDbEntity
  8
0
100
AcDbLine
 62
7
  6
BYLAYER
 10
84.9952224654
 20
72.2246124305
 11
84.9952224654
 21
99.0945295405
  0
LINE
  5
255
100
AcDbEntity
  8
0
100
AcDbLine
 62
7
  6
BYLAYER
 10
66.6952224654
 20
103.7897001708
 11
66.7978304614
 21
103.8019062169
  0
LINE
  5
256
100
AcDbEntity
  8
0
100
AcDbLine
 62
7
  6
BYLAYER
 10
66.7979499562
 20
103.8018895703
 11
61.5687645139
 21
103.5037618563
  0
LINE
  5
257
100
AcDbEntity
  8
0
100
AcDbLine
 62
7
  6
BYLAYER
 10
61.749321171
 20
103.5100410773
 11
54.1286244992
 21
103.2450160212
  0
LWPOLYLINE
  5
258
100
AcDbEntity
  8
0
100
AcDbPolyline
 62
7
  6
BYLAYER
 90
3
 70
0
 10
54.1286294143
 20
103.2450161241
 10
45.996543147
 20
103.1955440041
 10
39.2924389929
 20
103.3361052939
  0
LINE
  5
259
100
AcDbEntity
  8
0
100
AcDbLine
 62
7
  6
BYLAYER
 10
34.9702174481
 20
102.8945295405
 11
31.3172270363
 21
102.8945295405
  0
LINE
  5
25A
100
AcDbEntity
  8
0
100
AcDbLine
 62
7
  6
BYLAYER
 10
46.128375178
 20
103.1963460135
 11
39.3952224654
 21
103.3274020116
  0
LINE
  5
25B
100
AcDbEntity
  8
0
100
AcDbLine
 62
7
  6
BYLAYER
 10
39.3952224654
 20
103.3273892427
 11
39.2926998451
 21
103.3361504246
  0
LINE
  5
25C
100
AcDbEntity
  8
0
100
AcDbLine
 62
7
  6
BYLAYER
 10
54.1495291328
 20
103.2401322009
 11
54.1286244992
 21
103.2450160212
  0
LINE
  5
25D
100
AcDbEntity
  8
0
100
AcDbLine
 62
7
  6
BYLAYER
 10
86.1952224654
 20
20.5945295405
 11
86.1952224654
 21
21.5945295405
  0
LINE
  5
25E
100
AcDbEntity
  8
0
100
AcDbLine
 62
7
  6
BYLAYER
 10
88.9952224654
 20
98.0945295405
 11
88.9952224654
 21
86.8679884048
  0
LINE
  5
25F
100
AcDbEntity
  8
0
100
AcDbLine
 62
7
  6
BYLAYER
 10
85.6106346329
 20
57.5536220086
 11
83.4186637407
 21
54.6945295405
  0
LINE
  5
260
100
AcDbEntity
  8
0
100
AcDbLine
 62
7
  6
BYLAYER
 10
70.7952224658
 20
106.7945292646
 11
73.9099241097
 21
106.7945295405
  0
LINE
  5
261
100
AcDbEntity
  8
0
100
AcDbLine
 62
7
  6
BYLAYER
 10
31.3172270392
 20
106.7945296368
 11
28.3300286605
 21
106.7945295405
  0
LINE
  5
262
100
AcDbEntity
  8
0
100
AcDbLine
 62
7
  6
BYLAYER
 10
94.2952224654
 20
68.1945295405
 11
91.9952224654
 21
72.6945295405
  0
LINE
  5
263
100
AcDbEntity
  8
0
100
AcDbLine
 62
7
  6
BYLAYER
 10
90.9952224654
 20
87.3783925955
 11
90.9952224654
 21
91.5945295405
  0
LINE
  5
264
100
AcDbEntity
  8
0
100
AcDbLine
 62
7
  6
BYLAYER
 10
91.9952224654
 20
90.5945295405
 11
91.9952224654
 21
72.3661943351
  0
LINE
  5
265
100
AcDbEntity
  8
0
100
AcDbLine
 62
7
  6
BYLAYER
 10
91.9952224654
 20
54.7573070287
 11
91.9952224654
 21
21.5945295405
  0
LINE
  5
266
100
AcDbEntity
  8
0
100
AcDbLine
 62
7
  6
BYLAYER
 10
74.2097532571
 20
114.0945295405
 11
22.5806916736
 21
114.0945295405
  0
LINE
  5
267
100
AcDbEntity
  8
0
100
AcDbLine
 62
7
  6
BYLAYER
 10
94.2952224654
 20
68.1945295405
 11
94.2952224654
 21
57.6945295405
  0
LINE
  5
268
100
AcDbEntity
  8
0
100
AcDbLine
 62
7
  6
BYLAYER
 10
92.0255348984
 20
54.7340674967
 11
94.2952224654
 21
57.6945295405
  0
LINE
  5
269
100
AcDbEntity
  8
0
100
AcDbLine
 62
7
  6
BYLAYER
 10
73.2022779134
 20
115.0945295405
 11
23.5881670174
 21
115.0945295405
  0
ARC
  5
26A
100
AcDbEntity
  8
0
100
AcDbCircle
 62
7
  6
BYLAYER
 10
48.3681897299
 20
378.5436789227
 40
275.3642792892
100
AcDbArc
 50
271.2030282623
 51
272.7581266896
  0
ARC
  5
26B
100
AcDbEntity
  8
0
100
AcDbCircle
 62
7
  6
BYLAYER
 10
48.3943454293
 20
377.6604434929
 40
274.480689506
100
AcDbArc
 50
269.5257656867
 51
271.2014405304
  0
ARC
  5
26C
100
AcDbEntity
  8
0
100
AcDbCircle
 62
7
  6
BYLAYER
 10
31.2707125184
 20
16.9002775208
 40
110.0
100
AcDbArc
 50
66.9184732062
 51
89.4142654886
  0
ARC
  5
26D
100
AcDbEntity
  8
0
100
AcDbCircle
 62
7
  6
BYLAYER
 10
36.0452224654
 20
42.5945295405
 40
17.0
100
AcDbArc
 50
38.5743314045
 51
134.6213213641
  0
ARC
  5
26E
100
AcDbEntity
  8
0
100
AcDbCircle
 62
7
  6
BYLAYER
 10
70.0452224654
 20
42.5945295405
 40
16.0
100
AcDbArc
 50
49.1347121974
 51
138.5091831443
  0
CIRCLE
  5
26F
100
AcDbEntity
  8
0
100
AcDbCircle
 62
7
  6
BYLAYER
 10
70.0452224654
 20
42.5945295405
 40
10.0
  0
CIRCLE
  5
270
100
AcDbEntity
  8
0
100
AcDbCircle
 62
7
  6
BYLAYER
 10
36.0452224654
 20
42.5945295405
 40
10.0
  0
CIRCLE
  5
271
100
AcDbEntity
  8
0
100
AcDbCircle
 62
7
  6
BYLAYER
 10
36.0452224654
 20
42.5945295405
 40
8.5
  0
CIRCLE
  5
272
100
AcDbEntity
  8
0
100
AcDbCircle
 62
7
  6
BYLAYER
 10
70.0452224654
 20
42.5945295405
 40
8.5
  0
ARC
  5
273
100
AcDbEntity
  8
0
100
AcDbCircle
 62
7
  6
BYLAYER
 10
15.0952224654
 20
90.5945295405
 40
1.0
100
AcDbArc
 50
90.0
 51
180.0
  0
ARC
  5
274
100
AcDbEntity
  8
0
100
AcDbCircle
 62
7
  6
BYLAYER
 10
90.9952224654
 20
90.5945295405
 40
1.0
100
AcDbArc
 50
0.0
 51
90.0
  0
ARC
  5
275
100
AcDbEntity
  8
0
100
AcDbCircle
 62
7
  6
BYLAYER
 10
87.9952224654
 20
98.0945295405
 40
1.0
100
AcDbArc
 50
0.0
 51
90.0
  0
ARC
  5
276
100
AcDbEntity
  8
0
100
AcDbCircle
 62
7
  6
BYLAYER
 10
18.0952224654
 20
98.0945295405
 40
1.0
100
AcDbArc
 50
90.0
 51
180.0
  0
SPLINE
  5
277
100
AcDbEntity
  8
0
100
AcDbSpline
 62
7
  6
BYLAYER
 70
0
 71
3
 72
12
 73
8
 74
0
 42
0.0000001
 43
0.0000001
 44
0.0000000001
 40
0.0
 40
0.0
 40
0.0
 40
0.0
 40
0.1940992419
 40
0.3941770853
 40
0.6303687569
 40
0.7883204361
 40
1.0
 40
1.0
 40
1.0
 40
1.0
 10
66.7979500299
 20
103.8018918843
 30
0.0
 10
66.8872088057
 20
103.807871665
 30
0.0
 10
67.0714242819
 20
103.7953150551
 30
0.0
 10
67.3458439753
 20
103.6846086015
 30
0.0
 10
67.5479714344
 20
103.4864312676
 30
0.0
 10
67.669546886
 20
103.2319911574
 30
0.0
 10
67.6952224654
 20
103.0598825369
 30
0.0
 10
67.6952224654
 20
102.9623210455
 30
0.0
  0
SPLINE
  5
278
100
AcDbEntity
  8
0
100
AcDbSpline
 62
7
  6
BYLAYER
 70
0
 71
3
 72
13
 73
9
 74
0
 42
0.0000001
 43
0.0000001
 44
0.0000000001
 40
0.0
 40
0.0
 40
0.0
 40
0.0
 40
0.2076052235
 40
0.4236306792
 40
0.542681987
 40
0.6752046481
 40
0.8273122504
 40
1.0
 40
1.0
 40
1.0
 40
1.0
 10
39.2924342243
 20
103.3361085112
 30
0.0
 10
39.1958003149
 20
103.3393206238
 30
0.0
 10
38.9961365879
 20
103.316778953
 30
0.0
 10
38.7635556205
 20
103.2036172708
 30
0.0
 10
38.6019137208
 20
103.0556508583
 30
0.0
 10
38.4927014223
 20
102.9005835723
 30
0.0
 10
38.4138452619
 20
102.7004986109
 30
0.0
 10
38.3952224654
 20
102.5483733619
 30
0.0
 10
38.3952224654
 20
102.4679480792
 30
0.0
  0
SPLINE
  5
279
100
AcDbEntity
  8
0
100
AcDbSpline
 62
7
  6
BYLAYER
 70
0
 71
3
 72
29
 73
25
 74
0
 42
0.0000001
 43
0.0000001
 44
0.0000000001
 40
0.0
 40
0.0
 40
0.0
 40
0.0
 40
0.0105671376
 40
0.0228283659
 40
0.0378052017
 40
0.0560145004
 40
0.0776542046
 40
0.1027701456
 40
0.1630347522
 40
0.2354434888
 40
0.3177498107
 40
0.4070629506
 40
0.5000135847
 40
0.592960939
 40
0.6822676307
 40
0.7645672744
 40
0.8369705034
 40
0.897231611
 40
0.922346489
 40
0.9439855002
 40
0.962194468
 40
0.9771713629
 40
0.9894327997
 40
1.0
 40
1.0
 40
1.0
 40
1.0
 10
49.0452224654
 20
97.8059805462
 30
0.0
 10
49.0452224654
 20
97.7760180512
 30
0.0
 10
49.0605438951
 20
97.7109131463
 30
0.0
 10
49.1219950494
 20
97.6212403194
 30
0.0
 10
49.2186457173
 20
97.5348120292
 30
0.0
 10
49.3501550182
 20
97.4510657212
 30
0.0
 10
49.5158595569
 20
97.3699848939
 30
0.0
 10
49.7988567573
 20
97.259750322
 30
0.0
 10
50.2306372838
 20
97.1389926556
 30
0.0
 10
50.8295697208
 20
97.023479594
 30
0.0
 10
51.5163963345
 20
96.9361850143
 30
0.0
 10
52.264901208
 20
96.8817006483
 30
0.0
 10
53.045327917
 20
96.8631895302
 30
0.0
 10
53.8257359467
 20
96.8817120642
 30
0.0
 10
54.5741940402
 20
96.9361977866
 30
0.0
 10
55.2609672802
 20
97.0234932331
 30
0.0
 10
55.8598550408
 20
97.1390026432
 30
0.0
 10
56.2916071473
 20
97.2597558196
 30
0.0
 10
56.5745894479
 20
97.3699875467
 30
0.0
 10
56.7402880711
 20
97.451066964
 30
0.0
 10
56.8717944904
 20
97.5348126752
 30
0.0
 10
56.9684450724
 20
97.621240564
 30
0.0
 10
57.0298989604
 20
97.71091237
 30
0.0
 10
57.0452224654
 20
97.7760178734
 30
0.0
 10
57.0452224654
 20
97.8059805462
 30
0.0
  0
SPLINE
  5
27A
100
AcDbEntity
  8
0
100
AcDbSpline
 62
7
  6
BYLAYER
 70
0
 71
3
 72
15
 73
11
 74
0
 42
0.0000001
 43
0.0000001
 44
0.0000000001
 40
0.0
 40
0.0
 40
0.0
 40
0.0
 40
0.1743993894
 40
0.341801871
 40
0.4965284238
 40
0.6350332575
 40
0.7550349419
 40
0.807747725
 40
0.8555234938
 40
1.0
 40
1.0
 40
1.0
 40
1.0
 10
70.7952224658
 20
106.7945295466
 30
0.0
 10
70.795222466
 20
107.0747491902
 30
0.0
 10
70.8286237233
 20
107.6245221562
 30
0.0
 10
70.9717270803
 20
108.411233324
 30
0.0
 10
71.1906150617
 20
109.1201383776
 30
0.0
 10
71.4631428958
 20
109.7276002057
 30
0.0
 10
71.7267628866
 20
110.1542249984
 30
0.0
 10
71.9510550207
 20
110.4304749071
 30
0.0
 10
72.2237371119
 20
110.7084073768
 30
0.0
 10
72.5184826894
 20
110.8945949492
 30
0.0
 10
72.7506231378
 20
110.8945115249
 30
0.0
  0
SPLINE
  5
27B
100
AcDbEntity
  8
0
100
AcDbSpline
 62
7
  6
BYLAYER
 70
0
 71
3
 72
11
 73
7
 74
0
 42
0.0000001
 43
0.0000001
 44
0.0000000001
 40
0.0
 40
0.0
 40
0.0
 40
0.0
 40
0.2979453488
 40
0.5643910662
 40
0.7949608274
 40
1.0
 40
1.0
 40
1.0
 40
1.0
 10
31.317227035
 20
106.7945296768
 30
0.0
 10
31.3172270379
 20
107.2063078858
 30
0.0
 10
31.3875510942
 20
107.9885671562
 30
0.0
 10
31.6971347885
 20
109.0509214545
 30
0.0
 10
32.1779474986
 20
109.9049140769
 30
0.0
 10
32.6172100129
 20
110.3333151519
 30
0.0
 10
32.851285503
 20
110.4930362104
 30
0.0
  0
SPLINE
  5
27C
100
AcDbEntity
  8
0
100
AcDbSpline
 62
7
  6
BYLAYER
 70
0
 71
3
 72
14
 73
10
 74
0
 42
0.0000001
 43
0.0000001
 44
0.0000000001
 40
0.0
 40
0.0
 40
0.0
 40
0.0
 40
0.2748455351
 40
0.4088748625
 40
0.5385001367
 40
0.6626074156
 40
0.7805208576
 40
0.8926530286
 40
1.0
 40
1.0
 40
1.0
 40
1.0
 10
34.9702174481
 20
106.7945295405
 30
0.0
 10
34.9702174481
 20
107.3363110895
 30
0.0
 10
34.828007202
 20
108.152051279
 30
0.0
 10
34.3730469906
 20
109.1157967197
 30
0.0
 10
33.9232067565
 20
109.739480889
 30
0.0
 10
33.388521833
 20
110.2469803153
 30
0.0
 10
32.7905079032
 20
110.6172352916
 30
0.0
 10
32.1594904989
 20
110.8421800503
 30
0.0
 10
31.7255549193
 20
110.8950858691
 30
0.0
 10
31.5139502175
 20
110.8951234747
 30
0.0
  0
SPLINE
  5
27D
100
AcDbEntity
  8
0
100
AcDbSpline
 62
7
  6
BYLAYER
 70
0
 71
3
 72
9
 73
5
 74
0
 42
0.0000001
 43
0.0000001
 44
0.0000000001
 40
0.0
 40
0.0
 40
0.0
 40
0.0
 40
0.224184858
 40
1.0
 40
1.0
 40
1.0
 40
1.0
 10
67.1952225229
 20
96.7189857338
 30
0.0
 10
67.1952220828
 20
96.7165185513
 30
0.0
 10
67.1938218195
 20
96.7054746892
 30
0.0
 10
67.1868995942
 20
96.6958833763
 30
0.0
 10
67.1808673876
 20
96.6898411121
 30
0.0
  0
SPLINE
  5
27E
100
AcDbEntity
  8
0
100
AcDbSpline
 62
7
  6
BYLAYER
 70
0
 71
3
 72
9
 73
5
 74
0
 42
0.0000001
 43
0.0000001
 44
0.0000000001
 40
0.0
 40
0.0
 40
0.0
 40
0.0
 40
0.2896954995
 40
1.0
 40
1.0
 40
1.0
 40
1.0
 10
38.9095761842
 20
96.6898413877
 30
0.0
 10
38.9073292117
 20
96.6920919872
 30
0.0
 10
38.9000475678
 20
96.7002238933
 30
0.0
 10
38.8952225929
 20
96.7111921022
 30
0.0
 10
38.8952225419
 20
96.7189897943
 30
0.0
  0
SPLINE
  5
27F
100
AcDbEntity
  8
0
100
AcDbSpline
 62
7
  6
BYLAYER
 70
0
 71
3
 72
31
 73
27
 74
0
 42
0.0000001
 43
0.0000001
 44
0.0000000001
 40
0.0
 40
0.0
 40
0.0
 40
0.0
 40
0.0105291405
 40
0.022659048
 40
0.0374682054
 40
0.055514406
 40
0.0770189706
 40
0.1020404125
 40
0.1305108772
 40
0.1622704066
 40
0.2347792819
 40
0.3172794996
 40
0.40682325
 40
0.5000105465
 40
0.593195406
 40
0.6827341756
 40
0.7652291834
 40
0.8377337718
 40
0.8694918607
 40
0.8979610223
 40
0.9229816134
 40
0.9444856051
 40
0.9625315268
 40
0.977340735
 40
0.9894708124
 40
1.0
 40
1.0
 40
1.0
 40
1.0
 10
57.0452224654
 20
97.8059805462
 30
0.0
 10
57.0452224654
 20
97.8357169264
 30
0.0
 10
57.0301146405
 20
97.9001477075
 30
0.0
 10
56.9685990303
 20
97.9882160123
 30
0.0
 10
56.8718501291
 20
98.071831858
 30
0.0
 10
56.7402399361
 20
98.1517861735
 30
0.0
 10
56.5743791461
 20
98.2282526629
 30
0.0
 10
56.3751195888
 20
98.3006063499
 30
0.0
 10
56.1439355666
 20
98.3683037995
 30
0.0
 10
55.7791897469
 20
98.4554188044
 30
0.0
 10
55.2588823881
 20
98.5450843163
 30
0.0
 10
54.5722630692
 20
98.6222337797
 30
0.0
 10
53.8244389295
 20
98.6697660273
 30
0.0
 10
53.0451407487
 20
98.6858366826
 30
0.0
 10
52.2658568179
 20
98.6697590597
 30
0.0
 10
51.5180685891
 20
98.6222246238
 30
0.0
 10
50.8314904189
 20
98.545074918
 30
0.0
 10
50.311214232
 20
98.4554110313
 30
0.0
 10
49.9464879009
 20
98.3682998323
 30
0.0
 10
49.7153142904
 20
98.3006029367
 30
0.0
 10
49.5160624202
 20
98.2282507065
 30
0.0
 10
49.3502064932
 20
98.1517851534
 30
0.0
 10
49.2185987615
 20
98.0718311733
 30
0.0
 10
49.1218499574
 20
97.988215684
 30
0.0
 10
49.0603320235
 20
97.9001483176
 30
0.0
 10
49.0452224654
 20
97.8357170596
 30
0.0
 10
49.0452224654
 20
97.8059805462
 30
0.0
  0
SPLINE
  5
280
100
AcDbEntity
  8
0
100
AcDbSpline
 62
7
  6
BYLAYER
 70
0
 71
3
 72
19
 73
15
 74
0
 42
0.0000001
 43
0.0000001
 44
0.0000000001
 40
0.0
 40
0.0
 40
0.0
 40
0.0
 40
0.186529197
 40
0.3663037287
 40
0.5319611259
 40
0.6769576685
 40
0.7399876265
 40
0.7959603618
 40
0.8445535775
 40
0.8856493146
 40
0.9196822745
 40
0.9479715686
 40
0.9733506217
 40
1.0
 40
1.0
 40
1.0
 40
1.0
 10
84.9952224653
 20
72.2246124304
 30
0.0
 10
85.4267635181
 20
72.0606591702
 30
0.0
 10
86.3021691601
 20
71.8100611804
 30
0.0
 10
87.6049979849
 20
71.6067775029
 30
0.0
 10
88.817194396
 20
71.5258199779
 30
0.0
 10
89.7428966516
 20
71.5281759866
 30
0.0
 10
90.3951339952
 20
71.5694267082
 30
0.0
 10
90.8075993818
 20
71.6151300897
 30
0.0
 10
91.1628999137
 20
71.6779957408
 30
0.0
 10
91.458857414
 20
71.7590997395
 30
0.0
 10
91.6944949216
 20
71.8622072757
 30
0.0
 10
91.8701579716
 20
71.9954700723
 30
0.0
 10
91.9769063235
 20
72.169367876
 30
0.0
 10
91.9952224654
 20
72.3002404329
 30
0.0
 10
91.9952224654
 20
72.3661943351
 30
0.0
  0
SPLINE
  5
281
100
AcDbEntity
  8
0
100
AcDbSpline
 62
7
  6
BYLAYER
 70
0
 71
3
 72
19
 73
15
 74
0
 42
0.0000001
 43
0.0000001
 44
0.0000000001
 40
0.0
 40
0.0
 40
0.0
 40
0.0
 40
0.0215199736
 40
0.0472197024
 40
0.0786260961
 40
0.11645934
 40
0.1609991284
 40
0.2122306494
 40
0.2699477187
 40
0.3338162248
 40
0.4780860345
 40
0.640695894
 40
0.8165662905
 40
1.0
 40
1.0
 40
1.0
 40
1.0
 10
94.243352799
 20
68.2960136702
 30
0.0
 10
94.2124171026
 20
68.3565400329
 30
0.0
 10
94.1155844821
 20
68.4748498028
 30
0.0
 10
93.9064042654
 20
68.612660184
 30
0.0
 10
93.6275648135
 20
68.7264326861
 30
0.0
 10
93.2791375852
 20
68.8172922289
 30
0.0
 10
92.8622342549
 20
68.8854947731
 30
0.0
 10
92.3792766066
 20
68.9309617475
 30
0.0
 10
91.8336908203
 20
68.9537512554
 30
0.0
 10
90.9937597031
 20
68.9539472525
 30
0.0
 10
89.8235452941
 20
68.893047915
 30
0.0
 10
88.305724766
 20
68.7435497055
 30
0.0
 10
86.6713929652
 20
68.5255780901
 30
0.0
 10
85.5505742989
 20
68.3467588875
 30
0.0
 10
84.979061605
 20
68.2514708328
 30
0.0
  0
SPLINE
  5
282
100
AcDbEntity
  8
0
100
AcDbSpline
 62
7
  6
BYLAYER
 70
0
 71
3
 72
11
 73
7
 74
0
 42
0.0000001
 43
0.0000001
 44
0.0000000001
 40
0.0
 40
0.0
 40
0.0
 40
0.0
 40
0.2499955652
 40
0.499961612
 40
0.7499479707
 40
1.0
 40
1.0
 40
1.0
 40
1.0
 10
22.5806916736
 20
114.0945295405
 30
0.0
 10
22.5806916736
 20
114.2250757145
 30
0.0
 10
22.6335278484
 20
114.4890785956
 30
0.0
 10
22.8588975649
 20
114.8214374171
 30
0.0
 10
23.1936448138
 20
115.0429831481
 30
0.0
 10
23.4575913581
 20
115.0945295405
 30
0.0
 10
23.5881670174
 20
115.0945295405
 30
0.0
  0
SPLINE
  5
283
100
AcDbEntity
  8
0
100
AcDbSpline
 62
7
  6
BYLAYER
 70
0
 71
3
 72
11
 73
7
 74
0
 42
0.0000001
 43
0.0000001
 44
0.0000000001
 40
0.0
 40
0.0
 40
0.0
 40
0.0
 40
0.2500467687
 40
0.5000446749
 40
0.7500060454
 40
1.0
 40
1.0
 40
1.0
 40
1.0
 10
73.2022779134
 20
115.0945295405
 30
0.0
 10
73.3328508055
 20
115.0945295405
 30
0.0
 10
73.5968004127
 20
115.042982613
 30
0.0
 10
73.9315480428
 20
114.8214351981
 30
0.0
 10
74.1569206281
 20
114.4890751801
 30
0.0
 10
74.2097532571
 20
114.2250748534
 30
0.0
 10
74.2097532571
 20
114.0945295405
 30
0.0
  0
SPLINE
  5
284
100
AcDbEntity
  8
0
100
AcDbSpline
 62
7
  6
BYLAYER
 70
0
 71
3
 72
17
 73
13
 74
0
 42
0.0000001
 43
0.0000001
 44
0.0000000001
 40
0.0
 40
0.0
 40
0.0
 40
0.0
 40
0.0313977382
 40
0.0633594782
 40
0.0977802325
 40
0.1362303319
 40
0.2289703407
 40
0.3458174238
 40
0.4859727232
 40
0.6456008539
 40
0.8192679835
 40
1.0
 40
1.0
 40
1.0
 40
1.0
 10
72.7506231378
 20
110.8945115249
 30
0.0
 10
72.7979286064
 20
110.8944945247
 30
0.0
 10
72.893918486
 20
110.8823026434
 30
0.0
 10
73.0313686974
 20
110.8249476633
 30
0.0
 10
73.1588780925
 20
110.7294254812
 30
0.0
 10
73.3249469928
 20
110.5414147106
 30
0.0
 10
73.4987892795
 20
110.2055189185
 30
0.0
 10
73.6541332875
 20
109.7009110362
 30
0.0
 10
73.7716427254
 20
109.0832634167
 30
0.0
 10
73.852590256
 20
108.3741546894
 30
0.0
 10
73.8995870159
 20
107.6008437637
 30
0.0
 10
73.9099241097
 20
107.0668298326
 30
0.0
 10
73.9099241097
 20
106.7945295405
 30
0.0
  0
SPLINE
  5
285
100
AcDbEntity
  8
0
100
AcDbSpline
 62
7
  6
BYLAYER
 70
0
 71
3
 72
12
 73
8
 74
0
 42
0.0000001
 43
0.0000001
 44
0.0000000001
 40
0.0
 40
0.0
 40
0.0
 40
0.0
 40
0.0893839235
 40
0.1935306404
 40
0.4359264666
 40
0.7099572025
 40
1.0
 40
1.0
 40
1.0
 40
1.0
 10
88.3651615943
 20
86.4587599202
 30
0.0
 10
88.263308328
 20
86.4278680611
 30
0.0
 10
88.0448599654
 20
86.3542200124
 30
0.0
 10
87.5568919192
 20
86.1772467154
 30
0.0
 10
86.8638770314
 20
85.9207201499
 30
0.0
 10
85.9596435537
 20
85.597280364
 30
0.0
 10
85.323422688
 20
85.3817834984
 30
0.0
 10
84.9952224654
 20
85.2742368287
 30
0.0
  0
SPLINE
  5
286
100
AcDbEntity
  8
0
100
AcDbSpline
 62
7
  6
BYLAYER
 70
0
 71
3
 72
11
 73
7
 74
0
 42
0.0000001
 43
0.0000001
 44
0.0000000001
 40
0.0
 40
0.0
 40
0.0
 40
0.0
 40
0.2500766337
 40
0.5001305716
 40
0.7500870325
 40
1.0
 40
1.0
 40
1.0
 40
1.0
 10
67.6952224654
 20
98.5842899107
 30
0.0
 10
67.6952224654
 20
98.6500059968
 30
0.0
 10
67.6698284683
 20
98.7828299974
 30
0.0
 10
67.5598836544
 20
98.9522065902
 30
0.0
 10
67.3937948039
 20
99.067424242
 30
0.0
 10
67.2608955425
 20
99.0945295405
 30
0.0
 10
67.1952224654
 20
99.0945295405
 30
0.0
  0
SPLINE
  5
287
100
AcDbEntity
  8
0
100
AcDbSpline
 62
7
  6
BYLAYER
 70
0
 71
3
 72
13
 73
9
 74
0
 42
0.0000001
 43
0.0000001
 44
0.0000000001
 40
0.0
 40
0.0
 40
0.0
 40
0.0
 40
0.0823438649
 40
0.1806412201
 40
0.2933224462
 40
0.4186380501
 40
0.6983309482
 40
1.0
 40
1.0
 40
1.0
 40
1.0
 10
91.1774904303
 20
85.8854004343
 30
0.0
 10
91.0137388163
 20
85.8362995137
 30
0.0
 10
90.6496541151
 20
85.7448308031
 30
0.0
 10
90.0515853214
 20
85.6292040648
 30
0.0
 10
89.3609093631
 20
85.5258323713
 30
0.0
 10
88.2929640393
 20
85.4034241035
 30
0.0
 10
86.8286391988
 20
85.3013404208
 30
0.0
 10
85.621512663
 20
85.2742549
 30
0.0
 10
84.9952155313
 20
85.2742369517
 30
0.0
  0
SPLINE
  5
288
100
AcDbEntity
  8
0
100
AcDbSpline
 62
7
  6
BYLAYER
 70
0
 71
3
 72
11
 73
7
 74
0
 42
0.0000001
 43
0.0000001
 44
0.0000000001
 40
0.0
 40
0.0
 40
0.0
 40
0.0
 40
0.3513667647
 40
0.4832327129
 40
0.6350493812
 40
1.0
 40
1.0
 40
1.0
 40
1.0
 10
90.9951767246
 20
87.3783911082
 30
0.0
 10
90.9951771683
 20
87.2735043711
 30
0.0
 10
90.8700712598
 20
87.149959331
 30
0.0
 10
90.7136024646
 20
87.0511919311
 30
0.0
 10
90.5406493936
 20
86.9609302517
 30
0.0
 10
90.397121507
 20
86.9046818965
 30
0.0
 10
90.2943359217
 20
86.8685791357
 30
0.0
  0
SPLINE
  5
289
100
AcDbEntity
  8
0
100
AcDbSpline
 62
7
  6
BYLAYER
 70
0
 71
3
 72
10
 73
6
 74
0
 42
0.0000001
 43
0.0000001
 44
0.0000000001
 40
0.0
 40
0.0
 40
0.0
 40
0.0
 40
0.2009156231
 40
0.4365848621
 40
1.0
 40
1.0
 40
1.0
 40
1.0
 10
90.2943670708
 20
86.868576176
 30
0.0
 10
90.1695902064
 20
86.8247642288
 30
0.0
 10
89.8939951895
 20
86.742244421
 30
0.0
 10
89.2531195709
 20
86.5912974557
 30
0.0
 10
88.7330921455
 20
86.5074509907
 30
0.0
 10
88.3654399376
 20
86.4588814203
 30
0.0
  0
SPLINE
  5
28A
100
AcDbEntity
  8
0
100
AcDbSpline
 62
7
  6
BYLAYER
 70
0
 71
3
 72
11
 73
7
 74
0
 42
0.0000001
 43
0.0000001
 44
0.0000000001
 40
0.0
 40
0.0
 40
0.0
 40
0.0
 40
0.1916739157
 40
0.3995123764
 40
0.6625487426
 40
1.0
 40
1.0
 40
1.0
 40
1.0
 10
91.9952224654
 20
54.7573070287
 30
0.0
 10
91.9952224654
 20
54.7722961123
 30
0.0
 10
91.9875514735
 20
54.8042900268
 30
0.0
 10
91.9504716007
 20
54.8427730847
 30
0.0
 10
91.8941210066
 20
54.8724247793
 30
0.0
 10
91.8493112674
 20
54.8869642923
 30
0.0
 10
91.8238756088
 20
54.8939933169
 30
0.0
  0
SPLINE
  5
28B
100
AcDbEntity
  8
0
100
AcDbSpline
 62
7
  6
BYLAYER
 70
0
 71
3
 72
17
 73
13
 74
0
 42
0.0000001
 43
0.0000001
 44
0.0000000001
 40
0.0
 40
0.0
 40
0.0
 40
0.0
 40
0.0229575638
 40
0.052609154
 40
0.088893866
 40
0.1316192934
 40
0.2351644589
 40
0.3603826111
 40
0.5037347292
 40
0.6611348289
 40
0.8282177334
 40
1.0
 40
1.0
 40
1.0
 40
1.0
 10
91.8238756088
 20
54.8939933169
 30
0.0
 10
91.773364665
 20
54.9079517786
 30
0.0
 10
91.6550326202
 20
54.93017556
 30
0.0
 10
91.453510603
 20
54.9538797035
 30
0.0
 10
91.2062293752
 20
54.9739061589
 30
0.0
 10
90.7903062932
 20
54.9995289686
 30
0.0
 10
90.1711395284
 20
55.0265306478
 30
0.0
 10
89.3221917879
 20
55.0547907837
 30
0.0
 10
88.3499777452
 20
55.0732466381
 30
0.0
 10
87.2818681576
 20
55.0667932634
 30
0.0
 10
86.150076097
 20
55.0091101394
 30
0.0
 10
85.3810776413
 20
54.9139379252
 30
0.0
 10
84.9952224654
 20
54.8441290771
 30
0.0
  0
SPLINE
  5
28C
100
AcDbEntity
  8
0
100
AcDbSpline
 62
7
  6
BYLAYER
 70
0
 71
3
 72
17
 73
13
 74
0
 42
0.0000001
 43
0.0000001
 44
0.0000000001
 40
0.0
 40
0.0
 40
0.0
 40
0.0
 40
0.1766516827
 40
0.3456404567
 40
0.5024291195
 40
0.6430007214
 40
0.7639713999
 40
0.8163678221
 40
0.8631699443
 40
0.9044961333
 40
0.9406540937
 40
1.0
 40
1.0
 40
1.0
 40
1.0
 10
85.6106346329
 20
57.5536220086
 30
0.0
 10
86.1136649916
 20
57.445380015
 30
0.0
 10
87.1002424275
 20
57.2440409077
 30
0.0
 10
88.5434192954
 20
56.9991971597
 30
0.0
 10
89.8919537714
 20
56.8311273621
 30
0.0
 10
91.1085242488
 20
56.7501909944
 30
0.0
 10
92.0245915093
 20
56.7626794337
 30
0.0
 10
92.6628260514
 20
56.830349457
 30
0.0
 10
93.0658264598
 20
56.9038873717
 30
0.0
 10
93.4152171355
 20
57.0029788381
 30
0.0
 10
93.7818661622
 20
57.1580863883
 30
0.0
 10
94.0150346227
 20
57.3290671369
 30
0.0
 10
94.120208409
 20
57.4662503365
 30
0.0
  0
SPLINE
  5
28D
100
AcDbEntity
  8
0
100
AcDbSpline
 62
7
  6
BYLAYER
 70
0
 71
3
 72
10
 73
6
 74
0
 42
0.0000001
 43
0.0000001
 44
0.0000000001
 40
0.0
 40
0.0
 40
0.0
 40
0.0
 40
0.5634467093
 40
0.7990971185
 40
1.0
 40
1.0
 40
1.0
 40
1.0
 10
17.7248152463
 20
86.458907599
 30
0.0
 10
17.357152216
 20
86.5074811455
 30
0.0
 10
16.8371297208
 20
86.5913282897
 30
0.0
 10
16.1962749409
 20
86.7422910377
 30
0.0
 10
15.9207106279
 20
86.8248149604
 30
0.0
 10
15.7959463371
 20
86.8686271446
 30
0.0
  0
SPLINE
  5
28E
100
AcDbEntity
  8
0
100
AcDbSpline
 62
7
  6
BYLAYER
 70
0
 71
3
 72
11
 73
7
 74
0
 42
0.0000001
 43
0.0000001
 44
0.0000000001
 40
0.0
 40
0.0
 40
0.0
 40
0.0
 40
0.3649743566
 40
0.5167991637
 40
0.6486683788
 40
1.0
 40
1.0
 40
1.0
 40
1.0
 10
15.7959383138
 20
86.8686263825
 30
0.0
 10
15.6931440726
 20
86.9047366862
 30
0.0
 10
15.5496056072
 20
86.9609969292
 30
0.0
 10
15.376645721
 20
87.0512870468
 30
0.0
 10
15.2201955198
 20
87.1500679037
 30
0.0
 10
15.0951078812
 20
87.2737024435
 30
0.0
 10
15.0952230102
 20
87.3785820733
 30
0.0
  0
SPLINE
  5
28F
100
AcDbEntity
  8
0
100
AcDbSpline
 62
7
  6
BYLAYER
 70
0
 71
3
 72
11
 73
7
 74
0
 42
0.0000001
 43
0.0000001
 44
0.0000000001
 40
0.0
 40
0.0
 40
0.0
 40
0.0
 40
0.3414475571
 40
0.4743997315
 40
0.6285001892
 40
1.0
 40
1.0
 40
1.0
 40
1.0
 10
17.0952224654
 20
86.8679510513
 30
0.0
 10
17.0952224651
 20
86.7796830398
 30
0.0
 10
17.2108948067
 20
86.6795687062
 30
0.0
 10
17.3485377941
 20
86.6024087068
 30
0.0
 10
17.5045323118
 20
86.530566841
 30
0.0
 10
17.6329246955
 20
86.4867901057
 30
0.0
 10
17.7248256697
 20
86.4589102122
 30
0.0
  0
SPLINE
  5
290
100
AcDbEntity
  8
0
100
AcDbSpline
 62
7
  6
BYLAYER
 70
0
 71
3
 72
13
 73
9
 74
0
 42
0.0000001
 43
0.0000001
 44
0.0000000001
 40
0.0
 40
0.0
 40
0.0
 40
0.0
 40
0.3017013099
 40
0.5813815471
 40
0.7066956825
 40
0.81937823
 40
0.9176679109
 40
1.0
 40
1.0
 40
1.0
 40
1.0
 10
21.0952224654
 20
85.274232709
 30
0.0
 10
20.4688361157
 20
85.2742498647
 30
0.0
 10
19.2616277953
 20
85.3013689994
 30
0.0
 10
17.7972084179
 20
85.4034095557
 30
0.0
 10
16.7292602338
 20
85.5258956888
 30
0.0
 10
16.0385751232
 20
85.6292590954
 30
0.0
 10
15.4405189284
 20
85.7448689413
 30
0.0
 10
15.0764639545
 20
85.8363468079
 30
0.0
 10
14.9127327048
 20
85.88545166
 30
0.0
  0
SPLINE
  5
291
100
AcDbEntity
  8
0
100
AcDbSpline
 62
7
  6
BYLAYER
 70
0
 71
3
 72
11
 73
7
 74
0
 42
0.0000001
 43
0.0000001
 44
0.0000000001
 40
0.0
 40
0.0
 40
0.0
 40
0.0
 40
0.2496372447
 40
0.5159170242
 40
0.7725251338
 40
1.0
 40
1.0
 40
1.0
 40
1.0
 10
14.9127320976
 20
85.8854693992
 30
0.0
 10
14.9218271342
 20
86.0036241768
 30
0.0
 10
14.9800323404
 20
86.2462805057
 30
0.0
 10
15.1771358527
 20
86.5635651466
 30
0.0
 10
15.4624543931
 20
86.7895000285
 30
0.0
 10
15.6884374581
 20
86.8583810614
 30
0.0
 10
15.7959332292
 20
86.8686347088
 30
0.0
  0
SPLINE
  5
292
100
AcDbEntity
  8
0
100
AcDbSpline
 62
7
  6
BYLAYER
 70
0
 71
3
 72
12
 73
8
 74
0
 42
0.0000001
 43
0.0000001
 44
0.0000000001
 40
0.0
 40
0.0
 40
0.0
 40
0.0
 40
0.2900396517
 40
0.5640713072
 40
0.8064721349
 40
0.9106213988
 40
1.0
 40
1.0
 40
1.0
 40
1.0
 10
21.0952224654
 20
85.274232709
 30
0.0
 10
20.766999956
 20
85.3817784571
 30
0.0
 10
20.1307418004
 20
85.5973071054
 30
0.0
 10
19.2264475275
 20
85.9207894063
 30
0.0
 10
18.5333615125
 20
86.17730415
 30
0.0
 10
18.0453611163
 20
86.3543050406
 30
0.0
 10
17.8269005968
 20
86.4279575508
 30
0.0
 10
17.7250481438
 20
86.4588564137
 30
0.0
  0
SPLINE
  5
293
100
AcDbEntity
  8
0
100
AcDbSpline
 62
7
  6
BYLAYER
 70
0
 71
3
 72
19
 73
15
 74
0
 42
0.0000001
 43
0.0000001
 44
0.0000000001
 40
0.0
 40
0.0
 40
0.0
 40
0.0
 40
0.1833805159
 40
0.3591814724
 40
0.5217483306
 40
0.666041001
 40
0.7299277628
 40
0.7876560414
 40
0.8389049883
 40
0.8834592736
 40
0.9213270542
 40
0.9527566946
 40
0.9784733754
 40
1.0
 40
1.0
 40
1.0
 40
1.0
 10
21.1113833258
 20
68.2514708328
 30
0.0
 10
20.540037121
 20
68.3467311288
 30
0.0
 10
19.4196161991
 20
68.5256109898
 30
0.0
 10
17.7857496604
 20
68.7430126885
 30
0.0
 10
16.2683008966
 20
68.8934059716
 30
0.0
 10
15.0980607958
 20
68.9538931959
 30
0.0
 10
14.2579696255
 20
68.9535864099
 30
0.0
 10
13.7122349716
 20
68.9309368718
 30
0.0
 10
13.229115313
 20
68.8857040327
 30
0.0
 10
12.8120051451
 20
68.8174694772
 30
0.0
 10
12.4633301492
 20
68.7266504044
 30
0.0
 10
12.1842807059
 20
68.6127545465
 30
0.0
 10
11.9749725912
 20
68.4748885785
 30
0.0
 10
11.8780373481
 20
68.356558659
 30
0.0
 10
11.8470921317
 20
68.2960136702
 30
0.0
  0
SPLINE
  5
294
100
AcDbEntity
  8
0
100
AcDbSpline
 62
7
  6
BYLAYER
 70
0
 71
3
 72
11
 73
7
 74
0
 42
0.0000001
 43
0.0000001
 44
0.0000000001
 40
0.0
 40
0.0
 40
0.0
 40
0.0
 40
0.3716605809
 40
0.5258230331
 40
0.6587828045
 40
1.0
 40
1.0
 40
1.0
 40
1.0
 10
88.3654375951
 20
86.4588819019
 30
0.0
 10
88.4574255017
 20
86.4867815362
 30
0.0
 10
88.5859485837
 20
86.5305663483
 30
0.0
 10
88.7420821408
 20
86.6024396212
 30
0.0
 10
88.8797956999
 20
86.6795911612
 30
0.0
 10
88.9952224656
 20
86.7798898538
 30
0.0
 10
88.9952224654
 20
86.8681417937
 30
0.0
  0
SPLINE
  5
295
100
AcDbEntity
  8
0
100
AcDbSpline
 62
7
  6
BYLAYER
 70
0
 71
3
 72
19
 73
15
 74
0
 42
0.0000001
 43
0.0000001
 44
0.0000000001
 40
0.0
 40
0.0
 40
0.0
 40
0.0
 40
0.0266430035
 40
0.0520127013
 40
0.0802976346
 40
0.1143158165
 40
0.1554070821
 40
0.2039948345
 40
0.2599664249
 40
0.3229958988
 40
0.4679948326
 40
0.6336679496
 40
0.8134631058
 40
1.0
 40
1.0
 40
1.0
 40
1.0
 10
14.0952224654
 20
72.3661943351
 30
0.0
 10
14.0952224631
 20
72.3002564164
 30
0.0
 10
14.113506136
 20
72.1694170795
 30
0.0
 10
14.2202578965
 20
71.9955778534
 30
0.0
 10
14.3958491845
 20
71.8623555583
 30
0.0
 10
14.6313780029
 20
71.7591592184
 30
0.0
 10
14.9272495396
 20
71.6779509558
 30
0.0
 10
15.2825423977
 20
71.6151895508
 30
0.0
 10
15.6949884222
 20
71.5695128635
 30
0.0
 10
16.3472200028
 20
71.5281753196
 30
0.0
 10
17.2729656093
 20
71.5257396159
 30
0.0
 10
18.4852526076
 20
71.6067699565
 30
0.0
 10
19.7881726211
 20
71.810110331
 30
0.0
 10
20.6636646789
 20
72.0606536506
 30
0.0
 10
21.0952224654
 20
72.2246124304
 30
0.0
  0
SPLINE
  5
296
100
AcDbEntity
  8
0
100
AcDbSpline
 62
7
  6
BYLAYER
 70
0
 71
3
 72
13
 73
9
 74
0
 42
0.0000001
 43
0.0000001
 44
0.0000000001
 40
0.0
 40
0.0
 40
0.0
 40
0.0
 40
0.3729192752
 40
0.6577991104
 40
0.7682934754
 40
0.8594404214
 40
0.9346303504
 40
1.0
 40
1.0
 40
1.0
 40
1.0
 10
14.9127327048
 20
85.88545166
 30
0.0
 10
14.7931376738
 20
85.9213258548
 30
0.0
 10
14.5843133537
 20
85.9917306758
 30
0.0
 10
14.3497901019
 20
86.1007009576
 30
0.0
 10
14.2154134901
 20
86.1935785996
 30
0.0
 10
14.1481512706
 20
86.258153803
 30
0.0
 10
14.1056563695
 20
86.324282493
 30
0.0
 10
14.0952148105
 20
86.3716218903
 30
0.0
 10
14.0952224654
 20
86.3935087459
 30
0.0
  0
SPLINE
  5
297
100
AcDbEntity
  8
0
100
AcDbSpline
 62
7
  6
BYLAYER
 70
0
 71
3
 72
11
 73
7
 74
0
 42
0.0000001
 43
0.0000001
 44
0.0000000001
 40
0.0
 40
0.0
 40
0.0
 40
0.0
 40
0.251782501
 40
0.5025196444
 40
0.751820626
 40
1.0
 40
1.0
 40
1.0
 40
1.0
 10
15.0952224654
 20
87.3785033968
 30
0.0
 10
14.9652259021
 20
87.3784194803
 30
0.0
 10
14.7030398465
 20
87.3273168001
 30
0.0
 10
14.3706481865
 20
87.1087479851
 30
0.0
 10
14.1475790104
 20
86.7813518589
 30
0.0
 10
14.0952224654
 20
86.5216473607
 30
0.0
 10
14.0952224654
 20
86.3935110832
 30
0.0
  0
SPLINE
  5
298
100
AcDbEntity
  8
0
100
AcDbSpline
 62
7
  6
BYLAYER
 70
0
 71
3
 72
15
 73
11
 74
0
 42
0.0000001
 43
0.0000001
 44
0.0000000001
 40
0.0
 40
0.0
 40
0.0
 40
0.0
 40
0.1105201561
 40
0.220796201
 40
0.3336781331
 40
0.4520851484
 40
0.5779247333
 40
0.7120341132
 40
0.8537819048
 40
1.0
 40
1.0
 40
1.0
 40
1.0
 10
31.5139502175
 20
110.8951234747
 30
0.0
 10
31.3019375077
 20
110.8951611527
 30
0.0
 10
30.8766877203
 20
110.8430073363
 30
0.0
 10
30.2722520101
 20
110.6162092466
 30
0.0
 10
29.7226835368
 20
110.2490729977
 30
0.0
 10
29.2461743527
 20
109.7501300583
 30
0.0
 10
28.8523354475
 20
109.13565232
 30
0.0
 10
28.556266204
 20
108.420089111
 30
0.0
 10
28.372183703
 20
107.6283455816
 30
0.0
 10
28.3300286629
 20
107.0750222231
 30
0.0
 10
28.3300286605
 20
106.7945295405
 30
0.0
  0
SPLINE
  5
299
100
AcDbEntity
  8
0
100
AcDbSpline
 62
7
  6
BYLAYER
 70
0
 71
3
 72
13
 73
9
 74
0
 42
0.0000001
 43
0.0000001
 44
0.0000000001
 40
0.0
 40
0.0
 40
0.0
 40
0.0
 40
0.065364688
 40
0.1405494138
 40
0.2316920391
 40
0.3421845593
 40
0.6270691668
 40
1.0
 40
1.0
 40
1.0
 40
1.0
 10
91.9952224654
 20
86.3935450913
 30
0.0
 10
91.9952292779
 20
86.3716547212
 30
0.0
 10
91.9847842792
 20
86.3243078764
 30
0.0
 10
91.9422780348
 20
86.258169952
 30
0.0
 10
91.8749968627
 20
86.1935879557
 30
0.0
 10
91.7405798631
 20
86.1007019907
 30
0.0
 10
91.5059968094
 20
85.9917076434
 30
0.0
 10
91.2971193118
 20
85.9212780208
 30
0.0
 10
91.1774904303
 20
85.8854004343
 30
0.0
  0
SPLINE
  5
29A
100
AcDbEntity
  8
0
100
AcDbSpline
 62
7
  6
BYLAYER
 70
0
 71
3
 72
17
 73
13
 74
0
 42
0.0000001
 43
0.0000001
 44
0.0000000001
 40
0.0
 40
0.0
 40
0.0
 40
0.0
 40
0.0593396779
 40
0.0954933384
 40
0.136815318
 40
0.183616102
 40
0.2360154824
 40
0.3569868008
 40
0.4975584603
 40
0.6543525059
 40
0.8233470328
 40
1.0
 40
1.0
 40
1.0
 40
1.0
 10
11.9702365217
 20
57.4662503365
 30
0.0
 10
12.0753992829
 20
57.3290815176
 30
0.0
 10
12.3085244426
 20
57.1580944992
 30
0.0
 10
12.6751471195
 20
57.0030298983
 30
0.0
 10
13.0245039061
 20
56.9039315281
 30
0.0
 10
13.4274928642
 20
56.8303707433
 30
0.0
 10
14.0657289391
 20
56.7626530556
 30
0.0
 10
14.9818104201
 20
56.7501496276
 30
0.0
 10
16.1983921364
 20
56.8311743474
 30
0.0
 10
17.5469641185
 20
56.9991925077
 30
0.0
 10
18.9901829291
 20
57.2440151107
 30
0.0
 10
19.9767762191
 20
57.4453792145
 30
0.0
 10
20.4798102978
 20
57.5536220086
 30
0.0
  0
SPLINE
  5
29B
100
AcDbEntity
  8
0
100
AcDbSpline
 62
7
  6
BYLAYER
 70
0
 71
3
 72
11
 73
7
 74
0
 42
0.0000001
 43
0.0000001
 44
0.0000000001
 40
0.0
 40
0.0
 40
0.0
 40
0.0
 40
0.2499657131
 40
0.4999472373
 40
0.7499652093
 40
1.0
 40
1.0
 40
1.0
 40
1.0
 10
38.8952224654
 20
99.0945295405
 30
0.0
 10
38.8295356142
 20
99.0945295405
 30
0.0
 10
38.6966209608
 20
99.0673887191
 30
0.0
 10
38.5305267648
 20
98.9521704075
 30
0.0
 10
38.4205855119
 20
98.7828022263
 30
0.0
 10
38.3952224654
 20
98.6499949143
 30
0.0
 10
38.3952224654
 20
98.5842899107
 30
0.0
  0
SPLINE
  5
29C
100
AcDbEntity
  8
0
100
AcDbSpline
 62
7
  6
BYLAYER
 70
0
 71
3
 72
9
 73
5
 74
0
 42
0.0000001
 43
0.0000001
 44
0.0000000001
 40
0.0
 40
0.0
 40
0.0
 40
0.0
 40
0.4767723734
 40
1.0
 40
1.0
 40
1.0
 40
1.0
 10
38.9095719147
 20
96.6898458883
 30
0.0
 10
38.8514889346
 20
96.6865603118
 30
0.0
 10
38.7301068496
 20
96.6576461793
 30
0.0
 10
38.6262539814
 20
96.5877574965
 30
0.0
 10
38.5804997228
 20
96.5432306087
 30
0.0
  0
SPLINE
  5
29D
100
AcDbEntity
  8
0
100
AcDbSpline
 62
7
  6
BYLAYER
 70
0
 71
3
 72
9
 73
5
 74
0
 42
0.0000001
 43
0.0000001
 44
0.0000000001
 40
0.0
 40
0.0
 40
0.0
 40
0.0
 40
0.5204228657
 40
1.0
 40
1.0
 40
1.0
 40
1.0
 10
38.5804997228
 20
96.5432306087
 30
0.0
 10
38.5332670272
 20
96.4972649434
 30
0.0
 10
38.4584223554
 20
96.3908143083
 30
0.0
 10
38.4273510503
 20
96.2648294313
 30
0.0
 10
38.4239209841
 20
96.2041918613
 30
0.0
  0
SPLINE
  5
29E
100
AcDbEntity
  8
0
100
AcDbSpline
 62
7
  6
BYLAYER
 70
0
 71
3
 72
9
 73
5
 74
0
 42
0.0000001
 43
0.0000001
 44
0.0000000001
 40
0.0
 40
0.0
 40
0.0
 40
0.0
 40
0.33905853
 40
1.0
 40
1.0
 40
1.0
 40
1.0
 10
38.4239162667
 20
96.2041941691
 30
0.0
 10
38.4195979097
 20
96.2062779665
 30
0.0
 10
38.4075322246
 20
96.2126404337
 30
0.0
 10
38.3952224654
 20
96.2248267347
 30
0.0
 10
38.3952224654
 20
96.2341735093
 30
0.0
  0
SPLINE
  5
29F
100
AcDbEntity
  8
0
100
AcDbSpline
 62
7
  6
BYLAYER
 70
0
 71
3
 72
11
 73
7
 74
0
 42
0.0000001
 43
0.0000001
 44
0.0000000001
 40
0.0
 40
0.0
 40
0.0
 40
0.0
 40
0.2368629097
 40
0.4952676522
 40
0.7566640765
 40
1.0
 40
1.0
 40
1.0
 40
1.0
 10
38.3952225359
 20
96.2332832399
 30
0.0
 10
38.3952196852
 20
96.2940167989
 30
0.0
 10
38.4203673396
 20
96.4222968356
 30
0.0
 10
38.5326247114
 20
96.5872400578
 30
0.0
 10
38.7022127832
 20
96.6950318614
 30
0.0
 10
38.8328291734
 20
96.7189896401
 30
0.0
 10
38.8952224654
 20
96.7189896324
 30
0.0
  0
SPLINE
  5
2A0
100
AcDbEntity
  8
0
100
AcDbSpline
 62
7
  6
BYLAYER
 70
0
 71
3
 72
9
 73
5
 74
0
 42
0.0000001
 43
0.0000001
 44
0.0000000001
 40
0.0
 40
0.0
 40
0.0
 40
0.0
 40
0.380785016
 40
1.0
 40
1.0
 40
1.0
 40
1.0
 10
38.9095687352
 20
96.6898492251
 30
0.0
 10
38.9710204361
 20
96.5664671187
 30
0.0
 10
39.1334008384
 20
96.2429454844
 30
0.0
 10
39.2945487474
 20
95.9188071495
 30
0.0
 10
39.3952224654
 20
95.7185410566
 30
0.0
  0
SPLINE
  5
2A1
100
AcDbEntity
  8
0
100
AcDbSpline
 62
7
  6
BYLAYER
 70
0
 71
3
 72
9
 73
5
 74
0
 42
0.0000001
 43
0.0000001
 44
0.0000000001
 40
0.0
 40
0.0
 40
0.0
 40
0.0
 40
0.4767243598
 40
1.0
 40
1.0
 40
1.0
 40
1.0
 10
67.1808343484
 20
96.6897877952
 30
0.0
 10
67.2400006738
 20
96.6864316976
 30
0.0
 10
67.3636462502
 20
96.6565033229
 30
0.0
 10
67.4688665533
 20
96.5842182551
 30
0.0
 10
67.5148471315
 20
96.5382067835
 30
0.0
  0
SPLINE
  5
2A2
100
AcDbEntity
  8
0
100
AcDbSpline
 62
7
  6
BYLAYER
 70
0
 71
3
 72
9
 73
5
 74
0
 42
0.0000001
 43
0.0000001
 44
0.0000000001
 40
0.0
 40
0.0
 40
0.0
 40
0.0
 40
0.5204397214
 40
1.0
 40
1.0
 40
1.0
 40
1.0
 10
67.5148471315
 20
96.5382067835
 30
0.0
 10
67.5605801859
 20
96.4924430019
 30
0.0
 10
67.6329748345
 20
96.3873628282
 30
0.0
 10
67.6630303843
 20
96.2636907778
 30
0.0
 10
67.6664079032
 20
96.2041703879
 30
0.0
  0
SPLINE
  5
2A3
100
AcDbEntity
  8
0
100
AcDbSpline
 62
7
  6
BYLAYER
 70
0
 71
3
 72
9
 73
5
 74
0
 42
0.0000001
 43
0.0000001
 44
0.0000000001
 40
0.0
 40
0.0
 40
0.0
 40
0.0
 40
0.3808688741
 40
1.0
 40
1.0
 40
1.0
 40
1.0
 10
67.6664927407
 20
96.2041764604
 30
0.0
 10
67.5431295061
 20
96.1426308356
 30
0.0
 10
67.2195462261
 20
95.980405548
 30
0.0
 10
66.8954549503
 20
95.819194705
 30
0.0
 10
66.6952224654
 20
95.7185410566
 30
0.0
  0
SPLINE
  5
2A4
100
AcDbEntity
  8
0
100
AcDbSpline
 62
7
  6
BYLAYER
 70
0
 71
3
 72
11
 73
7
 74
0
 42
0.0000001
 43
0.0000001
 44
0.0000000001
 40
0.0
 40
0.0
 40
0.0
 40
0.0
 40
0.2433370883
 40
0.5047359816
 40
0.7631392675
 40
1.0
 40
1.0
 40
1.0
 40
1.0
 10
67.1952224654
 20
96.7189897226
 30
0.0
 10
67.2576161622
 20
96.7189898932
 30
0.0
 10
67.3882340929
 20
96.6950333455
 30
0.0
 10
67.5578224268
 20
96.5872402517
 30
0.0
 10
67.6700794933
 20
96.4222948893
 30
0.0
 10
67.6952209946
 20
96.2940165742
 30
0.0
 10
67.6952246354
 20
96.2332834701
 30
0.0
  0
SPLINE
  5
2A5
100
AcDbEntity
  8
0
100
AcDbSpline
 62
7
  6
BYLAYER
 70
0
 71
3
 72
9
 73
5
 74
0
 42
0.0000001
 43
0.0000001
 44
0.0000000001
 40
0.0
 40
0.0
 40
0.0
 40
0.0
 40
0.3721972011
 40
1.0
 40
1.0
 40
1.0
 40
1.0
 10
67.6952224654
 20
96.2320918435
 30
0.0
 10
67.6952224654
 20
96.226978148
 30
0.0
 10
67.6860369584
 20
96.2145218806
 30
0.0
 10
67.674132437
 20
96.2081807757
 30
0.0
 10
67.6664927407
 20
96.2041764604
 30
0.0
  0
SPLINE
  5
2A6
100
AcDbEntity
  8
0
100
AcDbSpline
 62
7
  6
BYLAYER
 70
0
 71
3
 72
17
 73
13
 74
0
 42
0.0000001
 43
0.0000001
 44
0.0000000001
 40
0.0
 40
0.0
 40
0.0
 40
0.0
 40
0.1710003065
 40
0.337375186
 40
0.4942470411
 40
0.6373207495
 40
0.7625690856
 40
0.8665039719
 40
0.9095668401
 40
0.9462805253
 40
0.9764513528
 40
1.0
 40
1.0
 40
1.0
 40
1.0
 10
21.0952224654
 20
54.8441290771
 30
0.0
 10
20.7119517031
 20
54.9134703535
 30
0.0
 10
19.9480380241
 20
55.0083338123
 30
0.0
 10
18.8233098756
 20
55.0662940612
 30
0.0
 10
17.7609578575
 20
55.0733748027
 30
0.0
 10
16.7925979649
 20
55.0554548505
 30
0.0
 10
15.9451493069
 20
55.0274753673
 30
0.0
 10
15.3255844937
 20
55.0007562082
 30
0.0
 10
14.9078979382
 20
54.9755315073
 30
0.0
 10
14.6581909304
 20
54.9559076115
 30
0.0
 10
14.4535112026
 20
54.9327474468
 30
0.0
 10
14.3327919623
 20
54.9112069479
 30
0.0
 10
14.2808611028
 20
54.8977842843
 30
0.0
  0
SPLINE
  5
2A7
100
AcDbEntity
  8
0
100
AcDbSpline
 62
7
  6
BYLAYER
 70
0
 71
3
 72
11
 73
7
 74
0
 42
0.0000001
 43
0.0000001
 44
0.0000000001
 40
0.0
 40
0.0
 40
0.0
 40
0.0
 40
0.3417581635
 40
0.6063082965
 40
0.8124036811
 40
1.0
 40
1.0
 40
1.0
 40
1.0
 10
14.2808611028
 20
54.8977842843
 30
0.0
 10
14.253367174
 20
54.8906778786
 30
0.0
 10
14.2050101468
 20
54.8759933887
 30
0.0
 10
14.144112685
 20
54.8458846559
 30
0.0
 10
14.1037068509
 20
54.8064285406
 30
0.0
 10
14.0952224653
 20
54.7728948453
 30
0.0
 10
14.0952224653
 20
54.7573070287
 30
0.0
  0
SPLINE
  5
2A8
100
AcDbEntity
  8
0
100
AcDbSpline
 62
7
  6
BYLAYER
 70
0
 71
3
 72
12
 73
8
 74
0
 42
0.0000001
 43
0.0000001
 44
0.0000000001
 40
0.0
 40
0.0
 40
0.0
 40
0.0
 40
0.2526471688
 40
0.5197757551
 40
0.6507135171
 40
0.775773276
 40
1.0
 40
1.0
 40
1.0
 40
1.0
 10
91.1774257715
 20
85.8853786565
 30
0.0
 10
91.1682108389
 20
86.0050785189
 30
0.0
 10
91.109038604
 20
86.2496362624
 30
0.0
 10
90.9412931176
 20
86.5170436023
 30
0.0
 10
90.757317555
 20
86.6861137741
 30
0.0
 10
90.564069828
 20
86.8090638546
 30
0.0
 10
90.4003608823
 20
86.8584192293
 30
0.0
 10
90.2942938109
 20
86.8685426188
 30
0.0
  0
SPLINE
  5
2A9
100
AcDbEntity
  8
0
100
AcDbSpline
 62
7
  6
BYLAYER
 70
0
 71
3
 72
11
 73
7
 74
0
 42
0.0000001
 43
0.0000001
 44
0.0000000001
 40
0.0
 40
0.0
 40
0.0
 40
0.0
 40
0.2481889995
 40
0.4974902549
 40
0.7482313704
 40
1.0
 40
1.0
 40
1.0
 40
1.0
 10
91.9952224654
 20
86.3935110814
 30
0.0
 10
91.9952224654
 20
86.5216516795
 30
0.0
 10
91.9428710775
 20
86.7813638871
 30
0.0
 10
91.7197911716
 20
87.1087514772
 30
0.0
 10
91.3874269158
 20
87.3273613435
 30
0.0
 10
91.1252112339
 20
87.3783771206
 30
0.0
 10
90.9952224654
 20
87.3783967937
 30
0.0
  0
ELLIPSE
  5
2AA
100
AcDbEntity
  8
0
100
AcDbEllipse
 62
7
  6
BYLAYER
 10
84.2952224654
 20
92.5188538648
 30
0.0
 11
0.0
 21
24.3243243243
 31
0.0
 40
0.4111111111
 41
-3.1415926536
 42
-3.0731553292
  0
ELLIPSE
  5
2AB
100
AcDbEntity
  8
0
100
AcDbEllipse
 62
7
  6
BYLAYER
 10
94.2068070902
 20
46.3948574163
 30
0.0
 11
-13.2392591885
 21
25.9028984124
 31
0.0
 40
0.3437587053
 41
-0.3632449108
 42
-0.1739237121
  0
ELLIPSE
  5
2AC
100
AcDbEntity
  8
0
100
AcDbEllipse
 62
7
  6
BYLAYER
 10
84.2952224654
 20
41.4783133243
 30
0.0
 11
-0.0
 21
16.2162162162
 31
0.0
 40
0.6166666667
 41
-0.1319235462
 42
0.0
  0
ELLIPSE
  5
2AD
100
AcDbEntity
  8
0
100
AcDbEllipse
 62
7
  6
BYLAYER
 10
12.0896568637
 20
73.7461874308
 30
0.0
 11
13.8413969858
 21
-18.0539960684
 31
0.0
 40
0.4395737976
 41
-0.4504530526
 42
-0.3250528237
  0
ELLIPSE
  5
2AE
100
AcDbEntity
  8
0
100
AcDbEllipse
 62
7
  6
BYLAYER
 10
94.000788067
 20
73.7461874308
 30
0.0
 11
-13.8413969858
 21
-18.0539960684
 31
0.0
 40
0.4395737976
 41
0.3250528237
 42
0.4504530526
  0
ELLIPSE
  5
2AF
100
AcDbEntity
  8
0
100
AcDbEllipse
 62
7
  6
BYLAYER
 10
21.7952224654
 20
92.5188538648
 30
0.0
 11
0.0
 21
24.3243243243
 31
0.0
 40
0.4111111111
 41
-3.210029978
 42
-3.1415926536
  0
ELLIPSE
  5
2B0
100
AcDbEntity
  8
0
100
AcDbEllipse
 62
7
  6
BYLAYER
 10
11.8836378405
 20
46.3948574163
 30
0.0
 11
13.2392591885
 21
25.9028984124
 31
0.0
 40
0.3437587053
 41
0.1739237121
 42
0.3632449108
  0
ELLIPSE
  5
2B1
100
AcDbEntity
  8
0
100
AcDbEllipse
 62
7
  6
BYLAYER
 10
21.7952224654
 20
41.4783133243
 30
0.0
 11
0.0
 21
16.2162162162
 31
0.0
 40
0.6166666667
 41
0.0
 42
0.1319235462
  0
ENDSEC
  0
SECTION
  2
OBJECTS
  0
DICTIONARY
  5
C
100
AcDbDictionary
280
0
281
1
  3
ACAD_GROUP
350
D
  3
ACAD_MLINESTYLE
350
17
  3
ACAD_LAYOUT
350
1A
  3
ACAD_PLOTSETTINGS
350
19
  3
ACAD_PLOTSTYLENAME
350
E
  0
DICTIONARY
  5
D
102
{ACAD_REACTORS
330
C
102
}
100
AcDbDictionary
280
0
281
1
  0
ACDBDICTIONARYWDFLT
  5
E
102
{ACAD_REACTORS
330
C
102
}
100
AcDbDictionary
281
1
  3
Normal
350
F
100
AcDbDictionaryWithDefault
340
F
  0
DICTIONARY
  5
17
102
{ACAD_REACTORS
330
C
102
}
100
AcDbDictionary
280
0
281
1
  3
Standard
350
18
  0
DICTIONARY
  5
19
102
{ACAD_REACTORS
330
C
102
}
100
AcDbDictionary
281
1
  0
DICTIONARY
  5
1A
102
{ACAD_REACTORS
330
C
102
}
100
AcDbDictionary
281
1
  3
Model
350
2B2
  3
Layout1
350
2B3
  0
ACDBPLACEHOLDER
  5
F
102
{ACAD_REACTORS
330
E
102
}
  0
MLINESTYLE
  5
18
102
{ACAD_REACTORS
330
17
102
}
100
AcDbMlineStyle
  2
STANDARD
 70
0
  3

 62
256
 51
90.0
 52
90.0
 71
2
 49
0.5
 62
256
  6
BYLAYER
 49
-0.5
 62
256
  6
BYLAYER
  0
LAYOUT
  5
2B2
102
{ACAD_REACTORS
330
1A
102
}
100
AcDbPlotSettings
  1

  2
none_device
  4

  6

 40
0.0
 41
0.0
 42
0.0
 43
0.0
 44
210.0
 45
297.0
 46
0.0
 47
0.0
 48
0.0
 49
0.0
140
0.0
141
0.0
142
1.0
143
1.0
 70
1024
 72
1
 73
0
 74
0
  7

 75
0
147
1.0
148
0.0
149
0.0
100
AcDbLayout
  1
Model
 70
0
 71
0
 10
0.0
 20
0.0
 11
210.0
 21
297.0
 12
0.0
 22
0.0
 32
0.0
 14
0.0
 24
0.0
 34
0.0
 15
0.0
 25
0.0
 35
0.0
146
0.0
 13
0.0
 23
0.0
 33
0.0
 16
1.0
 26
0.0
 36
0.0
 17
0.0
 27
1.0
 37
0.0
 76
0
330
210
345
0
346
0
  0
LAYOUT
  5
2B3
102
{ACAD_REACTORS
330
1A
102
}
100
AcDbPlotSettings
  1

  2
none_device
  4

  6

 40
0.0
 41
0.0
 42
0.0
 43
0.0
 44
210.0
 45
297.0
 46
0.0
 47
0.0
 48
0.0
 49
0.0
140
0.0
141
0.0
142
1.0
143
1.0
 70
0
 72
1
 73
0
 74
0
  7

 75
0
147
1.0
148
0.0
149
0.0
100
AcDbLayout
  1
Layout1
 70
0
 71
1
 10
0.0
 20
0.0
 11
210.0
 21
297.0
 12
0.0
 22
0.0
 32
0.0
 14
0.0
 24
0.0
 34
0.0
 15
0.0
 25
0.0
 35
0.0
146
0.0
 13
0.0
 23
0.0
 33
0.0
 16
1.0
 26
0.0
 36
0.0
 17
0.0
 27
1.0
 37
0.0
 76
0
330
211
345
0
346
0
  0
ENDSEC
  0
EOF
