999
DXF file: C:\Users\sesa63760\Dev\_Creo\CAD\MCADID0004354_3D-CAD\drw0001_1.dxf
999
Pro/ENGINEER 2019471 by Parametric Technology Corporation
  0
SECTION
  2
HEADER
  9
$ACADVER
  1
AC1024
  9
$DWGCODEPAGE
  3
ANSI_1252
  9
$EXTMAX
 10
31.9796377226
 20
45.2283447791
 30
0.0
  9
$EXTMIN
 10
0.0
 20
0.0
 30
0.0
  9
$LIMMIN
 10
0.0
 20
0.0
  9
$LIMMAX
 10
31.9796377226
 20
45.2283447791
  9
$VIEWCTR
 10
15.9898188613
 20
22.6141723896
  9
$VIEWSIZE
 40
45.2283447791
  9
$CLAYER
  8
0
  9
$LTSCALE
 40
2.94821803
  9
$CELTYPE
  6
BYLAYER
  9
$DIMSCALE
 40
1.0
  9
$DIMASZ
 40
0.3807099729
  9
$DIMEXO
 40
1.0
  9
$DIMDLI
 40
2.0369506389
  9
$DIMEXE
 40
1.0
  9
$DIMCEN
 40
0.4824356776
  9
$DIMLFAC
 40
1.0
  9
$DIMBLK
  1
_FILLED
  9
$DIMALT
 70
0
  9
$DIMALTF
 40
0.0393700787
  9
$DIMTXT
 40
0.532993962
  9
$DIMTOL
 70
1
  9
$DIMLIM
 70
0
  9
$DIMTFAC
 40
1.0
  9
$DIMTP
 40
0.01
  9
$DIMTM
 40
0.01
  9
$DIMGAP
 40
0.625
  9
$DIMDSEP
 70
46
  9
$AUNITS
 70
0
  9
$PDMODE
 70
3
  9
$PDSIZE
 40
0.3125
  9
$HANDSEED
  5
25B
  9
$TILEMODE
 70
1
  9
$MEASUREMENT
 70
1
  9
$INSUNITS
 70
4
  0
ENDSEC
  0
SECTION
  2
CLASSES
  0
CLASS
  1
ACDBDICTIONARYWDFLT
  2
AcDbDictionaryWithDefault
  3
AutoCAD 2000
 90
0
 91
1
280
0
281
0
  0
CLASS
  1
ACDBPLACEHOLDER
  2
AcDbPlaceHolder
  3
AutoCAD 2000
 90
0
 91
1
280
0
281
0
  0
CLASS
  1
LAYOUT
  2
AcDbLayout
  3
AutoCAD 2000
 90
0
 91
0
280
0
281
0
  0
ENDSEC
  0
SECTION
  2
TABLES
  0
TABLE
  2
VPORT
  5
8
100
AcDbSymbolTable
 70
2
  0
VPORT
  5
1F4
100
AcDbSymbolTableRecord
100
AcDbViewportTableRecord
  2
*ACTIVE
 70
0
 10
0.0
 20
0.0
 11
1.0
 21
1.0
 12
15.9898188613
 22
22.6141723896
 13
0.0
 23
0.0
 14
1.0
 24
1.0
 15
0.0
 25
0.0
 16
0.0
 26
0.0
 36
1.0
 17
0.0
 27
0.0
 37
0.0
 40
45.2283447791
 41
0.7070707071
 42
50.0
 43
0.0
 44
0.0
 50
0.0
 51
0.0
 71
0
 72
100
 73
1
 74
1
 75
0
 76
0
 77
0
 78
0
  0
ENDTAB
  0
TABLE
  2
LTYPE
  5
5
100
AcDbSymbolTable
 70
6
  0
LTYPE
  5
14
100
AcDbSymbolTableRecord
100
AcDbLinetypeTableRecord
  2
BYBLOCK
 70
0
  3

 72
65
 73
0
 40
0.0
  0
LTYPE
  5
15
100
AcDbSymbolTableRecord
100
AcDbLinetypeTableRecord
  2
BYLAYER
 70
0
  3

 72
65
 73
0
 40
0.0
  0
LTYPE
  5
16
100
AcDbSymbolTableRecord
100
AcDbLinetypeTableRecord
  2
CONTINUOUS
 70
64
  3
Solid line
 72
65
 73
0
 40
0.0
  0
LTYPE
  5
1F5
100
AcDbSymbolTableRecord
100
AcDbLinetypeTableRecord
  2
CENTER
 70
64
  3
____ _ ____ _ ____ _ ____ _ ____ _ ____ _ ____
 72
65
 73
4
 40
0.6
 49
0.375
 74
0
 49
-0.075
 74
0
 49
0.075
 74
0
 49
-0.075
 74
0
  0
LTYPE
  5
1F6
100
AcDbSymbolTableRecord
100
AcDbLinetypeTableRecord
  2
HIDDEN
 70
64
  3
- - - - - - - - - - - - - - - - - - - -
 72
65
 73
2
 40
0.2
 49
0.1
 74
0
 49
-0.1
 74
0
  0
LTYPE
  5
1F7
100
AcDbSymbolTableRecord
100
AcDbLinetypeTableRecord
  2
PHANTOM
 70
64
  3
_____ _ _ _____ _ _ _____ _ _ _____
 72
65
 73
6
 40
0.8
 49
0.45
 74
0
 49
-0.05
 74
0
 49
0.1
 74
0
 49
-0.05
 74
0
 49
0.1
 74
0
 49
-0.05
 74
0
  0
LTYPE
  5
1F8
100
AcDbSymbolTableRecord
100
AcDbLinetypeTableRecord
  2
DOT
 70
64
  3
. . . . . . . . . . . . . . . . . . . .
 72
65
 73
2
 40
0.2
 49
0.1
 74
0
 49
-0.1
 74
0
  0
LTYPE
  5
1F9
100
AcDbSymbolTableRecord
100
AcDbLinetypeTableRecord
  2
DASHED
 70
64
  3
- - - - - - - - - - - - - - - - - - - -
 72
65
 73
2
 40
0.2
 49
0.1
 74
0
 49
-0.1
 74
0
  0
ENDTAB
  0
TABLE
  2
LAYER
  5
2
100
AcDbSymbolTable
 70
36
  0
LAYER
  5
10
100
AcDbSymbolTableRecord
100
AcDbLayerTableRecord
  2
0
 70
0
 62
7
  6
CONTINUOUS
370
-3
390
F
  0
LAYER
  5
1FA
100
AcDbSymbolTableRecord
100
AcDbLayerTableRecord
  2
DEFAULT_1
 70
0
 62
7
  6
CENTER
370
-3
390
F
  0
LAYER
  5
1FB
100
AcDbSymbolTableRecord
100
AcDbLayerTableRecord
  2
DEFAULT_2
 70
0
 62
7
  6
HIDDEN
370
-3
390
F
  0
LAYER
  5
1FC
100
AcDbSymbolTableRecord
100
AcDbLayerTableRecord
  2
DEFAULT_3
 70
0
 62
7
  6
PHANTOM
370
-3
390
F
  0
LAYER
  5
1FD
100
AcDbSymbolTableRecord
100
AcDbLayerTableRecord
  2
00_COMPONENTS
 70
0
 62
7
  6
CONTINUOUS
370
-3
390
F
  0
LAYER
  5
1FE
100
AcDbSymbolTableRecord
100
AcDbLayerTableRecord
  2
01_1_DEFAULT_DATUMS
 70
0
 62
7
  6
CONTINUOUS
370
-3
390
F
  0
LAYER
  5
1FF
100
AcDbSymbolTableRecord
100
AcDbLayerTableRecord
  2
01_PLANES
 70
0
 62
7
  6
CONTINUOUS
370
-3
390
F
  0
LAYER
  5
200
100
AcDbSymbolTableRecord
100
AcDbLayerTableRecord
  2
02_COORD_SYS
 70
0
 62
7
  6
CONTINUOUS
370
-3
390
F
  0
LAYER
  5
201
100
AcDbSymbolTableRecord
100
AcDbLayerTableRecord
  2
03_AXES
 70
0
 62
7
  6
CONTINUOUS
370
-3
390
F
  0
LAYER
  5
202
100
AcDbSymbolTableRecord
100
AcDbLayerTableRecord
  2
04_POINTS
 70
0
 62
7
  6
CONTINUOUS
370
-3
390
F
  0
LAYER
  5
203
100
AcDbSymbolTableRecord
100
AcDbLayerTableRecord
  2
05_CURVES
 70
0
 62
7
  6
CONTINUOUS
370
-3
390
F
  0
LAYER
  5
204
100
AcDbSymbolTableRecord
100
AcDbLayerTableRecord
  2
06_SURFS
 70
0
 62
7
  6
CONTINUOUS
370
-3
390
F
  0
LAYER
  5
205
100
AcDbSymbolTableRecord
100
AcDbLayerTableRecord
  2
07_COSMETICS
 70
0
 62
7
  6
CONTINUOUS
370
-3
390
F
  0
LAYER
  5
206
100
AcDbSymbolTableRecord
100
AcDbLayerTableRecord
  2
10_NOTES
 70
0
 62
7
  6
CONTINUOUS
370
-3
390
F
  0
LAYER
  5
207
100
AcDbSymbolTableRecord
100
AcDbLayerTableRecord
  2
11_NOTES_PUB
 70
0
 62
7
  6
CONTINUOUS
370
-3
390
F
  0
LAYER
  5
208
100
AcDbSymbolTableRecord
100
AcDbLayerTableRecord
  2
13_REF_GTOL
 70
0
 62
7
  6
CONTINUOUS
370
-3
390
F
  0
LAYER
  5
209
100
AcDbSymbolTableRecord
100
AcDbLayerTableRecord
  2
16_MISC
 70
0
 62
7
  6
CONTINUOUS
370
-3
390
F
  0
LAYER
  5
20A
100
AcDbSymbolTableRecord
100
AcDbLayerTableRecord
  2
17_NO_PRINT
 70
0
 62
7
  6
CONTINUOUS
370
-3
390
F
  0
LAYER
  5
20B
100
AcDbSymbolTableRecord
100
AcDbLayerTableRecord
  2
18_DATUM_CAMS_JOINTS
 70
0
 62
7
  6
CONTINUOUS
370
-3
390
F
  0
LAYER
  5
20C
100
AcDbSymbolTableRecord
100
AcDbLayerTableRecord
  2
19_DATUM_FUNCTIONAL
 70
0
 62
7
  6
CONTINUOUS
370
-3
390
F
  0
LAYER
  5
20D
100
AcDbSymbolTableRecord
100
AcDbLayerTableRecord
  2
20_DATUM_KINEMATIC_SCHEME
 70
0
 62
7
  6
CONTINUOUS
370
-3
390
F
  0
ENDTAB
  0
TABLE
  2
STYLE
  5
3
100
AcDbSymbolTable
 70
1
  0
STYLE
  5
11
100
AcDbSymbolTableRecord
100
AcDbTextStyleTableRecord
  2
STANDARD
 70
0
 40
0.0
 41
1.0
 50
0.0
 71
0
 42
0.2
  3
ARIAL.TTF
  4

  0
STYLE
  5
20E
100
AcDbSymbolTableRecord
100
AcDbTextStyleTableRecord
  2
TEXTSTYLE_1
 70
0
 40
0.0
 41
0.8
 50
0.0
 71
0
 42
0.2
  3
gdt
  4

  0
ENDTAB
  0
TABLE
  2
VIEW
  5
6
100
AcDbSymbolTable
 70
0
  0
ENDTAB
  0
TABLE
  2
UCS
  5
7
100
AcDbSymbolTable
 70
0
  0
ENDTAB
  0
TABLE
  2
APPID
  5
9
100
AcDbSymbolTable
 70
1
  0
APPID
  5
20F
100
AcDbSymbolTableRecord
100
AcDbRegAppTableRecord
  2
ACAD
 70
0
  0
ENDTAB
  0
TABLE
  2
BLOCK_RECORD
  5
1
100
AcDbSymbolTable
 70
0
  0
BLOCK_RECORD
  5
210
100
AcDbSymbolTableRecord
100
AcDbBlockTableRecord
  2
*Model_Space
  0
BLOCK_RECORD
  5
211
100
AcDbSymbolTableRecord
100
AcDbBlockTableRecord
  2
*Paper_Space
  0
BLOCK_RECORD
  5
212
100
AcDbSymbolTableRecord
100
AcDbBlockTableRecord
  2
_FILLED
  0
ENDTAB
  0
TABLE
  2
DIMSTYLE
  5
A
100
AcDbSymbolTable
 70
1
100
AcDbDimStyleTable
 71
0
  0
DIMSTYLE
105
213
100
AcDbSymbolTableRecord
100
AcDbDimStyleTableRecord
  2
STANDARD
 70
0
  3

  4

 40
1.0
 41
0.3807099729
 42
1.0
 43
0.38
 44
1.0
 45
0.0
 46
0.0
 47
0.01
 48
0.01
140
0.532993962
141
0.09
142
0.0
143
25.4
144
1.0
145
0.0
146
1.0
147
0.625
 71
1
 72
0
 73
0
 74
0
 75
0
 76
0
 77
1
 78
8
 79
2
170
0
171
1
172
0
173
0
174
0
175
0
176
0
177
0
178
0
270
2
179
2
271
2
272
2
273
2
274
2
275
0
280
0
281
0
282
0
283
1
284
8
285
0
286
0
287
3
288
0
340
11
278
46
341
212
342
212
343
212
344
212
  0
ENDTAB
  0
ENDSEC
  0
SECTION
  2
BLOCKS
  0
BLOCK
  5
20
100
AcDbEntity
  8
0
100
AcDbBlockBegin
  2
*Model_Space
 70
0
 10
0.0
 20
0.0
 30
0.0
  3
*Model_Space
  1

  0
ENDBLK
  5
21
100
AcDbEntity
  8
0
100
AcDbBlockEnd
  0
BLOCK
  5
1C
100
AcDbEntity
  8
0
100
AcDbBlockBegin
  2
*Paper_Space
 70
0
 10
0.0
 20
0.0
 30
0.0
  3
*Paper_Space
  1

  0
ENDBLK
  5
1D
100
AcDbEntity
  8
0
100
AcDbBlockEnd
  0
BLOCK
  5
214
100
AcDbEntity
  8
0
100
AcDbBlockBegin
  2
_FILLED
 70
64
 10
0.0
 20
0.0
  3
_FILLED
  1

  0
SOLID
  5
215
100
AcDbEntity
  8
0
  6
BYBLOCK
 62
0
100
AcDbTrace
 10
0.0
 20
0.0
 11
-1.0
 21
0.25
 12
-1.0
 22
-0.25
 13
-1.0
 23
-0.25
  0
ENDBLK
  5
216
100
AcDbEntity
  8
0
  6
BYBLOCK
 62
0
100
AcDbBlockEnd
  0
ENDSEC
  0
SECTION
  2
ENTITIES
  0
LINE
  5
217
100
AcDbEntity
  8
0
100
AcDbLine
 62
7
  6
BYLAYER
 10
16.2381510771
 20
41.8479468319
 11
10.5813203794
 21
38.581993601
  0
LINE
  5
218
100
AcDbEntity
  8
0
100
AcDbLine
 62
7
  6
BYLAYER
 10
21.8950288783
 20
38.5820207958
 11
16.2381981806
 21
35.3160675648
  0
LINE
  5
219
100
AcDbEntity
  8
0
100
AcDbLine
 62
7
  6
BYLAYER
 10
14.1168088066
 20
12.86223358
 11
13.4096868628
 21
13.2705022939
  0
LINE
  5
21A
100
AcDbEntity
  8
0
100
AcDbLine
 62
7
  6
BYLAYER
 10
10.5813203794
 20
32.0499742639
 11
10.5813203794
 21
38.581993601
  0
LINE
  5
21B
100
AcDbEntity
  8
0
100
AcDbLine
 62
7
  6
BYLAYER
 10
21.8950288783
 20
32.0500014587
 11
16.2381981806
 21
28.7840482278
  0
LINE
  5
21C
100
AcDbEntity
  8
0
100
AcDbLine
 62
7
  6
BYLAYER
 10
11.7767593194
 20
22.9030704949
 11
11.7767593194
 21
21.8534820961
  0
LINE
  5
21D
100
AcDbEntity
  8
0
100
AcDbLine
 62
7
  6
BYLAYER
 10
12.2381746185
 20
14.9034371076
 11
12.2381746185
 21
18.7818236058
  0
LINE
  5
21E
100
AcDbEntity
  8
0
100
AcDbLine
 62
7
  6
BYLAYER
 10
13.2381746289
 20
18.7818236058
 11
13.2381746289
 21
20.7308632857
  0
LINE
  5
21F
100
AcDbEntity
  8
0
100
AcDbLine
 62
7
  6
BYLAYER
 10
15.0427592406
 20
21.0174872188
 11
15.0427592406
 21
19.9678988199
  0
LINE
  5
220
100
AcDbEntity
  8
0
100
AcDbLine
 62
7
  6
BYLAYER
 10
15.1381746289
 20
12.4811763989
 11
15.1381746289
 21
3.651852854
  0
LINE
  5
221
100
AcDbEntity
  8
0
100
AcDbLine
 62
7
  6
BYLAYER
 10
16.2381981806
 20
35.3160675648
 11
16.2381981806
 21
28.7840482278
  0
LINE
  5
222
100
AcDbEntity
  8
0
100
AcDbLine
 62
7
  6
BYLAYER
 10
17.3381746289
 20
12.4810508121
 11
17.3381746289
 21
4.281394986
  0
LINE
  5
223
100
AcDbEntity
  8
0
100
AcDbLine
 62
7
  6
BYLAYER
 10
19.2381746289
 20
18.7818236058
 11
19.2381746289
 21
20.5630799119
  0
LINE
  5
224
100
AcDbEntity
  8
0
100
AcDbLine
 62
7
  6
BYLAYER
 10
19.5041745501
 20
21.7076721962
 11
19.5041745501
 21
20.6580837974
  0
LINE
  5
225
100
AcDbEntity
  8
0
100
AcDbLine
 62
7
  6
BYLAYER
 10
20.2381746392
 20
14.9034371076
 11
20.2381746392
 21
18.7818236058
  0
LINE
  5
226
100
AcDbEntity
  8
0
100
AcDbLine
 62
7
  6
BYLAYER
 10
20.9176466278
 20
34.4386549318
 11
20.9374344338
 21
34.7631470171
  0
LINE
  5
227
100
AcDbEntity
  8
0
100
AcDbLine
 62
7
  6
BYLAYER
 10
20.6995899384
 20
24.2834404497
 11
20.6995899384
 21
23.2338520509
  0
LINE
  5
228
100
AcDbEntity
  8
0
100
AcDbLine
 62
7
  6
BYLAYER
 10
16.2381981806
 20
28.7840482278
 11
10.5813203794
 21
32.0499742639
  0
LINE
  5
229
100
AcDbEntity
  8
0
100
AcDbLine
 62
7
  6
BYLAYER
 10
21.8950288783
 20
32.0500014587
 11
21.8950288783
 21
38.5820207958
  0
LINE
  5
22A
100
AcDbEntity
  8
0
100
AcDbLine
 62
7
  6
BYLAYER
 10
18.3595038036
 20
12.8622124213
 11
19.0666135315
 21
13.2704740823
  0
LINE
  5
22B
100
AcDbEntity
  8
0
100
AcDbLine
 62
7
  6
BYLAYER
 10
10.5813203794
 20
38.581993601
 11
16.2381981806
 21
35.3160675648
  0
LINE
  5
22C
100
AcDbEntity
  8
0
100
AcDbLine
 62
7
  6
BYLAYER
 10
15.1386351588
 20
3.4907782883
 11
15.7020932544
 21
3.8160890296
  0
LINE
  5
22D
100
AcDbEntity
  8
0
100
AcDbLine
 62
7
  6
BYLAYER
 10
21.8950288783
 20
38.5820207958
 11
16.2381510771
 21
41.8479468319
  0
ARC
  5
22E
100
AcDbEntity
  8
0
100
AcDbCircle
 62
7
  6
BYLAYER
 10
18.2719335901
 20
12.1981660058
 40
14.2990808345
100
AcDbArc
 50
110.6217770541
 51
111.7548669207
  0
ARC
  5
22F
100
AcDbEntity
  8
0
100
AcDbCircle
 62
7
  6
BYLAYER
 10
16.945284354
 20
34.9077567753
 40
4.0
100
AcDbArc
 50
306.716741816
 51
353.265331352
  0
SPLINE
  5
230
100
AcDbEntity
  8
0
100
AcDbSpline
 62
7
  6
BYLAYER
 70
0
 71
3
 72
11
 73
7
 74
0
 42
0.0000001
 43
0.0000001
 44
0.0000000001
 40
0.0
 40
0.0
 40
0.0
 40
0.0
 40
0.2587665012
 40
0.5125488397
 40
0.760057399
 40
1.0
 40
1.0
 40
1.0
 40
1.0
 10
20.6995899384
 20
24.2834404497
 30
0.0
 10
20.5815647978
 20
24.3909225858
 30
0.0
 10
20.3446505371
 20
24.6004200318
 30
0.0
 10
19.9819034241
 20
24.8977167167
 30
0.0
 10
19.6151906345
 20
25.1711694896
 30
0.0
 10
19.3643902307
 20
25.3374584807
 30
0.0
 10
19.2384569171
 20
25.4152439465
 30
0.0
  0
SPLINE
  5
231
100
AcDbEntity
  8
0
100
AcDbSpline
 62
7
  6
BYLAYER
 70
0
 71
3
 72
13
 73
9
 74
0
 42
0.0000001
 43
0.0000001
 44
0.0000000001
 40
0.0
 40
0.0
 40
0.0
 40
0.0
 40
0.251680225
 40
0.5026294478
 40
0.6276729306
 40
0.7523099429
 40
0.8764527492
 40
1.0
 40
1.0
 40
1.0
 40
1.0
 10
19.5041745501
 20
20.6580837974
 30
0.0
 10
19.3230167299
 20
20.5858525775
 30
0.0
 10
18.9584227588
 20
20.4484739651
 30
0.0
 10
18.4953301689
 20
20.29895586
 30
0.0
 10
18.1213186888
 20
20.1957495687
 30
0.0
 10
17.8397723543
 20
20.1273865495
 30
0.0
 10
17.5572598241
 20
20.0685817173
 30
0.0
 10
17.3680781822
 20
20.0359195424
 30
0.0
 10
17.2734668954
 20
20.0212830909
 30
0.0
  0
SPLINE
  5
232
100
AcDbEntity
  8
0
100
AcDbSpline
 62
7
  6
BYLAYER
 70
0
 71
3
 72
11
 73
7
 74
0
 42
0.0000001
 43
0.0000001
 44
0.0000000001
 40
0.0
 40
0.0
 40
0.0
 40
0.0
 40
0.2936016986
 40
0.5559374547
 40
0.7899377057
 40
1.0
 40
1.0
 40
1.0
 40
1.0
 10
20.1018822442
 20
21.6542597064
 30
0.0
 10
20.053907648
 20
21.5508885744
 30
0.0
 10
19.9586983422
 20
21.3571170499
 30
0.0
 10
19.8080966952
 20
21.0898303359
 30
0.0
 10
19.6586578421
 20
20.8597224049
 30
0.0
 10
19.5552586875
 20
20.7216325335
 30
0.0
 10
19.5041745501
 20
20.6580837974
 30
0.0
  0
SPLINE
  5
233
100
AcDbEntity
  8
0
100
AcDbSpline
 62
7
  6
BYLAYER
 70
0
 71
3
 72
11
 73
7
 74
0
 42
0.0000001
 43
0.0000001
 44
0.0000000001
 40
0.0
 40
0.0
 40
0.0
 40
0.0
 40
0.2727720738
 40
0.5326331127
 40
0.7761317916
 40
1.0
 40
1.0
 40
1.0
 40
1.0
 10
20.6995899384
 20
23.2338520509
 30
0.0
 10
20.6519398885
 20
23.0877851173
 30
0.0
 10
20.5566940289
 20
22.8032728093
 30
0.0
 10
20.4090802287
 20
22.3917339864
 30
0.0
 10
20.2599236702
 20
22.0101657865
 30
0.0
 10
20.1549656495
 20
21.768638818
 30
0.0
 10
20.1018822442
 20
21.6542597064
 30
0.0
  0
SPLINE
  5
234
100
AcDbEntity
  8
0
100
AcDbSpline
 62
7
  6
BYLAYER
 70
0
 71
3
 72
11
 73
7
 74
0
 42
0.0000001
 43
0.0000001
 44
0.0000000001
 40
0.0
 40
0.0
 40
0.0
 40
0.0
 40
0.2238683258
 40
0.4673670085
 40
0.7272279746
 40
1.0
 40
1.0
 40
1.0
 40
1.0
 10
12.3744670135
 20
24.4826628394
 30
0.0
 10
12.3213835804
 20
24.3682836678
 30
0.0
 10
12.216425541
 20
24.1267566327
 30
0.0
 10
12.0672689642
 20
23.7451884111
 30
0.0
 10
11.9196551505
 20
23.3336496624
 30
0.0
 10
11.8244093608
 20
23.0491374027
 30
0.0
 10
11.7767593194
 20
22.9030704949
 30
0.0
  0
SPLINE
  5
235
100
AcDbEntity
  8
0
100
AcDbSpline
 62
7
  6
BYLAYER
 70
0
 71
3
 72
11
 73
7
 74
0
 42
0.0000001
 43
0.0000001
 44
0.0000000001
 40
0.0
 40
0.0
 40
0.0
 40
0.0
 40
0.2100624446
 40
0.4440627095
 40
0.7063984317
 40
1.0
 40
1.0
 40
1.0
 40
1.0
 10
12.9721747076
 20
25.4788387484
 30
0.0
 10
12.9210905339
 20
25.4152899672
 30
0.0
 10
12.8176914197
 20
25.2771999871
 30
0.0
 10
12.6682524754
 20
25.0470920601
 30
0.0
 10
12.5176508585
 20
24.7798053943
 30
0.0
 10
12.4224415882
 20
24.5860339251
 30
0.0
 10
12.3744670135
 20
24.4826628394
 30
0.0
  0
SPLINE
  5
236
100
AcDbEntity
  8
0
100
AcDbSpline
 62
7
  6
BYLAYER
 70
0
 71
3
 72
23
 73
19
 74
0
 42
0.0000001
 43
0.0000001
 44
0.0000000001
 40
0.0
 40
0.0
 40
0.0
 40
0.0
 40
0.0558296058
 40
0.1141829316
 40
0.1747835578
 40
0.2373535116
 40
0.3015497078
 40
0.3669933067
 40
0.433283787
 40
0.5000016814
 40
0.5667195658
 40
0.6330097829
 40
0.6984536025
 40
0.7626488928
 40
0.8252186588
 40
0.8858220921
 40
0.9441625621
 40
1.0
 40
1.0
 40
1.0
 40
1.0
 10
18.3595038043
 20
22.6602414265
 30
0.0
 10
18.2884416936
 20
22.6192139426
 30
0.0
 10
18.1394045751
 20
22.541592305
 30
0.0
 10
17.9029057499
 20
22.4407379957
 30
0.0
 10
17.6504730368
 20
22.3537272924
 30
0.0
 10
17.3845669266
 20
22.2813890808
 30
0.0
 10
17.1076976096
 20
22.2243894201
 30
0.0
 10
16.822510816
 20
22.1832835886
 30
0.0
 10
16.5317338521
 20
22.1584676775
 30
0.0
 10
16.2381474771
 20
22.1501667723
 30
0.0
 10
15.9445612312
 20
22.1584668919
 30
0.0
 10
15.653785327
 20
22.1832943462
 30
0.0
 10
15.368600069
 20
22.224399292
 30
0.0
 10
15.0917314175
 20
22.2813969452
 30
0.0
 10
14.8258259784
 20
22.3537478484
 30
0.0
 10
14.5734092575
 20
22.4407571124
 30
0.0
 10
14.3369085601
 20
22.5415996796
 30
0.0
 10
14.1878844687
 20
22.6192307323
 30
0.0
 10
14.1168129882
 20
22.6602650094
 30
0.0
  0
SPLINE
  5
237
100
AcDbEntity
  8
0
100
AcDbSpline
 62
7
  6
BYLAYER
 70
0
 71
3
 72
13
 73
9
 74
0
 42
0.0000001
 43
0.0000001
 44
0.0000000001
 40
0.0
 40
0.0
 40
0.0
 40
0.0
 40
0.2358941817
 40
0.4801191033
 40
0.6059217975
 40
0.7344294605
 40
0.8657769981
 40
1.0
 40
1.0
 40
1.0
 40
1.0
 10
15.0427592406
 20
19.9678988199
 30
0.0
 10
14.9080099927
 20
20.0007780245
 30
0.0
 10
14.6356175287
 20
20.0757039704
 30
0.0
 10
14.2989681284
 20
20.1932957242
 30
0.0
 10
14.0279078732
 20
20.3050429813
 30
0.0
 10
13.8216531471
 20
20.3994164084
 30
0.0
 10
13.614767215
 20
20.5038857589
 30
0.0
 10
13.4781075148
 20
20.5795222612
 30
0.0
 10
13.40975928
 20
20.6189822403
 30
0.0
  0
SPLINE
  5
238
100
AcDbEntity
  8
0
100
AcDbSpline
 62
7
  6
BYLAYER
 70
0
 71
3
 72
13
 73
9
 74
0
 42
0.0000001
 43
0.0000001
 44
0.0000000001
 40
0.0
 40
0.0
 40
0.0
 40
0.0
 40
0.1277130851
 40
0.254682184
 40
0.3808516675
 40
0.5062128281
 40
0.7545510597
 40
1.0
 40
1.0
 40
1.0
 40
1.0
 10
17.2734668954
 20
20.0212830909
 30
0.0
 10
17.1793633375
 20
20.0067251855
 30
0.0
 10
16.9911825281
 20
19.9809550785
 30
0.0
 10
16.7086150272
 20
19.9522917111
 30
0.0
 10
16.4269761185
 20
19.9334903233
 30
0.0
 10
16.0544271387
 20
19.9209668165
 30
0.0
 10
15.5925439563
 20
19.9269651359
 30
0.0
 10
15.2250404832
 20
19.9516178149
 30
0.0
 10
15.0427592406
 20
19.9678988199
 30
0.0
  0
SPLINE
  5
239
100
AcDbEntity
  8
0
100
AcDbSpline
 62
7
  6
BYLAYER
 70
0
 71
3
 72
11
 73
7
 74
0
 42
0.0000001
 43
0.0000001
 44
0.0000000001
 40
0.0
 40
0.0
 40
0.0
 40
0.0
 40
0.2381644744
 40
0.4852570595
 40
0.7397461291
 40
1.0
 40
1.0
 40
1.0
 40
1.0
 10
13.40975928
 20
20.6189822403
 30
0.0
 10
13.2687600854
 20
20.7003863216
 30
0.0
 10
12.9876090789
 20
20.8770492204
 30
0.0
 10
12.577616995
 20
21.1735529086
 30
0.0
 10
12.172363407
 20
21.5009750914
 30
0.0
 10
11.9082995519
 20
21.7336921504
 30
0.0
 10
11.7767593194
 20
21.8534820961
 30
0.0
  0
SPLINE
  5
23A
100
AcDbEntity
  8
0
100
AcDbSpline
 62
7
  6
BYLAYER
 70
0
 71
3
 72
13
 73
9
 74
0
 42
0.0000001
 43
0.0000001
 44
0.0000000001
 40
0.0
 40
0.0
 40
0.0
 40
0.0
 40
0.251680225
 40
0.5026294478
 40
0.6276729306
 40
0.7523099429
 40
0.8764527492
 40
1.0
 40
1.0
 40
1.0
 40
1.0
 10
15.0427592406
 20
21.0174872188
 30
0.0
 10
15.2239170609
 20
21.0897184386
 30
0.0
 10
15.5885110319
 20
21.227097051
 30
0.0
 10
16.0516036219
 20
21.3766151561
 30
0.0
 10
16.4256151019
 20
21.4798214474
 30
0.0
 10
16.7071614365
 20
21.5481844667
 30
0.0
 10
16.9896739667
 20
21.6069892988
 30
0.0
 10
17.1788556086
 20
21.6396514737
 30
0.0
 10
17.2734668954
 20
21.6542879252
 30
0.0
  0
SPLINE
  5
23B
100
AcDbEntity
  8
0
100
AcDbSpline
 62
7
  6
BYLAYER
 70
0
 71
3
 72
11
 73
7
 74
0
 42
0.0000001
 43
0.0000001
 44
0.0000000001
 40
0.0
 40
0.0
 40
0.0
 40
0.0
 40
0.2381644744
 40
0.4852570595
 40
0.7397461291
 40
1.0
 40
1.0
 40
1.0
 40
1.0
 10
13.40975928
 20
22.2519870745
 30
0.0
 10
13.5507584746
 20
22.1705829932
 30
0.0
 10
13.8319094811
 20
21.9939200944
 30
0.0
 10
14.241901565
 20
21.6974164063
 30
0.0
 10
14.647155153
 20
21.3699942235
 30
0.0
 10
14.9112190081
 20
21.1372771645
 30
0.0
 10
15.0427592406
 20
21.0174872188
 30
0.0
  0
SPLINE
  5
23C
100
AcDbEntity
  8
0
100
AcDbSpline
 62
7
  6
BYLAYER
 70
0
 71
3
 72
13
 73
9
 74
0
 42
0.0000001
 43
0.0000001
 44
0.0000000001
 40
0.0
 40
0.0
 40
0.0
 40
0.0
 40
0.2358941817
 40
0.4801191033
 40
0.6059217975
 40
0.7344294605
 40
0.8657769981
 40
1.0
 40
1.0
 40
1.0
 40
1.0
 10
11.7767593194
 20
22.9030704949
 30
0.0
 10
11.9115085672
 20
22.8701912903
 30
0.0
 10
12.1839010313
 20
22.7952653445
 30
0.0
 10
12.5205504316
 20
22.6776735906
 30
0.0
 10
12.7916106868
 20
22.5659263335
 30
0.0
 10
12.9978654129
 20
22.4715529065
 30
0.0
 10
13.204751345
 20
22.3670835559
 30
0.0
 10
13.3414110452
 20
22.2914470536
 30
0.0
 10
13.40975928
 20
22.2519870745
 30
0.0
  0
SPLINE
  5
23D
100
AcDbEntity
  8
0
100
AcDbSpline
 62
7
  6
BYLAYER
 70
0
 71
3
 72
28
 73
24
 74
0
 42
0.0000001
 43
0.0000001
 44
0.0000000001
 40
0.0
 40
0.0
 40
0.0
 40
0.0
 40
0.0742857106
 40
0.1447163939
 40
0.2113117716
 40
0.2742571887
 40
0.3339221157
 40
0.3627149932
 40
0.3909185486
 40
0.4186350786
 40
0.4459759602
 40
0.4730614625
 40
0.5000179531
 40
0.5269743919
 40
0.554060221
 40
0.5814012176
 40
0.6091174623
 40
0.6660731541
 40
0.7257399326
 40
0.7886843727
 40
0.8552773838
 40
0.9257266468
 40
1.0
 40
1.0
 40
1.0
 40
1.0
 10
14.1168129882
 20
22.6602650094
 30
0.0
 10
14.0491450727
 20
22.6993341827
 30
0.0
 10
13.9203741231
 20
22.7809450833
 30
0.0
 10
13.7443400168
 20
22.9172147233
 30
0.0
 10
13.5920800743
 20
23.0629668292
 30
0.0
 10
13.4651065043
 20
23.2168508363
 30
0.0
 10
13.3804487573
 20
23.3524075041
 30
0.0
 10
13.327274854
 20
23.4631084206
 30
0.0
 10
13.2948859186
 20
23.5462167204
 30
0.0
 10
13.2695972373
 20
23.6301610649
 30
0.0
 10
13.2514835626
 20
23.714743377
 30
0.0
 10
13.2406037059
 20
23.7997530795
 30
0.0
 10
13.236968983
 20
23.884975557
 30
0.0
 10
13.2405992241
 20
23.97019935
 30
0.0
 10
13.2514935056
 20
24.0552068708
 30
0.0
 10
13.2696049829
 20
24.1397922817
 30
0.0
 10
13.3036110851
 20
24.2527136674
 30
0.0
 10
13.3647333713
 20
24.392399065
 30
0.0
 10
13.4651222461
 20
24.5530759663
 30
0.0
 10
13.5920943141
 20
24.7069908049
 30
0.0
 10
13.744368259
 20
24.852743081
 30
0.0
 10
13.9204177685
 20
24.9890016815
 30
0.0
 10
14.0491882242
 20
25.0706242672
 30
0.0
 10
14.1168454534
 20
25.1096859536
 30
0.0
  0
SPLINE
  5
23E
100
AcDbEntity
  8
0
100
AcDbSpline
 62
7
  6
BYLAYER
 70
0
 71
3
 72
15
 73
11
 74
0
 42
0.0000001
 43
0.0000001
 44
0.0000000001
 40
0.0
 40
0.0
 40
0.0
 40
0.0
 40
0.1337706191
 40
0.265708359
 40
0.3953886283
 40
0.5224949239
 40
0.6467518968
 40
0.7679140739
 40
0.8857487699
 40
1.0
 40
1.0
 40
1.0
 40
1.0
 10
17.2734668954
 20
21.6542879252
 30
0.0
 10
17.357215575
 20
21.6672439216
 30
0.0
 10
17.5230789395
 20
21.6962555823
 30
0.0
 10
17.7679343174
 20
21.7493688931
 30
0.0
 10
18.0062740615
 20
21.8116217169
 30
0.0
 10
18.2370446847
 20
21.8827153282
 30
0.0
 10
18.4592844379
 20
21.9623665111
 30
0.0
 10
18.6720740945
 20
22.0502339311
 30
0.0
 10
18.8744589159
 20
22.1459531209
 30
0.0
 10
19.0039312138
 20
22.2158112362
 30
0.0
 10
19.0666135294
 20
22.252000672
 30
0.0
  0
SPLINE
  5
23F
100
AcDbEntity
  8
0
100
AcDbSpline
 62
7
  6
BYLAYER
 70
0
 71
3
 72
19
 73
15
 74
0
 42
0.0000001
 43
0.0000001
 44
0.0000000001
 40
0.0
 40
0.0
 40
0.0
 40
0.0
 40
0.054577078
 40
0.1108655367
 40
0.1687427092
 40
0.2281002177
 40
0.2888216351
 40
0.3507649649
 40
0.4137761101
 40
0.4776915131
 40
0.6075229362
 40
0.7388458449
 40
0.8701687123
 40
1.0
 40
1.0
 40
1.0
 40
1.0
 10
13.40975928
 20
22.2519870745
 30
0.0
 10
13.4724423116
 20
22.2157978281
 30
0.0
 10
13.6019156955
 20
22.145940639
 30
0.0
 10
13.8043004761
 20
22.0502227312
 30
0.0
 10
14.0170905427
 20
21.9623549331
 30
0.0
 10
14.239336487
 20
21.8827039249
 30
0.0
 10
14.4701109519
 20
21.8116145642
 30
0.0
 10
14.7084311431
 20
21.7493662613
 30
0.0
 10
14.9532871313
 20
21.6962482922
 30
0.0
 10
15.2887830755
 20
21.6375789199
 30
0.0
 10
15.7175753211
 20
21.5886292503
 30
0.0
 10
16.2381939161
 20
21.5690424973
 30
0.0
 10
16.7587970168
 20
21.5886282922
 30
0.0
 10
17.1033096867
 20
21.6279644513
 30
0.0
 10
17.2734668954
 20
21.6542879252
 30
0.0
  0
SPLINE
  5
240
100
AcDbEntity
  8
0
100
AcDbSpline
 62
7
  6
BYLAYER
 70
0
 71
3
 72
23
 73
19
 74
0
 42
0.0000001
 43
0.0000001
 44
0.0000000001
 40
0.0
 40
0.0
 40
0.0
 40
0.0
 40
0.0583030167
 40
0.1152944982
 40
0.1713525301
 40
0.2269324753
 40
0.2825149268
 40
0.3385704183
 40
0.3955491388
 40
0.4538654478
 40
0.5138862358
 40
0.5759184159
 40
0.6402096804
 40
0.706939583
 40
0.7762344392
 40
0.8481756931
 40
0.9227892487
 40
1.0
 40
1.0
 40
1.0
 40
1.0
 10
12.3744670135
 20
24.4826628394
 30
0.0
 10
12.3521996562
 20
24.4346832395
 30
0.0
 10
12.3128264607
 20
24.3375431761
 30
0.0
 10
12.2698275571
 20
24.1878489254
 30
0.0
 10
12.24394562
 20
24.0367405651
 30
0.0
 10
12.2353001436
 20
23.8849518962
 30
0.0
 10
12.2439553369
 20
23.7331653947
 30
0.0
 10
12.2698304738
 20
23.5820713882
 30
0.0
 10
12.3128277267
 20
23.4323653051
 30
0.0
 10
12.37268922
 20
23.2847030887
 30
0.0
 10
12.4491492214
 20
23.1397352578
 30
0.0
 10
12.5418188499
 20
22.9980595692
 30
0.0
 10
12.6503012153
 20
22.8602887764
 30
0.0
 10
12.7740835538
 20
22.7269726483
 30
0.0
 10
12.9126527371
 20
22.598677644
 30
0.0
 10
13.065413105
 20
22.4759115628
 30
0.0
 10
13.2316947814
 20
22.3592277989
 30
0.0
 10
13.349094844
 20
22.2870109107
 30
0.0
 10
13.40975928
 20
22.2519870745
 30
0.0
  0
SPLINE
  5
241
100
AcDbEntity
  8
0
100
AcDbSpline
 62
7
  6
BYLAYER
 70
0
 71
3
 72
11
 73
7
 74
0
 42
0.0000001
 43
0.0000001
 44
0.0000000001
 40
0.0
 40
0.0
 40
0.0
 40
0.0
 40
0.2745014391
 40
0.5318420736
 40
0.7730252131
 40
1.0
 40
1.0
 40
1.0
 40
1.0
 10
13.2178315187
 20
25.3990394527
 30
0.0
 10
13.1218260814
 20
25.3352027561
 30
0.0
 10
12.9419111062
 20
25.2019070921
 30
0.0
 10
12.7052330603
 20
24.9783951306
 30
0.0
 10
12.5134093998
 20
24.7403534161
 30
0.0
 10
12.4145985005
 20
24.5691343799
 30
0.0
 10
12.3744670135
 20
24.4826628394
 30
0.0
  0
SPLINE
  5
242
100
AcDbEntity
  8
0
100
AcDbSpline
 62
7
  6
BYLAYER
 70
0
 71
3
 72
22
 73
18
 74
0
 42
0.0000001
 43
0.0000001
 44
0.0000000001
 40
0.0
 40
0.0
 40
0.0
 40
0.0
 40
0.0593560874
 40
0.1174456777
 40
0.1745959932
 40
0.2312017823
 40
0.2876873411
 40
0.3444737119
 40
0.4019668206
 40
0.4605494645
 40
0.5205685809
 40
0.5823272467
 40
0.6460780467
 40
0.7120231704
 40
0.7803088401
 40
0.8510403432
 40
1.0
 40
1.0
 40
1.0
 40
1.0
 10
20.1018822442
 20
23.2872645407
 30
0.0
 10
20.1226708337
 20
23.3320578312
 30
0.0
 10
20.1597380381
 20
23.4226540395
 30
0.0
 10
20.2014007888
 20
23.56205183
 30
0.0
 10
20.2282084307
 20
23.7027490173
 30
0.0
 10
20.2400493439
 20
23.8441519071
 30
0.0
 10
20.2368594721
 20
23.9857134573
 30
0.0
 10
20.2186760471
 20
24.1268781679
 30
0.0
 10
20.1855634215
 20
24.2670876437
 30
0.0
 10
20.1376754035
 20
24.405795209
 30
0.0
 10
20.0752205391
 20
24.542475541
 30
0.0
 10
19.9984526692
 20
24.6766164528
 30
0.0
 10
19.9076878269
 20
24.8077325787
 30
0.0
 10
19.8032716285
 20
24.9353320731
 30
0.0
 10
19.6856169825
 20
25.0589767829
 30
0.0
 10
19.5086509869
 20
25.2206959326
 30
0.0
 10
19.3617168397
 20
25.3304192011
 30
0.0
 10
19.2585187054
 20
25.3990385968
 30
0.0
  0
SPLINE
  5
243
100
AcDbEntity
  8
0
100
AcDbSpline
 62
7
  6
BYLAYER
 70
0
 71
3
 72
15
 73
11
 74
0
 42
0.0000001
 43
0.0000001
 44
0.0000000001
 40
0.0
 40
0.0
 40
0.0
 40
0.0
 40
0.1413764765
 40
0.2779978829
 40
0.4097274173
 40
0.5366082042
 40
0.658787907
 40
0.7765148654
 40
0.8901230112
 40
1.0
 40
1.0
 40
1.0
 40
1.0
 10
19.0666135294
 20
22.252000672
 30
0.0
 10
19.1272773165
 20
22.2870247167
 30
0.0
 10
19.2446764446
 20
22.3592418774
 30
0.0
 10
19.4109569239
 20
22.4759271032
 30
0.0
 10
19.5637143814
 20
22.5986954068
 30
0.0
 10
19.7022800519
 20
22.726988663
 30
0.0
 10
19.8260634534
 20
22.8603004263
 30
0.0
 10
19.9345513214
 20
22.998086542
 30
0.0
 10
20.0272083825
 20
23.1397568146
 30
0.0
 10
20.0789639555
 20
23.2378823751
 30
0.0
 10
20.1018822442
 20
23.2872645407
 30
0.0
  0
SPLINE
  5
244
100
AcDbEntity
  8
0
100
AcDbSpline
 62
7
  6
BYLAYER
 70
0
 71
3
 72
47
 73
43
 74
0
 42
0.0000001
 43
0.0000001
 44
0.0000000001
 40
0.0
 40
0.0
 40
0.0
 40
0.0
 40
0.0325395349
 40
0.0665499647
 40
0.1018701868
 40
0.1383381953
 40
0.1757540362
 40
0.2138969162
 40
0.2525334057
 40
0.291419033
 40
0.330304688
 40
0.3689411246
 40
0.4070842983
 40
0.4444998375
 40
0.4809680199
 40
0.5162902116
 40
0.550293524
 40
0.5828380324
 40
0.6138250883
 40
0.6287207496
 40
0.6432131552
 40
0.6573048314
 40
0.6710030579
 40
0.6843201283
 40
0.6972723843
 40
0.7221605328
 40
0.7341709407
 40
0.7459355075
 40
0.7574969041
 40
0.7689015891
 40
0.7801997307
 40
0.7914440418
 40
0.8026883168
 40
0.8139865514
 40
0.8253912131
 40
0.8369523933
 40
0.8607101086
 40
0.8855986889
 40
0.9118544832
 40
0.9396322177
 40
0.9690185276
 40
1.0
 40
1.0
 40
1.0
 40
1.0
 10
14.1168454534
 20
25.1096859536
 30
0.0
 10
14.1879063398
 20
25.1507127306
 30
0.0
 10
14.336940779
 20
25.2283331129
 30
0.0
 10
14.5734351926
 20
25.3291860779
 30
0.0
 10
14.8258630419
 20
25.4161959309
 30
0.0
 10
15.0917639634
 20
25.488533821
 30
0.0
 10
15.3686279001
 20
25.5455337185
 30
0.0
 10
15.6538092628
 20
25.5866403564
 30
0.0
 10
15.9445808884
 20
25.6114576518
 30
0.0
 10
16.2381621588
 20
25.6197605169
 30
0.0
 10
16.5317436887
 20
25.611462904
 30
0.0
 10
16.8225153601
 20
25.5866385076
 30
0.0
 10
17.1076971662
 20
25.5455370427
 30
0.0
 10
17.3845626697
 20
25.4885435705
 30
0.0
 10
17.650467545
 20
25.4161963064
 30
0.0
 10
17.9028786609
 20
25.329194346
 30
0.0
 10
18.13939613
 20
25.2283475527
 30
0.0
 10
18.3577543342
 20
25.1146059993
 30
0.0
 10
18.5250506721
 20
25.0085871487
 30
0.0
 10
18.6475438067
 20
24.9180871179
 30
0.0
 10
18.732425615
 20
24.8486103267
 30
0.0
 10
18.8113105559
 20
24.7768012887
 30
0.0
 10
18.8840051361
 20
24.702829442
 30
0.0
 10
18.9503488906
 20
24.6268698695
 30
0.0
 10
19.0290382958
 20
24.5245766891
 30
0.0
 10
19.095886044
 20
24.4175467072
 30
0.0
 10
19.1490612646
 20
24.3068489008
 30
0.0
 10
19.1814537725
 20
24.2237386577
 30
0.0
 10
19.2067450746
 20
24.1397933609
 30
0.0
 10
19.2248613456
 20
24.055209725
 30
0.0
 10
19.2357435109
 20
23.970198693
 30
0.0
 10
19.2393803141
 20
23.8849747981
 30
0.0
 10
19.2357519101
 20
23.7997495351
 30
0.0
 10
19.2248592117
 20
23.7147404963
 30
0.0
 10
19.2067490618
 20
23.6301535335
 30
0.0
 10
19.1727444157
 20
23.51723005
 30
0.0
 10
19.1116232752
 20
23.3775419367
 30
0.0
 10
19.0112347327
 20
23.2168618476
 30
0.0
 10
18.8842620198
 20
23.0629439694
 30
0.0
 10
18.7319865166
 20
22.9171888706
 30
0.0
 10
18.5559346029
 20
22.7809277303
 30
0.0
 10
18.4271621435
 20
22.6993037536
 30
0.0
 10
18.3595038043
 20
22.6602414265
 30
0.0
  0
SPLINE
  5
245
100
AcDbEntity
  8
0
100
AcDbSpline
 62
7
  6
BYLAYER
 70
0
 71
3
 72
13
 73
9
 74
0
 42
0.0000001
 43
0.0000001
 44
0.0000000001
 40
0.0
 40
0.0
 40
0.0
 40
0.0
 40
0.1277130851
 40
0.254682184
 40
0.3808516675
 40
0.5062128281
 40
0.7545510597
 40
1.0
 40
1.0
 40
1.0
 40
1.0
 10
17.2734668954
 20
21.6542879252
 30
0.0
 10
17.3675704533
 20
21.6688458306
 30
0.0
 10
17.5557512627
 20
21.6946159377
 30
0.0
 10
17.8383187636
 20
21.723279305
 30
0.0
 10
18.1199576722
 20
21.7420806928
 30
0.0
 10
18.4925066521
 20
21.7546041997
 30
0.0
 10
18.9543898344
 20
21.7486058802
 30
0.0
 10
19.3218933075
 20
21.7239532012
 30
0.0
 10
19.5041745501
 20
21.7076721962
 30
0.0
  0
SPLINE
  5
246
100
AcDbEntity
  8
0
100
AcDbSpline
 62
7
  6
BYLAYER
 70
0
 71
3
 72
11
 73
7
 74
0
 42
0.0000001
 43
0.0000001
 44
0.0000000001
 40
0.0
 40
0.0
 40
0.0
 40
0.0
 40
0.2727720738
 40
0.5326331127
 40
0.7761317916
 40
1.0
 40
1.0
 40
1.0
 40
1.0
 10
19.5041745501
 20
21.7076721962
 30
0.0
 10
19.5518246
 20
21.8537391298
 30
0.0
 10
19.6470704596
 20
22.1382514378
 30
0.0
 10
19.7946842597
 20
22.5497902607
 30
0.0
 10
19.9438408183
 20
22.9313584606
 30
0.0
 10
20.048798839
 20
23.1728854291
 30
0.0
 10
20.1018822442
 20
23.2872645407
 30
0.0
  0
SPLINE
  5
247
100
AcDbEntity
  8
0
100
AcDbSpline
 62
7
  6
BYLAYER
 70
0
 71
3
 72
11
 73
7
 74
0
 42
0.0000001
 43
0.0000001
 44
0.0000000001
 40
0.0
 40
0.0
 40
0.0
 40
0.0
 40
0.2936016986
 40
0.5559374547
 40
0.7899377057
 40
1.0
 40
1.0
 40
1.0
 40
1.0
 10
20.1018822442
 20
23.2872645407
 30
0.0
 10
20.1498568405
 20
23.3906356727
 30
0.0
 10
20.2450661463
 20
23.5844071972
 30
0.0
 10
20.3956677933
 20
23.8516939112
 30
0.0
 10
20.5451066464
 20
24.0818018422
 30
0.0
 10
20.648505801
 20
24.2198917136
 30
0.0
 10
20.6995899384
 20
24.2834404497
 30
0.0
  0
SPLINE
  5
248
100
AcDbEntity
  8
0
100
AcDbSpline
 62
7
  6
BYLAYER
 70
0
 71
3
 72
14
 73
10
 74
0
 42
0.0000001
 43
0.0000001
 44
0.0000000001
 40
0.0
 40
0.0
 40
0.0
 40
0.0
 40
0.28491187
 40
0.4169645712
 40
0.5425565714
 40
0.662464944
 40
0.7777355008
 40
0.8897203047
 40
1.0
 40
1.0
 40
1.0
 40
1.0
 10
13.2044470611
 20
20.2869375952
 30
0.0
 10
13.0577391993
 20
20.1883592054
 30
0.0
 10
12.8533648349
 20
20.0265975857
 30
0.0
 10
12.6245093137
 20
19.7790669255
 30
0.0
 10
12.485445194
 20
19.5898976007
 30
0.0
 10
12.3758279887
 20
19.3940588124
 30
0.0
 10
12.2967090181
 20
19.1929722991
 30
0.0
 10
12.2488799481
 20
18.9883530933
 30
0.0
 10
12.2381795537
 20
18.8502379296
 30
0.0
 10
12.2381858777
 20
18.7818236512
 30
0.0
  0
SPLINE
  5
249
100
AcDbEntity
  8
0
100
AcDbSpline
 62
7
  6
BYLAYER
 70
0
 71
3
 72
21
 73
17
 74
0
 42
0.0000001
 43
0.0000001
 44
0.0000000001
 40
0.0
 40
0.0
 40
0.0
 40
0.0
 40
0.0558178573
 40
0.114191781
 40
0.1748106506
 40
0.2373804107
 40
0.3015821259
 40
0.3670346423
 40
0.5000005993
 40
0.6329689927
 40
0.698420024
 40
0.762623189
 40
0.825199498
 40
0.8858102334
 40
0.9441556503
 40
1.0
 40
1.0
 40
1.0
 40
1.0
 10
18.3595038036
 20
12.8622124213
 30
0.0
 10
18.2884643956
 20
12.8211980448
 30
0.0
 10
18.1394227958
 20
12.7435974976
 30
0.0
 10
17.9029263045
 20
12.6427087842
 30
0.0
 10
17.6504627556
 20
12.5556995978
 30
0.0
 10
17.3845569346
 20
12.4833488055
 30
0.0
 10
17.1076860967
 20
12.4263748166
 30
0.0
 10
16.7255039472
 20
12.3712726896
 30
0.0
 10
16.2381486318
 20
12.3439428806
 30
0.0
 10
15.7507964172
 20
12.3712807916
 30
0.0
 10
15.3686104127
 20
12.4263808726
 30
0.0
 10
15.0917312881
 20
12.483363681
 30
0.0
 10
14.8258303178
 20
12.5557313892
 30
0.0
 10
14.5734081005
 20
12.6427223103
 30
0.0
 10
14.3369169679
 20
12.743586861
 30
0.0
 10
14.1878853291
 20
12.8212009107
 30
0.0
 10
14.1168128869
 20
12.8622359361
 30
0.0
  0
LINE
  5
24A
100
AcDbEntity
  8
0
100
AcDbLine
 62
7
  6
BYLAYER
 10
15.1381744234
 20
3.6518525596
 11
15.1386351588
 21
3.4907782883
  0
SPLINE
  5
24B
100
AcDbEntity
  8
0
100
AcDbSpline
 62
7
  6
BYLAYER
 70
0
 71
3
 72
25
 73
21
 74
0
 42
0.0000001
 43
0.0000001
 44
0.0000000001
 40
0.0
 40
0.0
 40
0.0
 40
0.0
 40
0.0576593154
 40
0.1164125671
 40
0.1756789117
 40
0.2348396392
 40
0.2933307651
 40
0.3222838945
 40
0.3510619788
 40
0.3797661102
 40
0.408548438
 40
0.4669237841
 40
0.5273641745
 40
0.5903752372
 40
0.6559887116
 40
0.7239031773
 40
0.7935049043
 40
0.8637976868
 40
0.9333024408
 40
1.0
 40
1.0
 40
1.0
 40
1.0
 10
17.3381748567
 20
4.2813946851
 30
0.0
 10
17.3381749577
 20
4.2408575359
 30
0.0
 10
17.3320221286
 20
4.1589127612
 30
0.0
 10
17.3057551053
 20
4.0378532351
 30
0.0
 10
17.2624569598
 20
3.9205772267
 30
0.0
 10
17.2017853644
 20
3.8113812795
 30
0.0
 10
17.1357714442
 20
3.7312210501
 30
0.0
 10
17.0740793164
 20
3.6774017037
 30
0.0
 10
17.0238274835
 20
3.6429704179
 30
0.0
 10
16.9698869163
 20
3.614921876
 30
0.0
 10
16.8935138251
 20
3.5861079106
 30
0.0
 10
16.7908396817
 20
3.5663043523
 30
0.0
 10
16.6625893975
 20
3.5644712619
 30
0.0
 10
16.5302261734
 20
3.5789112113
 30
0.0
 10
16.3944976429
 20
3.6053455649
 30
0.0
 10
16.2560266939
 20
3.6404742221
 30
0.0
 10
16.1158079348
 20
3.6815779349
 30
0.0
 10
15.9755126208
 20
3.7262089823
 30
0.0
 10
15.8376118574
 20
3.771587625
 30
0.0
 10
15.7467172373
 20
3.801716359
 30
0.0
 10
15.7020865339
 20
3.8161006699
 30
0.0
  0
SPLINE
  5
24C
100
AcDbEntity
  8
0
100
AcDbSpline
 62
7
  6
BYLAYER
 70
0
 71
3
 72
13
 73
9
 74
0
 42
0.0000001
 43
0.0000001
 44
0.0000000001
 40
0.0
 40
0.0
 40
0.0
 40
0.0
 40
0.3443272406
 40
0.4904763584
 40
0.6198937955
 40
0.7337127809
 40
0.8334553603
 40
1.0
 40
1.0
 40
1.0
 40
1.0
 10
15.4604587322
 20
3.8875130586
 30
0.0
 10
15.4308527935
 20
3.8949138275
 30
0.0
 10
15.3883706568
 20
3.9043767705
 30
0.0
 10
15.3340238615
 20
3.912597099
 30
0.0
 10
15.2996267388
 20
3.9156462498
 30
0.0
 10
15.2691636766
 20
3.9158556059
 30
0.0
 10
15.235651588
 20
3.9125527014
 30
0.0
 10
15.2124907677
 20
3.9054508887
 30
0.0
 10
15.1997077814
 20
3.8980707355
 30
0.0
  0
SPLINE
  5
24D
100
AcDbEntity
  8
0
100
AcDbSpline
 62
7
  6
BYLAYER
 70
0
 71
3
 72
10
 73
6
 74
0
 42
0.0000001
 43
0.0000001
 44
0.0000000001
 40
0.0
 40
0.0
 40
0.0
 40
0.0
 40
0.2739780158
 40
0.533449182
 40
1.0
 40
1.0
 40
1.0
 40
1.0
 10
15.7020850924
 20
3.8160998376
 30
0.0
 10
15.6801812869
 20
3.8231593532
 30
0.0
 10
15.6374545147
 20
3.8366622424
 30
0.0
 10
15.5571736758
 20
3.8613592094
 30
0.0
 10
15.4984777371
 20
3.8780092267
 30
0.0
 10
15.4604587322
 20
3.8875130586
 30
0.0
  0
SPLINE
  5
24E
100
AcDbEntity
  8
0
100
AcDbSpline
 62
7
  6
BYLAYER
 70
0
 71
3
 72
15
 73
11
 74
0
 42
0.0000001
 43
0.0000001
 44
0.0000000001
 40
0.0
 40
0.0
 40
0.0
 40
0.0
 40
0.1486076346
 40
0.2894995058
 40
0.4227239623
 40
0.5486422103
 40
0.6680009297
 40
0.7819382119
 40
0.8919870166
 40
1.0
 40
1.0
 40
1.0
 40
1.0
 10
13.4096955281
 20
13.2705072965
 30
0.0
 10
13.3194715054
 20
13.3225996454
 30
0.0
 10
13.1477706959
 20
13.4314006851
 30
0.0
 10
12.9130755331
 20
13.6131151413
 30
0.0
 10
12.7100450901
 20
13.8074183416
 30
0.0
 10
12.5407618538
 20
14.0126421696
 30
0.0
 10
12.4069001517
 20
14.2268945387
 30
0.0
 10
12.310031787
 20
14.4482810636
 30
0.0
 10
12.2513262907
 20
14.6745319543
 30
0.0
 10
12.2381888169
 20
14.8277138095
 30
0.0
 10
12.2381820894
 20
14.9034371018
 30
0.0
  0
SPLINE
  5
24F
100
AcDbEntity
  8
0
100
AcDbSpline
 62
7
  6
BYLAYER
 70
0
 71
3
 72
16
 73
12
 74
0
 42
0.0000001
 43
0.0000001
 44
0.0000000001
 40
0.0
 40
0.0
 40
0.0
 40
0.0
 40
0.1099377886
 40
0.2216247727
 40
0.3366778046
 40
0.4564703638
 40
0.5185244529
 40
0.5821392624
 40
0.7143293756
 40
0.8535586667
 40
1.0
 40
1.0
 40
1.0
 40
1.0
 10
20.23816338
 20
18.7818235604
 30
0.0
 10
20.2381569622
 20
18.8512513966
 30
0.0
 10
20.2271436119
 20
18.9914490641
 30
0.0
 10
20.1778750129
 20
19.1990775433
 30
0.0
 10
20.0963986327
 20
19.4029809013
 30
0.0
 10
20.0034524015
 20
19.5664755645
 30
0.0
 10
19.9146473435
 20
19.693621139
 30
0.0
 10
19.8135982949
 20
19.8214295479
 30
0.0
 10
19.6683161823
 20
19.9758703846
 30
0.0
 10
19.4686179884
 20
20.1489503836
 30
0.0
 10
19.3218323023
 20
20.2542999129
 30
0.0
 10
19.2445687038
 20
20.3051229859
 30
0.0
  0
SPLINE
  5
250
100
AcDbEntity
  8
0
100
AcDbSpline
 62
7
  6
BYLAYER
 70
0
 71
3
 72
15
 73
11
 74
0
 42
0.0000001
 43
0.0000001
 44
0.0000000001
 40
0.0
 40
0.0
 40
0.0
 40
0.0
 40
0.1080114116
 40
0.2180601321
 40
0.3320016709
 40
0.4513585344
 40
0.5772634148
 40
0.7104934075
 40
0.8514577831
 40
1.0
 40
1.0
 40
1.0
 40
1.0
 10
20.2381671683
 20
14.9034371014
 30
0.0
 10
20.2381738958
 20
14.8277130743
 30
0.0
 10
20.2250110924
 20
14.6745301839
 30
0.0
 10
20.1663302843
 20
14.448265559
 30
0.0
 10
20.0694203798
 20
14.226888607
 30
0.0
 10
19.9355900362
 20
14.0126197101
 30
0.0
 10
19.7662859526
 20
13.8074132727
 30
0.0
 10
19.5632438778
 20
13.6130451487
 30
0.0
 10
19.3284811103
 20
13.4313912652
 30
0.0
 10
19.1568008073
 20
13.3225434134
 30
0.0
 10
19.0666135367
 20
13.2704740793
 30
0.0
  0
SPLINE
  5
251
100
AcDbEntity
  8
0
100
AcDbSpline
 62
7
  6
BYLAYER
 70
0
 71
3
 72
15
 73
11
 74
0
 42
0.0000001
 43
0.0000001
 44
0.0000000001
 40
0.0
 40
0.0
 40
0.0
 40
0.0
 40
0.0881024137
 40
0.1764997405
 40
0.2719533011
 40
0.3797730917
 40
0.5039016329
 40
0.6472159362
 40
0.8120223389
 40
1.0
 40
1.0
 40
1.0
 40
1.0
 10
15.1997077814
 20
3.8980707355
 30
0.0
 10
15.1929786003
 20
3.8941856975
 30
0.0
 10
15.1803740433
 20
3.8847057621
 30
0.0
 10
15.1654862225
 20
3.8655943255
 30
0.0
 10
15.1546163901
 20
3.8420901493
 30
0.0
 10
15.1470798202
 20
3.8141203186
 30
0.0
 10
15.1422296366
 20
3.7813338535
 30
0.0
 10
15.1394904507
 20
3.7432898881
 30
0.0
 10
15.1382980374
 20
3.6995457174
 30
0.0
 10
15.1381753107
 20
3.6684311821
 30
0.0
 10
15.1381744234
 20
3.6518525596
 30
0.0
  0
SPLINE
  5
252
100
AcDbEntity
  8
0
100
AcDbSpline
 62
7
  6
BYLAYER
 70
0
 71
3
 72
26
 73
22
 74
0
 42
0.0000001
 43
0.0000001
 44
0.0000000001
 40
0.0
 40
0.0
 40
0.0
 40
0.0
 40
0.062370486
 40
0.1287225352
 40
0.1983055772
 40
0.2702804973
 40
0.3436535616
 40
0.4173809413
 40
0.490402707
 40
0.5616871405
 40
0.6302815377
 40
0.6953656668
 40
0.7563103464
 40
0.8127452726
 40
0.8392685303
 40
0.8646905375
 40
0.9124624087
 40
0.9351063077
 40
0.957110139
 40
0.9786693798
 40
1.0
 40
1.0
 40
1.0
 40
1.0
 10
18.3595038043
 20
17.5571013422
 30
0.0
 10
18.2517365231
 20
17.4948822448
 30
0.0
 10
18.0207346395
 20
17.3810080248
 30
0.0
 10
17.6481406167
 20
17.2459703731
 30
0.0
 10
17.2454578301
 20
17.1437681881
 30
0.0
 10
16.8213806617
 20
17.0765071729
 30
0.0
 10
16.384846841
 20
17.0456548721
 30
0.0
 10
15.9451891766
 20
17.0518476243
 30
0.0
 10
15.5117770468
 20
17.0949427561
 30
0.0
 10
15.0938457855
 20
17.1740358557
 30
0.0
 10
14.7002885656
 20
17.2874647859
 30
0.0
 10
14.3394030662
 20
17.4328601531
 30
0.0
 10
14.0188322565
 20
17.6072111123
 30
0.0
 10
13.7861013676
 20
17.7772431026
 30
0.0
 10
13.627879698
 20
17.9250037004
 30
0.0
 10
13.4944891746
 20
18.0728177265
 30
0.0
 10
13.3861528983
 20
18.2322808204
 30
0.0
 10
13.309116842
 20
18.4001856741
 30
0.0
 10
13.2682912918
 20
18.5261592391
 30
0.0
 10
13.2436881301
 20
18.6535959624
 30
0.0
 10
13.2381784465
 20
18.7392657245
 30
0.0
 10
13.2381783014
 20
18.781823606
 30
0.0
  0
SPLINE
  5
253
100
AcDbEntity
  8
0
100
AcDbSpline
 62
7
  6
BYLAYER
 70
0
 71
3
 72
25
 73
21
 74
0
 42
0.0000001
 43
0.0000001
 44
0.0000000001
 40
0.0
 40
0.0
 40
0.0
 40
0.0
 40
0.0213319699
 40
0.0428922008
 40
0.0648978673
 40
0.0875424057
 40
0.1353179493
 40
0.187218867
 40
0.2436560815
 40
0.3046035858
 40
0.3696914279
 40
0.438288726
 40
0.5095749214
 40
0.5825991561
 40
0.6563305508
 40
0.7297063219
 40
0.8016841534
 40
0.8712722783
 40
0.9376230023
 40
1.0
 40
1.0
 40
1.0
 40
1.0
 10
12.2381858777
 20
18.7818236512
 30
0.0
 10
12.2381911231
 20
18.7250788976
 30
0.0
 10
12.2455172157
 20
18.6108520029
 30
0.0
 10
12.2783126953
 20
18.4409275847
 30
0.0
 10
12.332783988
 20
18.2729794461
 30
0.0
 10
12.4354597199
 20
18.0490613448
 30
0.0
 10
12.6197781682
 20
17.7778806657
 30
0.0
 10
12.9141779099
 20
17.4822975416
 30
0.0
 10
13.2790272654
 20
17.2156765321
 30
0.0
 10
13.7065027556
 20
16.9831783819
 30
0.0
 10
14.1876744626
 20
16.7893359485
 30
0.0
 10
14.7124223281
 20
16.6381117588
 30
0.0
 10
15.2696532803
 20
16.5326494226
 30
0.0
 10
15.8475303604
 20
16.4751798758
 30
0.0
 10
16.433737728
 20
16.4669272321
 30
0.0
 10
17.0157801602
 20
16.5080709891
 30
0.0
 10
17.5812183607
 20
16.5977496553
 30
0.0
 10
18.118119612
 20
16.7340197179
 30
0.0
 10
18.6149190019
 20
16.9140574709
 30
0.0
 10
18.9229156153
 20
17.0658970391
 30
0.0
 10
19.0666135419
 20
17.1488605805
 30
0.0
  0
SPLINE
  5
254
100
AcDbEntity
  8
0
100
AcDbSpline
 62
7
  6
BYLAYER
 70
0
 71
3
 72
20
 73
16
 74
0
 42
0.0000001
 43
0.0000001
 44
0.0000000001
 40
0.0
 40
0.0
 40
0.0
 40
0.0
 40
0.0558262968
 40
0.114200227
 40
0.1748179044
 40
0.2373920823
 40
0.3015986519
 40
0.3670547808
 40
0.5000305422
 40
0.633006604
 40
0.7626087755
 40
0.8251899414
 40
0.8858027885
 40
0.9441537336
 40
1.0
 40
1.0
 40
1.0
 40
1.0
 10
19.0666135367
 20
13.2704740793
 30
0.0
 10
18.9718855383
 20
13.2157831704
 30
0.0
 10
18.7731638709
 20
13.1123070116
 30
0.0
 10
18.4578363727
 20
12.9778004774
 30
0.0
 10
18.1212327926
 20
12.8617904574
 30
0.0
 10
17.7666955839
 20
12.7653322126
 30
0.0
 10
17.3975337378
 20
12.689346716
 30
0.0
 10
16.8879564972
 20
12.6158952391
 30
0.0
 10
16.2380875116
 20
12.5794447504
 30
0.0
 10
15.4627492874
 20
12.6229683518
 30
0.0
 10
14.8332791479
 20
12.7317215857
 30
0.0
 10
14.3550474364
 20
12.8618007272
 30
0.0
 10
14.0184904378
 20
12.9778406551
 30
0.0
 10
13.7031508479
 20
13.1122760471
 30
0.0
 10
13.504456595
 20
13.2157954092
 30
0.0
 10
13.4096955281
 20
13.2705072965
 30
0.0
  0
SPLINE
  5
255
100
AcDbEntity
  8
0
100
AcDbSpline
 62
7
  6
BYLAYER
 70
0
 71
3
 72
24
 73
20
 74
0
 42
0.0000001
 43
0.0000001
 44
0.0000000001
 40
0.0
 40
0.0
 40
0.0
 40
0.0
 40
0.0724795243
 40
0.1409224351
 40
0.2052544212
 40
0.2359757362
 40
0.2657969205
 40
0.3230036455
 40
0.377673777
 40
0.4307935072
 40
0.4835217676
 40
0.5370597513
 40
0.5925148645
 40
0.6508098809
 40
0.7126137403
 40
0.7783506561
 40
0.8481999379
 40
0.9221475117
 40
1.0
 40
1.0
 40
1.0
 40
1.0
 10
17.1957926251
 20
32.6029220064
 30
0.0
 10
17.1957926251
 20
32.5278820904
 30
0.0
 10
17.2023996983
 20
32.3818572256
 30
0.0
 10
17.2338147326
 20
32.1712898919
 30
0.0
 10
17.2783272019
 20
32.0074660675
 30
0.0
 10
17.3246326575
 20
31.8866537532
 30
0.0
 10
17.3762011659
 20
31.776099064
 30
0.0
 10
17.4528604946
 20
31.6502601286
 30
0.0
 10
17.5651459875
 20
31.520400594
 30
0.0
 10
17.6953686775
 20
31.4156332777
 30
0.0
 10
17.8417591647
 20
31.3374042977
 30
0.0
 10
18.0023454229
 20
31.286855865
 30
0.0
 10
18.1749022566
 20
31.2643664715
 30
0.0
 10
18.3572684251
 20
31.270060943
 30
0.0
 10
18.5473250595
 20
31.3035304021
 30
0.0
 10
18.7429488997
 20
31.3642947108
 30
0.0
 10
18.9420258747
 20
31.4514964148
 30
0.0
 10
19.1423286784
 20
31.564139959
 30
0.0
 10
19.2721128817
 20
31.6531648194
 30
0.0
 10
19.3367212676
 20
31.7013576521
 30
0.0
  0
SPLINE
  5
256
100
AcDbEntity
  8
0
100
AcDbSpline
 62
7
  6
BYLAYER
 70
0
 71
3
 72
35
 73
31
 74
0
 42
0.0000001
 43
0.0000001
 44
0.0000000001
 40
0.0
 40
0.0
 40
0.0
 40
0.0
 40
0.0309721583
 40
0.0603600106
 40
0.0881388592
 40
0.1143947233
 40
0.1392871869
 40
0.1630500883
 40
0.1860026824
 40
0.2085318891
 40
0.2310629253
 40
0.2540193788
 40
0.2777881419
 40
0.3026876555
 40
0.3289577981
 40
0.3567503389
 40
0.3861451907
 40
0.4171470942
 40
0.4497094193
 40
0.4837298949
 40
0.5190712269
 40
0.5555587934
 40
0.6311213754
 40
0.7086430996
 40
0.786148805
 40
0.8616756902
 40
0.8981384714
 40
0.9334575143
 40
0.9674688208
 40
1.0
 40
1.0
 40
1.0
 40
1.0
 10
20.9374344338
 20
34.7631470171
 30
0.0
 10
20.9374344338
 20
34.8320088392
 30
0.0
 10
20.9318650734
 20
34.9663016315
 30
0.0
 10
20.9054470876
 20
35.1607863593
 30
0.0
 10
20.8612958401
 20
35.3413258484
 30
0.0
 10
20.7997806555
 20
35.5061521626
 30
0.0
 10
20.7213700137
 20
35.6536973903
 30
0.0
 10
20.626653247
 20
35.7824344574
 30
0.0
 10
20.5164677469
 20
35.8909450261
 30
0.0
 10
20.3918839885
 20
35.9779368874
 30
0.0
 10
20.254287141
 20
36.0424217198
 30
0.0
 10
20.1052221017
 20
36.0836920505
 30
0.0
 10
19.9463459125
 20
36.101434063
 30
0.0
 10
19.7792972574
 20
36.0956617851
 30
0.0
 10
19.60571282
 20
36.06653251
 30
0.0
 10
19.427199072
 20
36.0145271357
 30
0.0
 10
19.2454453057
 20
35.9401165858
 30
0.0
 10
19.0620857733
 20
35.8441552401
 30
0.0
 10
18.8788878627
 20
35.7274730657
 30
0.0
 10
18.6975100639
 20
35.5912816256
 30
0.0
 10
18.5197188335
 20
35.4367993489
 30
0.0
 10
18.2869772729
 20
35.2058250455
 30
0.0
 10
18.0164921938
 20
34.8811270967
 30
0.0
 10
17.7351313435
 20
34.4512823433
 30
0.0
 10
17.5036768535
 20
33.9927201515
 30
0.0
 10
17.3578827995
 20
33.5962482932
 30
0.0
 10
17.2743004037
 20
33.2793728499
 30
0.0
 10
17.2294705638
 20
33.0482721186
 30
0.0
 10
17.2022367997
 20
32.823250357
 30
0.0
 10
17.1957926251
 20
32.6752500715
 30
0.0
 10
17.1957926251
 20
32.6029220064
 30
0.0
  0
SPLINE
  5
257
100
AcDbEntity
  8
0
100
AcDbSpline
 62
7
  6
BYLAYER
 70
0
 71
3
 72
15
 73
11
 74
0
 42
0.0000001
 43
0.0000001
 44
0.0000000001
 40
0.0
 40
0.0
 40
0.0
 40
0.0
 40
0.1080089324
 40
0.2180552275
 40
0.3319990865
 40
0.4513501444
 40
0.5772548835
 40
0.7104977255
 40
0.8514743966
 40
1.0
 40
1.0
 40
1.0
 40
1.0
 10
19.2381709564
 20
18.7818236056
 30
0.0
 10
19.23817115
 20
18.7250319888
 30
0.0
 10
19.2282899787
 20
18.610149815
 30
0.0
 10
19.1842985852
 20
18.4404473881
 30
0.0
 10
19.1115979201
 20
18.2744263822
 30
0.0
 10
19.0112488145
 20
18.113713635
 30
0.0
 10
18.884260102
 20
17.9598118132
 30
0.0
 10
18.7319716331
 20
17.8140250279
 30
0.0
 10
18.5558906098
 20
17.677789331
 30
0.0
 10
18.4271365727
 20
17.5961489062
 30
0.0
 10
18.3595038043
 20
17.5571013422
 30
0.0
  0
SPLINE
  5
258
100
AcDbEntity
  8
0
100
AcDbSpline
 62
7
  6
BYLAYER
 70
0
 71
3
 72
15
 73
11
 74
0
 42
0.0000001
 43
0.0000001
 44
0.0000000001
 40
0.0
 40
0.0
 40
0.0
 40
0.0
 40
0.1485427923
 40
0.2895074454
 40
0.4227379303
 40
0.5486435576
 40
0.6680010339
 40
0.781942017
 40
0.8919890957
 40
1.0
 40
1.0
 40
1.0
 40
1.0
 10
19.0666135419
 20
17.1488605805
 30
0.0
 10
19.1568011
 20
17.2009300806
 30
0.0
 10
19.3284818276
 20
17.3097781385
 30
0.0
 10
19.5632449052
 20
17.49143284
 30
0.0
 10
19.7662873802
 20
17.6858018168
 30
0.0
 10
19.9355914345
 20
17.8910097852
 30
0.0
 10
20.0694205758
 20
18.1052799013
 30
0.0
 10
20.1663294934
 20
18.3266557593
 30
0.0
 10
20.2250102133
 20
18.552918436
 30
0.0
 10
20.2381703797
 20
18.7060999408
 30
0.0
 10
20.23816338
 20
18.7818235604
 30
0.0
  0
ENDSEC
  0
SECTION
  2
OBJECTS
  0
DICTIONARY
  5
C
100
AcDbDictionary
280
0
281
1
  3
ACAD_GROUP
350
D
  3
ACAD_MLINESTYLE
350
17
  3
ACAD_LAYOUT
350
1A
  3
ACAD_PLOTSETTINGS
350
19
  3
ACAD_PLOTSTYLENAME
350
E
  0
DICTIONARY
  5
D
102
{ACAD_REACTORS
330
C
102
}
100
AcDbDictionary
280
0
281
1
  0
ACDBDICTIONARYWDFLT
  5
E
102
{ACAD_REACTORS
330
C
102
}
100
AcDbDictionary
281
1
  3
Normal
350
F
100
AcDbDictionaryWithDefault
340
F
  0
DICTIONARY
  5
17
102
{ACAD_REACTORS
330
C
102
}
100
AcDbDictionary
280
0
281
1
  3
Standard
350
18
  0
DICTIONARY
  5
19
102
{ACAD_REACTORS
330
C
102
}
100
AcDbDictionary
281
1
  0
DICTIONARY
  5
1A
102
{ACAD_REACTORS
330
C
102
}
100
AcDbDictionary
281
1
  3
Model
350
259
  3
Layout1
350
25A
  0
ACDBPLACEHOLDER
  5
F
102
{ACAD_REACTORS
330
E
102
}
  0
MLINESTYLE
  5
18
102
{ACAD_REACTORS
330
17
102
}
100
AcDbMlineStyle
  2
STANDARD
 70
0
  3

 62
256
 51
90.0
 52
90.0
 71
2
 49
0.5
 62
256
  6
BYLAYER
 49
-0.5
 62
256
  6
BYLAYER
  0
LAYOUT
  5
259
102
{ACAD_REACTORS
330
1A
102
}
100
AcDbPlotSettings
  1

  2
none_device
  4

  6

 40
0.0
 41
0.0
 42
0.0
 43
0.0
 44
210.0
 45
297.0
 46
0.0
 47
0.0
 48
0.0
 49
0.0
140
0.0
141
0.0
142
1.0
143
1.0
 70
1024
 72
1
 73
0
 74
0
  7

 75
0
147
1.0
148
0.0
149
0.0
100
AcDbLayout
  1
Model
 70
0
 71
0
 10
0.0
 20
0.0
 11
210.0
 21
297.0
 12
0.0
 22
0.0
 32
0.0
 14
0.0
 24
0.0
 34
0.0
 15
0.0
 25
0.0
 35
0.0
146
0.0
 13
0.0
 23
0.0
 33
0.0
 16
1.0
 26
0.0
 36
0.0
 17
0.0
 27
1.0
 37
0.0
 76
0
330
210
345
0
346
0
  0
LAYOUT
  5
25A
102
{ACAD_REACTORS
330
1A
102
}
100
AcDbPlotSettings
  1

  2
none_device
  4

  6

 40
0.0
 41
0.0
 42
0.0
 43
0.0
 44
210.0
 45
297.0
 46
0.0
 47
0.0
 48
0.0
 49
0.0
140
0.0
141
0.0
142
1.0
143
1.0
 70
0
 72
1
 73
0
 74
0
  7

 75
0
147
1.0
148
0.0
149
0.0
100
AcDbLayout
  1
Layout1
 70
0
 71
1
 10
0.0
 20
0.0
 11
210.0
 21
297.0
 12
0.0
 22
0.0
 32
0.0
 14
0.0
 24
0.0
 34
0.0
 15
0.0
 25
0.0
 35
0.0
146
0.0
 13
0.0
 23
0.0
 33
0.0
 16
1.0
 26
0.0
 36
0.0
 17
0.0
 27
1.0
 37
0.0
 76
0
330
211
345
0
346
0
  0
ENDSEC
  0
EOF
