999
DXF file: C:\Users\sesa63760\Dev\_Creo\CAD\MCADPD0005171_3D-CAD\drw0001_3.dxf
999
Pro/ENGINEER 2019471 by Parametric Technology Corporation
  0
SECTION
  2
HEADER
  9
$ACADVER
  1
AC1024
  9
$DWGCODEPAGE
  3
ANSI_1252
  9
$EXTMAX
 10
135.9178184451
 20
192.2266289437
 30
0.0
  9
$EXTMIN
 10
0.0
 20
0.0
 30
0.0
  9
$LIMMIN
 10
0.0
 20
0.0
  9
$LIMMAX
 10
135.9178184451
 20
192.2266289437
  9
$VIEWCTR
 10
67.9589092225
 20
96.1133144719
  9
$VIEWSIZE
 40
192.2266289437
  9
$CLAYER
  8
0
  9
$LTSCALE
 40
12.5303284052
  9
$CELTYPE
  6
BYLAYER
  9
$DIMSCALE
 40
1.0
  9
$DIMASZ
 40
1.6180692672
  9
$DIMEXO
 40
1.0
  9
$DIMDLI
 40
8.6573178072
  9
$DIMEXE
 40
1.0
  9
$DIMCEN
 40
2.0504173754
  9
$DIMLFAC
 40
1.0
  9
$DIMBLK
  1
_FILLED
  9
$DIMALT
 70
0
  9
$DIMALTF
 40
0.0393700787
  9
$DIMTXT
 40
2.2652969741
  9
$DIMTOL
 70
1
  9
$DIMLIM
 70
0
  9
$DIMTFAC
 40
1.0
  9
$DIMTP
 40
0.01
  9
$DIMTM
 40
0.01
  9
$DIMGAP
 40
0.625
  9
$DIMDSEP
 70
46
  9
$AUNITS
 70
0
  9
$PDMODE
 70
3
  9
$PDSIZE
 40
0.3125
  9
$HANDSEED
  5
2BF
  9
$TILEMODE
 70
1
  9
$MEASUREMENT
 70
1
  9
$INSUNITS
 70
4
  0
ENDSEC
  0
SECTION
  2
CLASSES
  0
CLASS
  1
ACDBDICTIONARYWDFLT
  2
AcDbDictionaryWithDefault
  3
AutoCAD 2000
 90
0
 91
1
280
0
281
0
  0
CLASS
  1
ACDBPLACEHOLDER
  2
AcDbPlaceHolder
  3
AutoCAD 2000
 90
0
 91
1
280
0
281
0
  0
CLASS
  1
LAYOUT
  2
AcDbLayout
  3
AutoCAD 2000
 90
0
 91
0
280
0
281
0
  0
ENDSEC
  0
SECTION
  2
TABLES
  0
TABLE
  2
VPORT
  5
8
100
AcDbSymbolTable
 70
2
  0
VPORT
  5
1F4
100
AcDbSymbolTableRecord
100
AcDbViewportTableRecord
  2
*ACTIVE
 70
0
 10
0.0
 20
0.0
 11
1.0
 21
1.0
 12
67.9589092225
 22
96.1133144719
 13
0.0
 23
0.0
 14
1.0
 24
1.0
 15
0.0
 25
0.0
 16
0.0
 26
0.0
 36
1.0
 17
0.0
 27
0.0
 37
0.0
 40
192.2266289437
 41
0.7070707071
 42
50.0
 43
0.0
 44
0.0
 50
0.0
 51
0.0
 71
0
 72
100
 73
1
 74
1
 75
0
 76
0
 77
0
 78
0
  0
ENDTAB
  0
TABLE
  2
LTYPE
  5
5
100
AcDbSymbolTable
 70
6
  0
LTYPE
  5
14
100
AcDbSymbolTableRecord
100
AcDbLinetypeTableRecord
  2
BYBLOCK
 70
0
  3

 72
65
 73
0
 40
0.0
  0
LTYPE
  5
15
100
AcDbSymbolTableRecord
100
AcDbLinetypeTableRecord
  2
BYLAYER
 70
0
  3

 72
65
 73
0
 40
0.0
  0
LTYPE
  5
16
100
AcDbSymbolTableRecord
100
AcDbLinetypeTableRecord
  2
CONTINUOUS
 70
64
  3
Solid line
 72
65
 73
0
 40
0.0
  0
LTYPE
  5
1F5
100
AcDbSymbolTableRecord
100
AcDbLinetypeTableRecord
  2
CENTER
 70
64
  3
____ _ ____ _ ____ _ ____ _ ____ _ ____ _ ____
 72
65
 73
4
 40
0.6
 49
0.375
 74
0
 49
-0.075
 74
0
 49
0.075
 74
0
 49
-0.075
 74
0
  0
LTYPE
  5
1F6
100
AcDbSymbolTableRecord
100
AcDbLinetypeTableRecord
  2
HIDDEN
 70
64
  3
- - - - - - - - - - - - - - - - - - - -
 72
65
 73
2
 40
0.2
 49
0.1
 74
0
 49
-0.1
 74
0
  0
LTYPE
  5
1F7
100
AcDbSymbolTableRecord
100
AcDbLinetypeTableRecord
  2
PHANTOM
 70
64
  3
_____ _ _ _____ _ _ _____ _ _ _____
 72
65
 73
6
 40
0.8
 49
0.45
 74
0
 49
-0.05
 74
0
 49
0.1
 74
0
 49
-0.05
 74
0
 49
0.1
 74
0
 49
-0.05
 74
0
  0
LTYPE
  5
1F8
100
AcDbSymbolTableRecord
100
AcDbLinetypeTableRecord
  2
DOT
 70
64
  3
. . . . . . . . . . . . . . . . . . . .
 72
65
 73
2
 40
0.2
 49
0.1
 74
0
 49
-0.1
 74
0
  0
LTYPE
  5
1F9
100
AcDbSymbolTableRecord
100
AcDbLinetypeTableRecord
  2
DASHED
 70
64
  3
- - - - - - - - - - - - - - - - - - - -
 72
65
 73
2
 40
0.2
 49
0.1
 74
0
 49
-0.1
 74
0
  0
ENDTAB
  0
TABLE
  2
LAYER
  5
2
100
AcDbSymbolTable
 70
36
  0
LAYER
  5
10
100
AcDbSymbolTableRecord
100
AcDbLayerTableRecord
  2
0
 70
0
 62
7
  6
CONTINUOUS
370
-3
390
F
  0
LAYER
  5
1FA
100
AcDbSymbolTableRecord
100
AcDbLayerTableRecord
  2
DEFAULT_1
 70
0
 62
7
  6
CENTER
370
-3
390
F
  0
LAYER
  5
1FB
100
AcDbSymbolTableRecord
100
AcDbLayerTableRecord
  2
DEFAULT_2
 70
0
 62
7
  6
HIDDEN
370
-3
390
F
  0
LAYER
  5
1FC
100
AcDbSymbolTableRecord
100
AcDbLayerTableRecord
  2
DEFAULT_3
 70
0
 62
7
  6
PHANTOM
370
-3
390
F
  0
LAYER
  5
1FD
100
AcDbSymbolTableRecord
100
AcDbLayerTableRecord
  2
00_COMPONENTS
 70
0
 62
7
  6
CONTINUOUS
370
-3
390
F
  0
LAYER
  5
1FE
100
AcDbSymbolTableRecord
100
AcDbLayerTableRecord
  2
01_1_DEFAULT_DATUMS
 70
0
 62
7
  6
CONTINUOUS
370
-3
390
F
  0
LAYER
  5
1FF
100
AcDbSymbolTableRecord
100
AcDbLayerTableRecord
  2
01_PLANES
 70
0
 62
7
  6
CONTINUOUS
370
-3
390
F
  0
LAYER
  5
200
100
AcDbSymbolTableRecord
100
AcDbLayerTableRecord
  2
02_COORD_SYS
 70
0
 62
7
  6
CONTINUOUS
370
-3
390
F
  0
LAYER
  5
201
100
AcDbSymbolTableRecord
100
AcDbLayerTableRecord
  2
03_AXES
 70
0
 62
7
  6
CONTINUOUS
370
-3
390
F
  0
LAYER
  5
202
100
AcDbSymbolTableRecord
100
AcDbLayerTableRecord
  2
04_POINTS
 70
0
 62
7
  6
CONTINUOUS
370
-3
390
F
  0
LAYER
  5
203
100
AcDbSymbolTableRecord
100
AcDbLayerTableRecord
  2
05_CURVES
 70
0
 62
7
  6
CONTINUOUS
370
-3
390
F
  0
LAYER
  5
204
100
AcDbSymbolTableRecord
100
AcDbLayerTableRecord
  2
06_SURFS
 70
0
 62
7
  6
CONTINUOUS
370
-3
390
F
  0
LAYER
  5
205
100
AcDbSymbolTableRecord
100
AcDbLayerTableRecord
  2
07_COSMETICS
 70
0
 62
7
  6
CONTINUOUS
370
-3
390
F
  0
LAYER
  5
206
100
AcDbSymbolTableRecord
100
AcDbLayerTableRecord
  2
10_NOTES
 70
0
 62
7
  6
CONTINUOUS
370
-3
390
F
  0
LAYER
  5
207
100
AcDbSymbolTableRecord
100
AcDbLayerTableRecord
  2
11_NOTES_PUB
 70
0
 62
7
  6
CONTINUOUS
370
-3
390
F
  0
LAYER
  5
208
100
AcDbSymbolTableRecord
100
AcDbLayerTableRecord
  2
13_REF_GTOL
 70
0
 62
7
  6
CONTINUOUS
370
-3
390
F
  0
LAYER
  5
209
100
AcDbSymbolTableRecord
100
AcDbLayerTableRecord
  2
16_MISC
 70
0
 62
7
  6
CONTINUOUS
370
-3
390
F
  0
LAYER
  5
20A
100
AcDbSymbolTableRecord
100
AcDbLayerTableRecord
  2
17_NO_PRINT
 70
0
 62
7
  6
CONTINUOUS
370
-3
390
F
  0
LAYER
  5
20B
100
AcDbSymbolTableRecord
100
AcDbLayerTableRecord
  2
18_DATUM_CAMS_JOINTS
 70
0
 62
7
  6
CONTINUOUS
370
-3
390
F
  0
LAYER
  5
20C
100
AcDbSymbolTableRecord
100
AcDbLayerTableRecord
  2
19_DATUM_FUNCTIONAL
 70
0
 62
7
  6
CONTINUOUS
370
-3
390
F
  0
LAYER
  5
20D
100
AcDbSymbolTableRecord
100
AcDbLayerTableRecord
  2
20_DATUM_KINEMATIC_SCHEME
 70
0
 62
7
  6
CONTINUOUS
370
-3
390
F
  0
ENDTAB
  0
TABLE
  2
STYLE
  5
3
100
AcDbSymbolTable
 70
1
  0
STYLE
  5
11
100
AcDbSymbolTableRecord
100
AcDbTextStyleTableRecord
  2
STANDARD
 70
0
 40
0.0
 41
1.0
 50
0.0
 71
0
 42
0.2
  3
ARIAL.TTF
  4

  0
STYLE
  5
20E
100
AcDbSymbolTableRecord
100
AcDbTextStyleTableRecord
  2
TEXTSTYLE_1
 70
0
 40
0.0
 41
0.8
 50
0.0
 71
0
 42
0.2
  3
gdt
  4

  0
ENDTAB
  0
TABLE
  2
VIEW
  5
6
100
AcDbSymbolTable
 70
0
  0
ENDTAB
  0
TABLE
  2
UCS
  5
7
100
AcDbSymbolTable
 70
0
  0
ENDTAB
  0
TABLE
  2
APPID
  5
9
100
AcDbSymbolTable
 70
1
  0
APPID
  5
20F
100
AcDbSymbolTableRecord
100
AcDbRegAppTableRecord
  2
ACAD
 70
0
  0
ENDTAB
  0
TABLE
  2
BLOCK_RECORD
  5
1
100
AcDbSymbolTable
 70
0
  0
BLOCK_RECORD
  5
210
100
AcDbSymbolTableRecord
100
AcDbBlockTableRecord
  2
*Model_Space
  0
BLOCK_RECORD
  5
211
100
AcDbSymbolTableRecord
100
AcDbBlockTableRecord
  2
*Paper_Space
  0
BLOCK_RECORD
  5
212
100
AcDbSymbolTableRecord
100
AcDbBlockTableRecord
  2
_FILLED
  0
ENDTAB
  0
TABLE
  2
DIMSTYLE
  5
A
100
AcDbSymbolTable
 70
1
100
AcDbDimStyleTable
 71
0
  0
DIMSTYLE
105
213
100
AcDbSymbolTableRecord
100
AcDbDimStyleTableRecord
  2
STANDARD
 70
0
  3

  4

 40
1.0
 41
1.6180692672
 42
1.0
 43
0.38
 44
1.0
 45
0.0
 46
0.0
 47
0.01
 48
0.01
140
2.2652969741
141
0.09
142
0.0
143
25.4
144
1.0
145
0.0
146
1.0
147
0.625
 71
1
 72
0
 73
0
 74
0
 75
0
 76
0
 77
1
 78
8
 79
2
170
0
171
1
172
0
173
0
174
0
175
0
176
0
177
0
178
0
270
2
179
2
271
2
272
2
273
2
274
2
275
0
280
0
281
0
282
0
283
1
284
8
285
0
286
0
287
3
288
0
340
11
278
46
341
212
342
212
343
212
344
212
  0
ENDTAB
  0
ENDSEC
  0
SECTION
  2
BLOCKS
  0
BLOCK
  5
20
100
AcDbEntity
  8
0
100
AcDbBlockBegin
  2
*Model_Space
 70
0
 10
0.0
 20
0.0
 30
0.0
  3
*Model_Space
  1

  0
ENDBLK
  5
21
100
AcDbEntity
  8
0
100
AcDbBlockEnd
  0
BLOCK
  5
1C
100
AcDbEntity
  8
0
100
AcDbBlockBegin
  2
*Paper_Space
 70
0
 10
0.0
 20
0.0
 30
0.0
  3
*Paper_Space
  1

  0
ENDBLK
  5
1D
100
AcDbEntity
  8
0
100
AcDbBlockEnd
  0
BLOCK
  5
214
100
AcDbEntity
  8
0
100
AcDbBlockBegin
  2
_FILLED
 70
64
 10
0.0
 20
0.0
  3
_FILLED
  1

  0
SOLID
  5
215
100
AcDbEntity
  8
0
  6
BYBLOCK
 62
0
100
AcDbTrace
 10
0.0
 20
0.0
 11
-1.0
 21
0.25
 12
-1.0
 22
-0.25
 13
-1.0
 23
-0.25
  0
ENDBLK
  5
216
100
AcDbEntity
  8
0
  6
BYBLOCK
 62
0
100
AcDbBlockEnd
  0
ENDSEC
  0
SECTION
  2
ENTITIES
  0
LINE
  5
217
100
AcDbEntity
  8
0
100
AcDbLine
 62
7
  6
BYLAYER
 10
16.0788949238
 20
107.1338814947
 11
16.0788949238
 21
101.0795664045
  0
LINE
  5
218
100
AcDbEntity
  8
0
100
AcDbLine
 62
7
  6
BYLAYER
 10
16.0788949238
 20
99.5795664045
 11
16.0788949238
 21
93.5795664045
  0
LINE
  5
219
100
AcDbEntity
  8
0
100
AcDbLine
 62
7
  6
BYLAYER
 10
16.0788949238
 20
92.0795664045
 11
16.0788949238
 21
86.0338814947
  0
LINE
  5
21A
100
AcDbEntity
  8
0
100
AcDbLine
 62
7
  6
BYLAYER
 10
16.7520293032
 20
107.1338814947
 11
16.7520293032
 21
106.5338814045
  0
LINE
  5
21B
100
AcDbEntity
  8
0
100
AcDbLine
 62
7
  6
BYLAYER
 10
16.7520293032
 20
101.6338814045
 11
16.7520293032
 21
101.0795664045
  0
LINE
  5
21C
100
AcDbEntity
  8
0
100
AcDbLine
 62
7
  6
BYLAYER
 10
16.7520293032
 20
99.5795664045
 11
16.7520293032
 21
99.0338814045
  0
LINE
  5
21D
100
AcDbEntity
  8
0
100
AcDbLine
 62
7
  6
BYLAYER
 10
16.7520293032
 20
94.1338814045
 11
16.7520293032
 21
93.5795664045
  0
LINE
  5
21E
100
AcDbEntity
  8
0
100
AcDbLine
 62
7
  6
BYLAYER
 10
16.7520293032
 20
92.0795664045
 11
16.7520293032
 21
91.5338814045
  0
LINE
  5
21F
100
AcDbEntity
  8
0
100
AcDbLine
 62
7
  6
BYLAYER
 10
16.7520293032
 20
86.6338814045
 11
16.7520293032
 21
86.0338814947
  0
LINE
  5
220
100
AcDbEntity
  8
0
100
AcDbLine
 62
7
  6
BYLAYER
 10
18.1799309697
 20
107.1338814947
 11
18.1799309697
 21
106.5338814045
  0
LINE
  5
221
100
AcDbEntity
  8
0
100
AcDbLine
 62
7
  6
BYLAYER
 10
18.1799309697
 20
101.6338814045
 11
18.1799309697
 21
101.0795664045
  0
LINE
  5
222
100
AcDbEntity
  8
0
100
AcDbLine
 62
7
  6
BYLAYER
 10
18.1799309697
 20
99.5795664045
 11
18.1799309697
 21
99.0338814045
  0
LINE
  5
223
100
AcDbEntity
  8
0
100
AcDbLine
 62
7
  6
BYLAYER
 10
18.1799309697
 20
94.1338814045
 11
18.1799309697
 21
93.5795664045
  0
LINE
  5
224
100
AcDbEntity
  8
0
100
AcDbLine
 62
7
  6
BYLAYER
 10
18.1799309697
 20
92.0795664045
 11
18.1799309697
 21
91.5338814045
  0
LINE
  5
225
100
AcDbEntity
  8
0
100
AcDbLine
 62
7
  6
BYLAYER
 10
18.1799309697
 20
86.6338814045
 11
18.1799309697
 21
86.0338814947
  0
LINE
  5
226
100
AcDbEntity
  8
0
100
AcDbLine
 62
7
  6
BYLAYER
 10
18.7553222642
 20
92.0795664045
 11
18.7553222642
 21
93.5795664045
  0
LINE
  5
227
100
AcDbEntity
  8
0
100
AcDbLine
 62
7
  6
BYLAYER
 10
18.7553222642
 20
99.5795664045
 11
18.7553222642
 21
101.0795664045
  0
LINE
  5
228
100
AcDbEntity
  8
0
100
AcDbLine
 62
7
  6
BYLAYER
 10
18.7564967957
 20
107.1338814947
 11
18.7564967957
 21
106.5338814045
  0
LINE
  5
229
100
AcDbEntity
  8
0
100
AcDbLine
 62
7
  6
BYLAYER
 10
18.7564967957
 20
101.6338814045
 11
18.7564967957
 21
101.0795664045
  0
LINE
  5
22A
100
AcDbEntity
  8
0
100
AcDbLine
 62
7
  6
BYLAYER
 10
18.7564967957
 20
99.5795664045
 11
18.7564967957
 21
99.0338814045
  0
LINE
  5
22B
100
AcDbEntity
  8
0
100
AcDbLine
 62
7
  6
BYLAYER
 10
18.7564967957
 20
94.1338814045
 11
18.7564967957
 21
93.5795664045
  0
LINE
  5
22C
100
AcDbEntity
  8
0
100
AcDbLine
 62
7
  6
BYLAYER
 10
18.7564967957
 20
92.0795664045
 11
18.7564967957
 21
91.5338814045
  0
LINE
  5
22D
100
AcDbEntity
  8
0
100
AcDbLine
 62
7
  6
BYLAYER
 10
18.7564967957
 20
86.6338814045
 11
18.7564967957
 21
86.0338814947
  0
LINE
  5
22E
100
AcDbEntity
  8
0
100
AcDbLine
 62
7
  6
BYLAYER
 10
19.2190169913
 20
86.0338814947
 11
19.2190169913
 21
86.5338814949
  0
LINE
  5
22F
100
AcDbEntity
  8
0
100
AcDbLine
 62
7
  6
BYLAYER
 10
19.2190169913
 20
106.6338814947
 11
19.2190169913
 21
107.1338814947
  0
LINE
  5
230
100
AcDbEntity
  8
0
100
AcDbLine
 62
7
  6
BYLAYER
 10
19.7267099764
 20
106.6338814947
 11
19.7267099764
 21
101.0795664045
  0
LINE
  5
231
100
AcDbEntity
  8
0
100
AcDbLine
 62
7
  6
BYLAYER
 10
19.7267099764
 20
99.5795664045
 11
19.7267099764
 21
93.5795664045
  0
LINE
  5
232
100
AcDbEntity
  8
0
100
AcDbLine
 62
7
  6
BYLAYER
 10
19.7267099764
 20
92.0795664045
 11
19.7267099764
 21
86.5338814949
  0
LINE
  5
233
100
AcDbEntity
  8
0
100
AcDbLine
 62
7
  6
BYLAYER
 10
20.7070959178
 20
107.883881495
 11
20.7070959178
 21
85.283881495
  0
LINE
  5
234
100
AcDbEntity
  8
0
100
AcDbLine
 62
7
  6
BYLAYER
 10
21.4378386176
 20
85.283881495
 11
21.4378386176
 21
90.1838814949
  0
LINE
  5
235
100
AcDbEntity
  8
0
100
AcDbLine
 62
7
  6
BYLAYER
 10
21.4378386176
 20
102.9838814947
 11
21.4378386176
 21
107.883881495
  0
LINE
  5
236
100
AcDbEntity
  8
0
100
AcDbLine
 62
7
  6
BYLAYER
 10
24.9070959185
 20
100.1838814947
 11
24.9070959185
 21
92.9838814947
  0
LINE
  5
237
100
AcDbEntity
  8
0
100
AcDbLine
 62
7
  6
BYLAYER
 10
26.5070959185
 20
99.9838814947
 11
26.5070959185
 21
93.1838814947
  0
LINE
  5
238
100
AcDbEntity
  8
0
100
AcDbLine
 62
7
  6
BYLAYER
 10
29.0070959185
 20
88.6338814947
 11
29.0070959185
 21
90.1838814949
  0
LINE
  5
239
100
AcDbEntity
  8
0
100
AcDbLine
 62
7
  6
BYLAYER
 10
29.0070959185
 20
102.9838814947
 11
29.0070959185
 21
104.5338814947
  0
LINE
  5
23A
100
AcDbEntity
  8
0
100
AcDbLine
 62
7
  6
BYLAYER
 10
29.2070959185
 20
105.3338814947
 11
29.2070959186
 21
102.1838814947
  0
LINE
  5
23B
100
AcDbEntity
  8
0
100
AcDbLine
 62
7
  6
BYLAYER
 10
29.2070959186
 20
99.9838814947
 11
29.2070959186
 21
93.1838814947
  0
LINE
  5
23C
100
AcDbEntity
  8
0
100
AcDbLine
 62
7
  6
BYLAYER
 10
29.2070959186
 20
90.9838814947
 11
29.2070959185
 21
87.8338814947
  0
LINE
  5
23D
100
AcDbEntity
  8
0
100
AcDbLine
 62
7
  6
BYLAYER
 10
41.005269756
 20
98.7838814947
 11
41.005269756
 21
94.3838814947
  0
LINE
  5
23E
100
AcDbEntity
  8
0
100
AcDbLine
 62
7
  6
BYLAYER
 10
41.4070959185
 20
102.1838814947
 11
41.4070959185
 21
101.1838814947
  0
LINE
  5
23F
100
AcDbEntity
  8
0
100
AcDbLine
 62
7
  6
BYLAYER
 10
41.4070959185
 20
91.9838814947
 11
41.4070959185
 21
90.9838814947
  0
LINE
  5
240
100
AcDbEntity
  8
0
100
AcDbLine
 62
7
  6
BYLAYER
 10
42.772812662
 20
101.1838814947
 11
42.772812662
 21
91.9838814947
  0
LINE
  5
241
100
AcDbEntity
  8
0
100
AcDbLine
 62
7
  6
BYLAYER
 10
50.9070959185
 20
87.8338814947
 11
50.9070959186
 21
90.4838814947
  0
LINE
  5
242
100
AcDbEntity
  8
0
100
AcDbLine
 62
7
  6
BYLAYER
 10
50.9070959186
 20
102.6838814947
 11
50.9070959185
 21
105.3338814947
  0
LINE
  5
243
100
AcDbEntity
  8
0
100
AcDbLine
 62
7
  6
BYLAYER
 10
51.3570959185
 20
104.5338814947
 11
51.3570959185
 21
88.6338814947
  0
LINE
  5
244
100
AcDbEntity
  8
0
100
AcDbLine
 62
7
  6
BYLAYER
 10
51.9070959185
 20
105.3338814947
 11
51.9070959185
 21
104.5338814947
  0
LINE
  5
245
100
AcDbEntity
  8
0
100
AcDbLine
 62
7
  6
BYLAYER
 10
51.9070959185
 20
88.6338814947
 11
51.9070959185
 21
87.8338814947
  0
LINE
  5
246
100
AcDbEntity
  8
0
100
AcDbLine
 62
7
  6
BYLAYER
 10
52.2570959185
 20
104.5338814947
 11
52.2570959185
 21
103.4838814947
  0
LINE
  5
247
100
AcDbEntity
  8
0
100
AcDbLine
 62
7
  6
BYLAYER
 10
52.2570959185
 20
89.6838814949
 11
52.2570959185
 21
88.6338814947
  0
LINE
  5
248
100
AcDbEntity
  8
0
100
AcDbLine
 62
7
  6
BYLAYER
 10
54.9070959186
 20
105.3338814947
 11
54.9070959186
 21
104.5338814947
  0
LINE
  5
249
100
AcDbEntity
  8
0
100
AcDbLine
 62
7
  6
BYLAYER
 10
54.9070959186
 20
88.6338814947
 11
54.9070959186
 21
87.8338814947
  0
LINE
  5
24A
100
AcDbEntity
  8
0
100
AcDbLine
 62
7
  6
BYLAYER
 10
50.9070959185
 20
102.6838814947
 11
50.4070959185
 21
102.1838814947
  0
LINE
  5
24B
100
AcDbEntity
  8
0
100
AcDbLine
 62
7
  6
BYLAYER
 10
50.4070959185
 20
90.9838814947
 11
50.9070959185
 21
90.4838814947
  0
LINE
  5
24C
100
AcDbEntity
  8
0
100
AcDbLine
 62
7
  6
BYLAYER
 10
20.7070959178
 20
85.283881495
 11
119.7070959187
 21
85.283881495
  0
LINE
  5
24D
100
AcDbEntity
  8
0
100
AcDbLine
 62
7
  6
BYLAYER
 10
16.0788949238
 20
86.0338814947
 11
20.7071337509
 21
86.0338814947
  0
LINE
  5
24E
100
AcDbEntity
  8
0
100
AcDbLine
 62
7
  6
BYLAYER
 10
19.2190169913
 20
86.5338814949
 11
20.7070959179
 21
86.5338814949
  0
LINE
  5
24F
100
AcDbEntity
  8
0
100
AcDbLine
 62
7
  6
BYLAYER
 10
119.7070959187
 20
86.5338814949
 11
123.6034597062
 21
86.5338814949
  0
LINE
  5
250
100
AcDbEntity
  8
0
100
AcDbLine
 62
7
  6
BYLAYER
 10
18.7564967957
 20
86.6338814045
 11
17.7368405954
 21
86.6338814045
  0
LINE
  5
251
100
AcDbEntity
  8
0
100
AcDbLine
 62
7
  6
BYLAYER
 10
16.7520293032
 20
86.6338814045
 11
17.6145163242
 21
86.6338814045
  0
LINE
  5
252
100
AcDbEntity
  8
0
100
AcDbLine
 62
7
  6
BYLAYER
 10
88.9070959185
 20
87.183881495
 11
85.9070959185
 21
87.183881495
  0
LINE
  5
253
100
AcDbEntity
  8
0
100
AcDbLine
 62
7
  6
BYLAYER
 10
29.2070959185
 20
87.8338814947
 11
54.9070959185
 21
87.8338814947
  0
LINE
  5
254
100
AcDbEntity
  8
0
100
AcDbLine
 62
7
  6
BYLAYER
 10
54.9070959185
 20
88.6338814947
 11
50.9070959185
 21
88.6338814947
  0
LINE
  5
255
100
AcDbEntity
  8
0
100
AcDbLine
 62
7
  6
BYLAYER
 10
29.0070959185
 20
88.6338814947
 11
29.2070959186
 21
88.6338814947
  0
LINE
  5
256
100
AcDbEntity
  8
0
100
AcDbLine
 62
7
  6
BYLAYER
 10
29.2070959185
 20
89.1338814947
 11
50.9070959185
 21
89.1338814947
  0
LINE
  5
257
100
AcDbEntity
  8
0
100
AcDbLine
 62
7
  6
BYLAYER
 10
52.2570959185
 20
89.6838814949
 11
51.3570959185
 21
89.6838814949
  0
LINE
  5
258
100
AcDbEntity
  8
0
100
AcDbLine
 62
7
  6
BYLAYER
 10
21.4378386176
 20
90.1838814949
 11
29.2070959186
 21
90.1838814949
  0
LINE
  5
259
100
AcDbEntity
  8
0
100
AcDbLine
 62
7
  6
BYLAYER
 10
50.4070959186
 20
90.9838814947
 11
41.4070959186
 21
90.9838814947
  0
LINE
  5
25A
100
AcDbEntity
  8
0
100
AcDbLine
 62
7
  6
BYLAYER
 10
29.2070959185
 20
90.9838814947
 11
26.9070959185
 21
90.9838814947
  0
LINE
  5
25B
100
AcDbEntity
  8
0
100
AcDbLine
 62
7
  6
BYLAYER
 10
16.7520293032
 20
91.5338814045
 11
17.6145163242
 21
91.5338814045
  0
LINE
  5
25C
100
AcDbEntity
  8
0
100
AcDbLine
 62
7
  6
BYLAYER
 10
17.7368405954
 20
91.5338814045
 11
18.7564967957
 21
91.5338814045
  0
LINE
  5
25D
100
AcDbEntity
  8
0
100
AcDbLine
 62
7
  6
BYLAYER
 10
42.772812662
 20
91.9838814947
 11
41.4070959186
 21
91.9838814947
  0
LINE
  5
25E
100
AcDbEntity
  8
0
100
AcDbLine
 62
7
  6
BYLAYER
 10
16.0788949238
 20
92.0795664045
 11
20.7070959178
 21
92.0795664045
  0
LINE
  5
25F
100
AcDbEntity
  8
0
100
AcDbLine
 62
7
  6
BYLAYER
 10
25.0822934622
 20
92.1838814949
 11
20.7070959178
 21
92.1838814949
  0
LINE
  5
260
100
AcDbEntity
  8
0
100
AcDbLine
 62
7
  6
BYLAYER
 10
29.2070959186
 20
93.1838814947
 11
26.5070959186
 21
93.1838814947
  0
LINE
  5
261
100
AcDbEntity
  8
0
100
AcDbLine
 62
7
  6
BYLAYER
 10
16.0788949238
 20
93.5795664045
 11
20.7070959178
 21
93.5795664045
  0
LINE
  5
262
100
AcDbEntity
  8
0
100
AcDbLine
 62
7
  6
BYLAYER
 10
18.7564967957
 20
94.1338814045
 11
17.7368405954
 21
94.1338814045
  0
LINE
  5
263
100
AcDbEntity
  8
0
100
AcDbLine
 62
7
  6
BYLAYER
 10
16.7520293032
 20
94.1338814045
 11
17.6145163242
 21
94.1338814045
  0
LINE
  5
264
100
AcDbEntity
  8
0
100
AcDbLine
 62
7
  6
BYLAYER
 10
41.005269756
 20
94.3838814947
 11
36.4070959186
 21
94.3838814947
  0
LINE
  5
265
100
AcDbEntity
  8
0
100
AcDbLine
 62
7
  6
BYLAYER
 10
41.005269756
 20
98.7838814947
 11
36.4070959185
 21
98.7838814947
  0
LINE
  5
266
100
AcDbEntity
  8
0
100
AcDbLine
 62
7
  6
BYLAYER
 10
16.7520293032
 20
99.0338814045
 11
17.6145163242
 21
99.0338814045
  0
LINE
  5
267
100
AcDbEntity
  8
0
100
AcDbLine
 62
7
  6
BYLAYER
 10
17.7368405954
 20
99.0338814045
 11
18.7564967957
 21
99.0338814045
  0
LINE
  5
268
100
AcDbEntity
  8
0
100
AcDbLine
 62
7
  6
BYLAYER
 10
16.0788949238
 20
99.5795664045
 11
20.7070959178
 21
99.5795664045
  0
LINE
  5
269
100
AcDbEntity
  8
0
100
AcDbLine
 62
7
  6
BYLAYER
 10
29.2070959185
 20
99.9838814947
 11
26.5070959185
 21
99.9838814947
  0
LINE
  5
26A
100
AcDbEntity
  8
0
100
AcDbLine
 62
7
  6
BYLAYER
 10
20.7070959178
 20
100.9838814947
 11
25.0822884366
 21
100.9838814947
  0
LINE
  5
26B
100
AcDbEntity
  8
0
100
AcDbLine
 62
7
  6
BYLAYER
 10
16.0788949238
 20
101.0795664045
 11
20.7070959178
 21
101.0795664045
  0
LINE
  5
26C
100
AcDbEntity
  8
0
100
AcDbLine
 62
7
  6
BYLAYER
 10
42.772812662
 20
101.1838814947
 11
41.4070959186
 21
101.1838814947
  0
LINE
  5
26D
100
AcDbEntity
  8
0
100
AcDbLine
 62
7
  6
BYLAYER
 10
18.7564967957
 20
101.6338814045
 11
17.7368405954
 21
101.6338814045
  0
LINE
  5
26E
100
AcDbEntity
  8
0
100
AcDbLine
 62
7
  6
BYLAYER
 10
16.7520293032
 20
101.6338814045
 11
17.6145163242
 21
101.6338814045
  0
LINE
  5
26F
100
AcDbEntity
  8
0
100
AcDbLine
 62
7
  6
BYLAYER
 10
50.4070959185
 20
102.1838814947
 11
41.4070959185
 21
102.1838814947
  0
LINE
  5
270
100
AcDbEntity
  8
0
100
AcDbLine
 62
7
  6
BYLAYER
 10
29.2070959186
 20
102.1838814947
 11
26.9070959186
 21
102.1838814947
  0
LINE
  5
271
100
AcDbEntity
  8
0
100
AcDbLine
 62
7
  6
BYLAYER
 10
29.2070959186
 20
102.9838814947
 11
21.4378386176
 21
102.9838814947
  0
LINE
  5
272
100
AcDbEntity
  8
0
100
AcDbLine
 62
7
  6
BYLAYER
 10
51.3570959185
 20
103.4838814947
 11
52.2570959185
 21
103.4838814947
  0
LINE
  5
273
100
AcDbEntity
  8
0
100
AcDbLine
 62
7
  6
BYLAYER
 10
50.9070959185
 20
104.0338814947
 11
29.2070959185
 21
104.0338814947
  0
LINE
  5
274
100
AcDbEntity
  8
0
100
AcDbLine
 62
7
  6
BYLAYER
 10
29.2070959186
 20
104.5338814947
 11
29.0070959185
 21
104.5338814947
  0
LINE
  5
275
100
AcDbEntity
  8
0
100
AcDbLine
 62
7
  6
BYLAYER
 10
50.9070959186
 20
104.5338814947
 11
54.9070959185
 21
104.5338814947
  0
LINE
  5
276
100
AcDbEntity
  8
0
100
AcDbLine
 62
7
  6
BYLAYER
 10
29.2070959185
 20
105.3338814947
 11
54.9070959185
 21
105.3338814947
  0
LINE
  5
277
100
AcDbEntity
  8
0
100
AcDbLine
 62
7
  6
BYLAYER
 10
85.9070959185
 20
105.9838814944
 11
88.9070959185
 21
105.9838814944
  0
LINE
  5
278
100
AcDbEntity
  8
0
100
AcDbLine
 62
7
  6
BYLAYER
 10
16.7520293032
 20
106.5338814045
 11
17.6145163242
 21
106.5338814045
  0
LINE
  5
279
100
AcDbEntity
  8
0
100
AcDbLine
 62
7
  6
BYLAYER
 10
17.7368405954
 20
106.5338814045
 11
18.7564967957
 21
106.5338814045
  0
LINE
  5
27A
100
AcDbEntity
  8
0
100
AcDbLine
 62
7
  6
BYLAYER
 10
123.6034597062
 20
106.6338814947
 11
119.7070959187
 21
106.6338814947
  0
LINE
  5
27B
100
AcDbEntity
  8
0
100
AcDbLine
 62
7
  6
BYLAYER
 10
20.7070959179
 20
106.6338814947
 11
19.2190169913
 21
106.6338814947
  0
LINE
  5
27C
100
AcDbEntity
  8
0
100
AcDbLine
 62
7
  6
BYLAYER
 10
20.707095918
 20
107.1338814947
 11
16.0788949238
 21
107.1338814947
  0
LINE
  5
27D
100
AcDbEntity
  8
0
100
AcDbLine
 62
7
  6
BYLAYER
 10
119.7070959187
 20
107.883881495
 11
20.7070959178
 21
107.883881495
  0
LINE
  5
27E
100
AcDbEntity
  8
0
100
AcDbLine
 62
7
  6
BYLAYER
 10
85.9070959185
 20
85.283881495
 11
85.9070959185
 21
87.183881495
  0
LINE
  5
27F
100
AcDbEntity
  8
0
100
AcDbLine
 62
7
  6
BYLAYER
 10
85.9070959185
 20
105.9838814944
 11
85.9070959185
 21
107.883881495
  0
LINE
  5
280
100
AcDbEntity
  8
0
100
AcDbLine
 62
7
  6
BYLAYER
 10
88.9070959185
 20
87.183881495
 11
88.9070959185
 21
105.9838814944
  0
LINE
  5
281
100
AcDbEntity
  8
0
100
AcDbLine
 62
7
  6
BYLAYER
 10
119.7070959187
 20
107.883881495
 11
119.7070959187
 21
85.283881495
  0
LINE
  5
282
100
AcDbEntity
  8
0
100
AcDbLine
 62
7
  6
BYLAYER
 10
123.6034597062
 20
106.6338814947
 11
123.6034597062
 21
86.5338814949
  0
ARC
  5
283
100
AcDbEntity
  8
0
100
AcDbCircle
 62
7
  6
BYLAYER
 10
36.4070959186
 20
96.5838814947
 40
2.2
100
AcDbArc
 50
90.0
 51
270.0
  0
ARC
  5
284
100
AcDbEntity
  8
0
100
AcDbCircle
 62
7
  6
BYLAYER
 10
26.9070959186
 20
92.9838814947
 40
2.0
100
AcDbArc
 50
180.0
 51
270.0
  0
ARC
  5
285
100
AcDbEntity
  8
0
100
AcDbCircle
 62
7
  6
BYLAYER
 10
26.9070959186
 20
100.1838814947
 40
2.0
100
AcDbArc
 50
90.0
 51
180.0
  0
ARC
  5
286
100
AcDbEntity
  8
0
100
AcDbCircle
 62
7
  6
BYLAYER
 10
17.8592443907
 20
102.4301229878
 40
0.8498266957
100
AcDbArc
 50
290.4551831729
 51
291.5776850098
  0
ARC
  5
287
100
AcDbEntity
  8
0
100
AcDbCircle
 62
7
  6
BYLAYER
 10
17.8592443908
 20
87.4301229876
 40
0.8498266955
100
AcDbArc
 50
290.4551831727
 51
291.57768501
  0
ARC
  5
288
100
AcDbEntity
  8
0
100
AcDbCircle
 62
7
  6
BYLAYER
 10
17.8592443907
 20
94.9301229877
 40
0.8498266956
100
AcDbArc
 50
290.4551831729
 51
291.5776850099
  0
ARC
  5
289
100
AcDbEntity
  8
0
100
AcDbCircle
 62
7
  6
BYLAYER
 10
17.8592570259
 20
105.7376734988
 40
0.8497907259
100
AcDbArc
 50
68.424027446
 51
69.5448214855
  0
ARC
  5
28A
100
AcDbEntity
  8
0
100
AcDbCircle
 62
7
  6
BYLAYER
 10
17.859257026
 20
90.7376734989
 40
0.8497907259
100
AcDbArc
 50
68.4240274459
 51
69.5448214856
  0
ARC
  5
28B
100
AcDbEntity
  8
0
100
AcDbCircle
 62
7
  6
BYLAYER
 10
17.8592570259
 20
98.2376734987
 40
0.8497907261
100
AcDbArc
 50
68.424027446
 51
69.5448214855
  0
SPLINE
  5
28C
100
AcDbEntity
  8
0
100
AcDbSpline
 62
7
  6
BYLAYER
 70
0
 71
3
 72
17
 73
13
 74
0
 42
0.0000001
 43
0.0000001
 44
0.0000000001
 40
0.0
 40
0.0
 40
0.0
 40
0.0
 40
0.043269935
 40
0.0875062973
 40
0.1335764304
 40
0.182189737
 40
0.2887118271
 40
0.4092305446
 40
0.5432651489
 40
0.6886707202
 40
0.8422293445
 40
1.0
 40
1.0
 40
1.0
 40
1.0
 10
121.7814625947
 20
101.1338662928
 30
0.0
 10
121.7448490438
 20
101.1338663786
 30
0.0
 10
121.670635133
 20
101.127117196
 30
0.0
 10
121.5611619266
 20
101.0969221549
 30
0.0
 10
121.4540946315
 20
101.0471918927
 30
0.0
 10
121.3117733162
 20
100.9527615753
 30
0.0
 10
121.1460301115
 20
100.7851652775
 30
0.0
 10
120.9790891703
 20
100.5274677879
 30
0.0
 10
120.8426599052
 20
100.2164004084
 30
0.0
 10
120.7415171109
 20
99.863261886
 30
0.0
 10
120.6792866841
 20
99.4810426711
 30
0.0
 10
120.6653400762
 20
99.2173816707
 30
0.0
 10
120.6653400762
 20
99.0838814948
 30
0.0
  0
SPLINE
  5
28D
100
AcDbEntity
  8
0
100
AcDbSpline
 62
7
  6
BYLAYER
 70
0
 71
3
 72
17
 73
13
 74
0
 42
0.0000001
 43
0.0000001
 44
0.0000000001
 40
0.0
 40
0.0
 40
0.0
 40
0.0
 40
0.043269935
 40
0.0875062973
 40
0.1335764304
 40
0.182189737
 40
0.2887118271
 40
0.4092305446
 40
0.5432651489
 40
0.6886707202
 40
0.8422293445
 40
1.0
 40
1.0
 40
1.0
 40
1.0
 10
121.7814625947
 20
106.1338662928
 30
0.0
 10
121.7448490438
 20
106.1338663786
 30
0.0
 10
121.670635133
 20
106.127117196
 30
0.0
 10
121.5611619266
 20
106.0969221549
 30
0.0
 10
121.4540946315
 20
106.0471918927
 30
0.0
 10
121.3117733162
 20
105.9527615753
 30
0.0
 10
121.1460301115
 20
105.7851652775
 30
0.0
 10
120.9790891703
 20
105.5274677879
 30
0.0
 10
120.8426599052
 20
105.2164004084
 30
0.0
 10
120.7415171109
 20
104.863261886
 30
0.0
 10
120.6792866841
 20
104.4810426711
 30
0.0
 10
120.6653400762
 20
104.2173816707
 30
0.0
 10
120.6653400762
 20
104.0838814948
 30
0.0
  0
SPLINE
  5
28E
100
AcDbEntity
  8
0
100
AcDbSpline
 62
7
  6
BYLAYER
 70
0
 71
3
 72
17
 73
13
 74
0
 42
0.0000001
 43
0.0000001
 44
0.0000000001
 40
0.0
 40
0.0
 40
0.0
 40
0.0
 40
0.043269935
 40
0.0875062973
 40
0.1335764304
 40
0.182189737
 40
0.2887118271
 40
0.4092305446
 40
0.5432651489
 40
0.6886707202
 40
0.8422293445
 40
1.0
 40
1.0
 40
1.0
 40
1.0
 10
121.7814625947
 20
91.1338662928
 30
0.0
 10
121.7448490438
 20
91.1338663786
 30
0.0
 10
121.670635133
 20
91.127117196
 30
0.0
 10
121.5611619266
 20
91.0969221549
 30
0.0
 10
121.4540946315
 20
91.0471918927
 30
0.0
 10
121.3117733162
 20
90.9527615753
 30
0.0
 10
121.1460301115
 20
90.7851652775
 30
0.0
 10
120.9790891703
 20
90.5274677879
 30
0.0
 10
120.8426599052
 20
90.2164004084
 30
0.0
 10
120.7415171109
 20
89.863261886
 30
0.0
 10
120.6792866841
 20
89.4810426711
 30
0.0
 10
120.6653400762
 20
89.2173816707
 30
0.0
 10
120.6653400762
 20
89.0838814948
 30
0.0
  0
SPLINE
  5
28F
100
AcDbEntity
  8
0
100
AcDbSpline
 62
7
  6
BYLAYER
 70
0
 71
3
 72
17
 73
13
 74
0
 42
0.0000001
 43
0.0000001
 44
0.0000000001
 40
0.0
 40
0.0
 40
0.0
 40
0.0
 40
0.043269935
 40
0.0875062973
 40
0.1335764304
 40
0.182189737
 40
0.2887118271
 40
0.4092305446
 40
0.5432651489
 40
0.6886707202
 40
0.8422293445
 40
1.0
 40
1.0
 40
1.0
 40
1.0
 10
121.7814625947
 20
96.1338662928
 30
0.0
 10
121.7448490438
 20
96.1338663786
 30
0.0
 10
121.670635133
 20
96.127117196
 30
0.0
 10
121.5611619266
 20
96.0969221549
 30
0.0
 10
121.4540946315
 20
96.0471918927
 30
0.0
 10
121.3117733162
 20
95.9527615753
 30
0.0
 10
121.1460301115
 20
95.7851652775
 30
0.0
 10
120.9790891703
 20
95.5274677879
 30
0.0
 10
120.8426599052
 20
95.2164004084
 30
0.0
 10
120.7415171109
 20
94.863261886
 30
0.0
 10
120.6792866841
 20
94.4810426711
 30
0.0
 10
120.6653400762
 20
94.2173816707
 30
0.0
 10
120.6653400762
 20
94.0838814948
 30
0.0
  0
SPLINE
  5
290
100
AcDbEntity
  8
0
100
AcDbSpline
 62
7
  6
BYLAYER
 70
0
 71
3
 72
9
 73
5
 74
0
 42
0.0000001
 43
0.0000001
 44
0.0000000001
 40
0.0
 40
0.0
 40
0.0
 40
0.0
 40
0.2519610966
 40
1.0
 40
1.0
 40
1.0
 40
1.0
 10
120.6653400762
 20
94.0838814948
 30
0.0
 10
120.6653400762
 20
94.0391836834
 30
0.0
 10
120.6685013803
 20
93.8618018033
 30
0.0
 10
120.6842146026
 20
93.6846143347
 30
0.0
 10
120.7033710287
 20
93.5533024524
 30
0.0
  0
SPLINE
  5
291
100
AcDbEntity
  8
0
100
AcDbSpline
 62
7
  6
BYLAYER
 70
0
 71
3
 72
15
 73
11
 74
0
 42
0.0000001
 43
0.0000001
 44
0.0000000001
 40
0.0
 40
0.0
 40
0.0
 40
0.0
 40
0.1601965146
 40
0.3127671668
 40
0.4552721277
 40
0.5861281983
 40
0.7045896402
 40
0.8112427935
 40
0.9083438004
 40
1.0
 40
1.0
 40
1.0
 40
1.0
 10
120.7033710287
 20
93.5533024524
 30
0.0
 10
120.7188341611
 20
93.4473070533
 30
0.0
 10
120.7585135018
 20
93.2415850309
 30
0.0
 10
120.8459099575
 20
92.9494077306
 30
0.0
 10
120.9579505765
 20
92.68681114
 30
0.0
 10
121.0917904322
 20
92.4605450512
 30
0.0
 10
121.244422784
 20
92.2763436
 30
0.0
 10
121.4127612671
 20
92.1391458336
 30
0.0
 10
121.5932595152
 20
92.0536064922
 30
0.0
 10
121.720175526
 20
92.0338893927
 30
0.0
 10
121.7814625768
 20
92.0338944509
 30
0.0
  0
SPLINE
  5
292
100
AcDbEntity
  8
0
100
AcDbSpline
 62
7
  6
BYLAYER
 70
0
 71
3
 72
9
 73
5
 74
0
 42
0.0000001
 43
0.0000001
 44
0.0000000001
 40
0.0
 40
0.0
 40
0.0
 40
0.0
 40
0.2519610966
 40
1.0
 40
1.0
 40
1.0
 40
1.0
 10
120.6653400762
 20
89.0838814948
 30
0.0
 10
120.6653400762
 20
89.0391836834
 30
0.0
 10
120.6685013803
 20
88.8618018033
 30
0.0
 10
120.6842146026
 20
88.6846143347
 30
0.0
 10
120.7033710287
 20
88.5533024524
 30
0.0
  0
SPLINE
  5
293
100
AcDbEntity
  8
0
100
AcDbSpline
 62
7
  6
BYLAYER
 70
0
 71
3
 72
15
 73
11
 74
0
 42
0.0000001
 43
0.0000001
 44
0.0000000001
 40
0.0
 40
0.0
 40
0.0
 40
0.0
 40
0.1601965146
 40
0.3127671668
 40
0.4552721277
 40
0.5861281983
 40
0.7045896402
 40
0.8112427935
 40
0.9083438004
 40
1.0
 40
1.0
 40
1.0
 40
1.0
 10
120.7033710287
 20
88.5533024524
 30
0.0
 10
120.7188341611
 20
88.4473070533
 30
0.0
 10
120.7585135018
 20
88.2415850309
 30
0.0
 10
120.8459099575
 20
87.9494077306
 30
0.0
 10
120.9579505765
 20
87.68681114
 30
0.0
 10
121.0917904322
 20
87.4605450512
 30
0.0
 10
121.244422784
 20
87.2763436
 30
0.0
 10
121.4127612671
 20
87.1391458336
 30
0.0
 10
121.5932595152
 20
87.0536064922
 30
0.0
 10
121.720175526
 20
87.0338893927
 30
0.0
 10
121.7814625768
 20
87.0338944509
 30
0.0
  0
SPLINE
  5
294
100
AcDbEntity
  8
0
100
AcDbSpline
 62
7
  6
BYLAYER
 70
0
 71
3
 72
9
 73
5
 74
0
 42
0.0000001
 43
0.0000001
 44
0.0000000001
 40
0.0
 40
0.0
 40
0.0
 40
0.0
 40
0.2519610966
 40
1.0
 40
1.0
 40
1.0
 40
1.0
 10
120.6653400762
 20
104.0838814948
 30
0.0
 10
120.6653400762
 20
104.0391836834
 30
0.0
 10
120.6685013803
 20
103.8618018033
 30
0.0
 10
120.6842146026
 20
103.6846143347
 30
0.0
 10
120.7033710287
 20
103.5533024524
 30
0.0
  0
SPLINE
  5
295
100
AcDbEntity
  8
0
100
AcDbSpline
 62
7
  6
BYLAYER
 70
0
 71
3
 72
15
 73
11
 74
0
 42
0.0000001
 43
0.0000001
 44
0.0000000001
 40
0.0
 40
0.0
 40
0.0
 40
0.0
 40
0.1601965146
 40
0.3127671668
 40
0.4552721277
 40
0.5861281983
 40
0.7045896402
 40
0.8112427935
 40
0.9083438004
 40
1.0
 40
1.0
 40
1.0
 40
1.0
 10
120.7033710287
 20
103.5533024524
 30
0.0
 10
120.7188341611
 20
103.4473070533
 30
0.0
 10
120.7585135018
 20
103.2415850309
 30
0.0
 10
120.8459099575
 20
102.9494077306
 30
0.0
 10
120.9579505765
 20
102.68681114
 30
0.0
 10
121.0917904322
 20
102.4605450512
 30
0.0
 10
121.244422784
 20
102.2763436
 30
0.0
 10
121.4127612671
 20
102.1391458336
 30
0.0
 10
121.5932595152
 20
102.0536064922
 30
0.0
 10
121.720175526
 20
102.0338893927
 30
0.0
 10
121.7814625768
 20
102.0338944509
 30
0.0
  0
SPLINE
  5
296
100
AcDbEntity
  8
0
100
AcDbSpline
 62
7
  6
BYLAYER
 70
0
 71
3
 72
9
 73
5
 74
0
 42
0.0000001
 43
0.0000001
 44
0.0000000001
 40
0.0
 40
0.0
 40
0.0
 40
0.0
 40
0.2519610966
 40
1.0
 40
1.0
 40
1.0
 40
1.0
 10
120.6653400762
 20
99.0838814948
 30
0.0
 10
120.6653400762
 20
99.0391836834
 30
0.0
 10
120.6685013803
 20
98.8618018033
 30
0.0
 10
120.6842146026
 20
98.6846143347
 30
0.0
 10
120.7033710287
 20
98.5533024524
 30
0.0
  0
SPLINE
  5
297
100
AcDbEntity
  8
0
100
AcDbSpline
 62
7
  6
BYLAYER
 70
0
 71
3
 72
15
 73
11
 74
0
 42
0.0000001
 43
0.0000001
 44
0.0000000001
 40
0.0
 40
0.0
 40
0.0
 40
0.0
 40
0.1601965146
 40
0.3127671668
 40
0.4552721277
 40
0.5861281983
 40
0.7045896402
 40
0.8112427935
 40
0.9083438004
 40
1.0
 40
1.0
 40
1.0
 40
1.0
 10
120.7033710287
 20
98.5533024524
 30
0.0
 10
120.7188341611
 20
98.4473070533
 30
0.0
 10
120.7585135018
 20
98.2415850309
 30
0.0
 10
120.8459099575
 20
97.9494077306
 30
0.0
 10
120.9579505765
 20
97.68681114
 30
0.0
 10
121.0917904322
 20
97.4605450512
 30
0.0
 10
121.244422784
 20
97.2763436
 30
0.0
 10
121.4127612671
 20
97.1391458336
 30
0.0
 10
121.5932595152
 20
97.0536064922
 30
0.0
 10
121.720175526
 20
97.0338893927
 30
0.0
 10
121.7814625768
 20
97.0338944509
 30
0.0
  0
SPLINE
  5
298
100
AcDbEntity
  8
0
100
AcDbSpline
 62
7
  6
BYLAYER
 70
0
 71
3
 72
11
 73
7
 74
0
 42
0.0000001
 43
0.0000001
 44
0.0000000001
 40
0.0
 40
0.0
 40
0.0
 40
0.0
 40
0.2640117156
 40
0.5222483498
 40
0.7691265539
 40
1.0
 40
1.0
 40
1.0
 40
1.0
 10
121.2199985217
 20
104.0838814948
 30
0.0
 10
121.2199985217
 20
103.9627148215
 30
0.0
 10
121.2084675259
 20
103.7228686028
 30
0.0
 10
121.1569656484
 20
103.3730638226
 30
0.0
 10
121.0728873625
 20
103.0452656628
 30
0.0
 10
120.9937383013
 20
102.8400264194
 30
0.0
 10
120.9486585663
 20
102.7441362399
 30
0.0
  0
SPLINE
  5
299
100
AcDbEntity
  8
0
100
AcDbSpline
 62
7
  6
BYLAYER
 70
0
 71
3
 72
11
 73
7
 74
0
 42
0.0000001
 43
0.0000001
 44
0.0000000001
 40
0.0
 40
0.0
 40
0.0
 40
0.0
 40
0.2640117156
 40
0.5222483498
 40
0.7691265539
 40
1.0
 40
1.0
 40
1.0
 40
1.0
 10
121.2199985217
 20
89.0838814948
 30
0.0
 10
121.2199985217
 20
88.9627148215
 30
0.0
 10
121.2084675259
 20
88.7228686028
 30
0.0
 10
121.1569656484
 20
88.3730638226
 30
0.0
 10
121.0728873625
 20
88.0452656628
 30
0.0
 10
120.9937383013
 20
87.8400264194
 30
0.0
 10
120.9486585663
 20
87.7441362399
 30
0.0
  0
SPLINE
  5
29A
100
AcDbEntity
  8
0
100
AcDbSpline
 62
7
  6
BYLAYER
 70
0
 71
3
 72
16
 73
12
 74
0
 42
0.0000001
 43
0.0000001
 44
0.0000000001
 40
0.0
 40
0.0
 40
0.0
 40
0.0
 40
0.0432822571
 40
0.0875303571
 40
0.1819727548
 40
0.2885236881
 40
0.4090752152
 40
0.5431454197
 40
0.6885910531
 40
0.8421863649
 40
1.0
 40
1.0
 40
1.0
 40
1.0
 10
121.7814625768
 20
102.0338944509
 30
0.0
 10
121.8180768015
 20
102.0338974727
 30
0.0
 10
121.8922929291
 20
102.0406596182
 30
0.0
 10
122.0413765226
 20
102.0817129765
 30
0.0
 10
122.2240621683
 20
102.1873145133
 30
0.0
 10
122.4167565532
 20
102.382547499
 30
0.0
 10
122.5838843125
 20
102.6403155977
 30
0.0
 10
122.7202559905
 20
102.9513626324
 30
0.0
 10
122.8214117295
 20
103.3045065069
 30
0.0
 10
122.88363891
 20
103.6867216385
 30
0.0
 10
122.8975851084
 20
103.9503805108
 30
0.0
 10
122.8975851084
 20
104.0838814948
 30
0.0
  0
SPLINE
  5
29B
100
AcDbEntity
  8
0
100
AcDbSpline
 62
7
  6
BYLAYER
 70
0
 71
3
 72
16
 73
12
 74
0
 42
0.0000001
 43
0.0000001
 44
0.0000000001
 40
0.0
 40
0.0
 40
0.0
 40
0.0
 40
0.0432822571
 40
0.0875303571
 40
0.1819727548
 40
0.2885236881
 40
0.4090752152
 40
0.5431454197
 40
0.6885910531
 40
0.8421863649
 40
1.0
 40
1.0
 40
1.0
 40
1.0
 10
121.7814625768
 20
97.0338944509
 30
0.0
 10
121.8180768015
 20
97.0338974727
 30
0.0
 10
121.8922929291
 20
97.0406596182
 30
0.0
 10
122.0413765226
 20
97.0817129765
 30
0.0
 10
122.2240621683
 20
97.1873145133
 30
0.0
 10
122.4167565532
 20
97.382547499
 30
0.0
 10
122.5838843125
 20
97.6403155977
 30
0.0
 10
122.7202559905
 20
97.9513626324
 30
0.0
 10
122.8214117295
 20
98.3045065069
 30
0.0
 10
122.88363891
 20
98.6867216385
 30
0.0
 10
122.8975851084
 20
98.9503805108
 30
0.0
 10
122.8975851084
 20
99.0838814948
 30
0.0
  0
SPLINE
  5
29C
100
AcDbEntity
  8
0
100
AcDbSpline
 62
7
  6
BYLAYER
 70
0
 71
3
 72
11
 73
7
 74
0
 42
0.0000001
 43
0.0000001
 44
0.0000000001
 40
0.0
 40
0.0
 40
0.0
 40
0.0
 40
0.23122004
 40
0.4781572639
 40
0.7362578333
 40
1.0
 40
1.0
 40
1.0
 40
1.0
 10
120.9534828453
 20
90.4132962131
 30
0.0
 10
120.9977684717
 20
90.3178276704
 30
0.0
 10
121.0755015899
 20
90.1138159362
 30
0.0
 10
121.1581047175
 20
89.7884159593
 30
0.0
 10
121.2086737
 20
89.4415996314
 30
0.0
 10
121.2199985217
 20
89.2039239783
 30
0.0
 10
121.2199985217
 20
89.0838814948
 30
0.0
  0
SPLINE
  5
29D
100
AcDbEntity
  8
0
100
AcDbSpline
 62
7
  6
BYLAYER
 70
0
 71
3
 72
17
 73
13
 74
0
 42
0.0000001
 43
0.0000001
 44
0.0000000001
 40
0.0
 40
0.0
 40
0.0
 40
0.0
 40
0.1577689341
 40
0.3113243804
 40
0.4567289628
 40
0.5907634141
 40
0.711283755
 40
0.8178079535
 40
0.8664221295
 40
0.9124929907
 40
0.9567298013
 40
1.0
 40
1.0
 40
1.0
 40
1.0
 10
122.8975851084
 20
94.0838814948
 30
0.0
 10
122.8975851084
 20
94.217380234
 30
0.0
 10
122.8836393062
 20
94.4810371636
 30
0.0
 10
122.8214100353
 20
94.8632515057
 30
0.0
 10
122.7202708173
 20
95.2163872637
 30
0.0
 10
122.5838430817
 20
95.5274558232
 30
0.0
 10
122.4169025073
 20
95.7851571678
 30
0.0
 10
122.2511576183
 20
95.9527575473
 30
0.0
 10
122.1088338601
 20
96.0471898963
 30
0.0
 10
122.0017653082
 20
96.0969216135
 30
0.0
 10
121.8922908827
 20
96.1271170956
 30
0.0
 10
121.8180763742
 20
96.1338662069
 30
0.0
 10
121.7814625947
 20
96.1338662928
 30
0.0
  0
SPLINE
  5
29E
100
AcDbEntity
  8
0
100
AcDbSpline
 62
7
  6
BYLAYER
 70
0
 71
3
 72
16
 73
12
 74
0
 42
0.0000001
 43
0.0000001
 44
0.0000000001
 40
0.0
 40
0.0
 40
0.0
 40
0.0
 40
0.0432822571
 40
0.0875303571
 40
0.1819727548
 40
0.2885236881
 40
0.4090752152
 40
0.5431454197
 40
0.6885910531
 40
0.8421863649
 40
1.0
 40
1.0
 40
1.0
 40
1.0
 10
121.7814625768
 20
87.0338944509
 30
0.0
 10
121.8180768015
 20
87.0338974727
 30
0.0
 10
121.8922929291
 20
87.0406596182
 30
0.0
 10
122.0413765226
 20
87.0817129765
 30
0.0
 10
122.2240621683
 20
87.1873145133
 30
0.0
 10
122.4167565532
 20
87.382547499
 30
0.0
 10
122.5838843125
 20
87.6403155977
 30
0.0
 10
122.7202559905
 20
87.9513626324
 30
0.0
 10
122.8214117295
 20
88.3045065069
 30
0.0
 10
122.88363891
 20
88.6867216385
 30
0.0
 10
122.8975851084
 20
88.9503805108
 30
0.0
 10
122.8975851084
 20
89.0838814948
 30
0.0
  0
SPLINE
  5
29F
100
AcDbEntity
  8
0
100
AcDbSpline
 62
7
  6
BYLAYER
 70
0
 71
3
 72
11
 73
7
 74
0
 42
0.0000001
 43
0.0000001
 44
0.0000000001
 40
0.0
 40
0.0
 40
0.0
 40
0.0
 40
0.23122004
 40
0.4781572639
 40
0.7362578333
 40
1.0
 40
1.0
 40
1.0
 40
1.0
 10
120.9534828453
 20
100.4132962131
 30
0.0
 10
120.9977684717
 20
100.3178276704
 30
0.0
 10
121.0755015899
 20
100.1138159362
 30
0.0
 10
121.1581047175
 20
99.7884159593
 30
0.0
 10
121.2086737
 20
99.4415996314
 30
0.0
 10
121.2199985217
 20
99.2039239783
 30
0.0
 10
121.2199985217
 20
99.0838814948
 30
0.0
  0
SPLINE
  5
2A0
100
AcDbEntity
  8
0
100
AcDbSpline
 62
7
  6
BYLAYER
 70
0
 71
3
 72
17
 73
13
 74
0
 42
0.0000001
 43
0.0000001
 44
0.0000000001
 40
0.0
 40
0.0
 40
0.0
 40
0.0
 40
0.1577689341
 40
0.3113243804
 40
0.4567289628
 40
0.5907634141
 40
0.711283755
 40
0.8178079535
 40
0.8664221295
 40
0.9124929907
 40
0.9567298013
 40
1.0
 40
1.0
 40
1.0
 40
1.0
 10
122.8975851084
 20
89.0838814948
 30
0.0
 10
122.8975851084
 20
89.217380234
 30
0.0
 10
122.8836393062
 20
89.4810371636
 30
0.0
 10
122.8214100353
 20
89.8632515057
 30
0.0
 10
122.7202708173
 20
90.2163872637
 30
0.0
 10
122.5838430817
 20
90.5274558232
 30
0.0
 10
122.4169025073
 20
90.7851571678
 30
0.0
 10
122.2511576183
 20
90.9527575473
 30
0.0
 10
122.1088338601
 20
91.0471898963
 30
0.0
 10
122.0017653082
 20
91.0969216135
 30
0.0
 10
121.8922908827
 20
91.1271170956
 30
0.0
 10
121.8180763742
 20
91.1338662069
 30
0.0
 10
121.7814625947
 20
91.1338662928
 30
0.0
  0
SPLINE
  5
2A1
100
AcDbEntity
  8
0
100
AcDbSpline
 62
7
  6
BYLAYER
 70
0
 71
3
 72
11
 73
7
 74
0
 42
0.0000001
 43
0.0000001
 44
0.0000000001
 40
0.0
 40
0.0
 40
0.0
 40
0.0
 40
0.23122004
 40
0.4781572639
 40
0.7362578333
 40
1.0
 40
1.0
 40
1.0
 40
1.0
 10
120.9534828453
 20
95.4132962131
 30
0.0
 10
120.9977684717
 20
95.3178276704
 30
0.0
 10
121.0755015899
 20
95.1138159362
 30
0.0
 10
121.1581047175
 20
94.7884159593
 30
0.0
 10
121.2086737
 20
94.4415996314
 30
0.0
 10
121.2199985217
 20
94.2039239783
 30
0.0
 10
121.2199985217
 20
94.0838814948
 30
0.0
  0
SPLINE
  5
2A2
100
AcDbEntity
  8
0
100
AcDbSpline
 62
7
  6
BYLAYER
 70
0
 71
3
 72
16
 73
12
 74
0
 42
0.0000001
 43
0.0000001
 44
0.0000000001
 40
0.0
 40
0.0
 40
0.0
 40
0.0
 40
0.0432822571
 40
0.0875303571
 40
0.1819727548
 40
0.2885236881
 40
0.4090752152
 40
0.5431454197
 40
0.6885910531
 40
0.8421863649
 40
1.0
 40
1.0
 40
1.0
 40
1.0
 10
121.7814625768
 20
92.0338944509
 30
0.0
 10
121.8180768015
 20
92.0338974727
 30
0.0
 10
121.8922929291
 20
92.0406596182
 30
0.0
 10
122.0413765226
 20
92.0817129765
 30
0.0
 10
122.2240621683
 20
92.1873145133
 30
0.0
 10
122.4167565532
 20
92.382547499
 30
0.0
 10
122.5838843125
 20
92.6403155977
 30
0.0
 10
122.7202559905
 20
92.9513626324
 30
0.0
 10
122.8214117295
 20
93.3045065069
 30
0.0
 10
122.88363891
 20
93.6867216385
 30
0.0
 10
122.8975851084
 20
93.9503805108
 30
0.0
 10
122.8975851084
 20
94.0838814948
 30
0.0
  0
SPLINE
  5
2A3
100
AcDbEntity
  8
0
100
AcDbSpline
 62
7
  6
BYLAYER
 70
0
 71
3
 72
17
 73
13
 74
0
 42
0.0000001
 43
0.0000001
 44
0.0000000001
 40
0.0
 40
0.0
 40
0.0
 40
0.0
 40
0.1577689341
 40
0.3113243804
 40
0.4567289628
 40
0.5907634141
 40
0.711283755
 40
0.8178079535
 40
0.8664221295
 40
0.9124929907
 40
0.9567298013
 40
1.0
 40
1.0
 40
1.0
 40
1.0
 10
122.8975851084
 20
104.0838814948
 30
0.0
 10
122.8975851084
 20
104.217380234
 30
0.0
 10
122.8836393062
 20
104.4810371636
 30
0.0
 10
122.8214100353
 20
104.8632515057
 30
0.0
 10
122.7202708173
 20
105.2163872637
 30
0.0
 10
122.5838430817
 20
105.5274558232
 30
0.0
 10
122.4169025073
 20
105.7851571678
 30
0.0
 10
122.2511576183
 20
105.9527575473
 30
0.0
 10
122.1088338601
 20
106.0471898963
 30
0.0
 10
122.0017653082
 20
106.0969216135
 30
0.0
 10
121.8922908827
 20
106.1271170956
 30
0.0
 10
121.8180763742
 20
106.1338662069
 30
0.0
 10
121.7814625947
 20
106.1338662928
 30
0.0
  0
SPLINE
  5
2A4
100
AcDbEntity
  8
0
100
AcDbSpline
 62
7
  6
BYLAYER
 70
0
 71
3
 72
11
 73
7
 74
0
 42
0.0000001
 43
0.0000001
 44
0.0000000001
 40
0.0
 40
0.0
 40
0.0
 40
0.0
 40
0.2640117156
 40
0.5222483498
 40
0.7691265539
 40
1.0
 40
1.0
 40
1.0
 40
1.0
 10
121.2199985217
 20
99.0838814948
 30
0.0
 10
121.2199985217
 20
98.9627148215
 30
0.0
 10
121.2084675259
 20
98.7228686028
 30
0.0
 10
121.1569656484
 20
98.3730638226
 30
0.0
 10
121.0728873625
 20
98.0452656628
 30
0.0
 10
120.9937383013
 20
97.8400264194
 30
0.0
 10
120.9486585663
 20
97.7441362399
 30
0.0
  0
SPLINE
  5
2A5
100
AcDbEntity
  8
0
100
AcDbSpline
 62
7
  6
BYLAYER
 70
0
 71
3
 72
17
 73
13
 74
0
 42
0.0000001
 43
0.0000001
 44
0.0000000001
 40
0.0
 40
0.0
 40
0.0
 40
0.0
 40
0.1577689341
 40
0.3113243804
 40
0.4567289628
 40
0.5907634141
 40
0.711283755
 40
0.8178079535
 40
0.8664221295
 40
0.9124929907
 40
0.9567298013
 40
1.0
 40
1.0
 40
1.0
 40
1.0
 10
122.8975851084
 20
99.0838814948
 30
0.0
 10
122.8975851084
 20
99.217380234
 30
0.0
 10
122.8836393062
 20
99.4810371636
 30
0.0
 10
122.8214100353
 20
99.8632515057
 30
0.0
 10
122.7202708173
 20
100.2163872637
 30
0.0
 10
122.5838430817
 20
100.5274558232
 30
0.0
 10
122.4169025073
 20
100.7851571678
 30
0.0
 10
122.2511576183
 20
100.9527575473
 30
0.0
 10
122.1088338601
 20
101.0471898963
 30
0.0
 10
122.0017653082
 20
101.0969216135
 30
0.0
 10
121.8922908827
 20
101.1271170956
 30
0.0
 10
121.8180763742
 20
101.1338662069
 30
0.0
 10
121.7814625947
 20
101.1338662928
 30
0.0
  0
SPLINE
  5
2A6
100
AcDbEntity
  8
0
100
AcDbSpline
 62
7
  6
BYLAYER
 70
0
 71
3
 72
11
 73
7
 74
0
 42
0.0000001
 43
0.0000001
 44
0.0000000001
 40
0.0
 40
0.0
 40
0.0
 40
0.0
 40
0.2640117156
 40
0.5222483498
 40
0.7691265539
 40
1.0
 40
1.0
 40
1.0
 40
1.0
 10
121.2199985217
 20
94.0838814948
 30
0.0
 10
121.2199985217
 20
93.9627148215
 30
0.0
 10
121.2084675259
 20
93.7228686028
 30
0.0
 10
121.1569656484
 20
93.3730638226
 30
0.0
 10
121.0728873625
 20
93.0452656628
 30
0.0
 10
120.9937383013
 20
92.8400264194
 30
0.0
 10
120.9486585663
 20
92.7441362399
 30
0.0
  0
SPLINE
  5
2A7
100
AcDbEntity
  8
0
100
AcDbSpline
 62
7
  6
BYLAYER
 70
0
 71
3
 72
11
 73
7
 74
0
 42
0.0000001
 43
0.0000001
 44
0.0000000001
 40
0.0
 40
0.0
 40
0.0
 40
0.0
 40
0.23122004
 40
0.4781572639
 40
0.7362578333
 40
1.0
 40
1.0
 40
1.0
 40
1.0
 10
120.9534828453
 20
105.4132962131
 30
0.0
 10
120.9977684717
 20
105.3178276704
 30
0.0
 10
121.0755015899
 20
105.1138159362
 30
0.0
 10
121.1581047175
 20
104.7884159593
 30
0.0
 10
121.2086737
 20
104.4415996314
 30
0.0
 10
121.2199985217
 20
104.2039239783
 30
0.0
 10
121.2199985217
 20
104.0838814948
 30
0.0
  0
SPLINE
  5
2A8
100
AcDbEntity
  8
0
100
AcDbSpline
 62
7
  6
BYLAYER
 70
0
 71
3
 72
9
 73
5
 74
0
 42
0.0000001
 43
0.0000001
 44
0.0000000001
 40
0.0
 40
0.0
 40
0.0
 40
0.0
 40
0.4942646765
 40
1.0
 40
1.0
 40
1.0
 40
1.0
 10
17.4659801365
 20
86.5838814045
 30
0.0
 10
17.5115428508
 20
86.5838814045
 30
0.0
 10
17.6039175219
 20
86.5924752666
 30
0.0
 10
17.6931596144
 20
86.6175900988
 30
0.0
 10
17.7368405954
 20
86.6338814045
 30
0.0
  0
SPLINE
  5
2A9
100
AcDbEntity
  8
0
100
AcDbSpline
 62
7
  6
BYLAYER
 70
0
 71
3
 72
9
 73
5
 74
0
 42
0.0000001
 43
0.0000001
 44
0.0000000001
 40
0.0
 40
0.0
 40
0.0
 40
0.0
 40
0.5057353235
 40
1.0
 40
1.0
 40
1.0
 40
1.0
 10
17.7368405954
 20
106.5338814045
 30
0.0
 10
17.6931596144
 20
106.5501727102
 30
0.0
 10
17.6039175219
 20
106.5752875424
 30
0.0
 10
17.5115428508
 20
106.5838814045
 30
0.0
 10
17.4659801365
 20
106.5838814045
 30
0.0
  0
SPLINE
  5
2AA
100
AcDbEntity
  8
0
100
AcDbSpline
 62
7
  6
BYLAYER
 70
0
 71
3
 72
23
 73
19
 74
0
 42
0.0000001
 43
0.0000001
 44
0.0000000001
 40
0.0
 40
0.0
 40
0.0
 40
0.0
 40
0.0451885619
 40
0.0953180267
 40
0.1511774128
 40
0.2127864093
 40
0.2795779062
 40
0.3505783106
 40
0.4245299904
 40
0.4999997942
 40
0.5754693873
 40
0.6494205183
 40
0.7204204978
 40
0.7872120681
 40
0.8488216169
 40
0.9046814796
 40
0.954811471
 40
1.0
 40
1.0
 40
1.0
 40
1.0
 10
18.1717786999
 20
101.6398523263
 30
0.0
 10
18.2502952588
 20
101.6709013297
 30
0.0
 10
18.4065818941
 20
101.7612042626
 30
0.0
 10
18.6129173451
 20
101.9568461865
 30
0.0
 10
18.7972511795
 20
102.2118346109
 30
0.0
 10
18.9551359832
 20
102.5189786271
 30
0.0
 10
19.0826559864
 20
102.8699559782
 30
0.0
 10
19.1763744848
 20
103.2550601703
 30
0.0
 10
19.2336853583
 20
103.6635401469
 30
0.0
 10
19.2529717871
 20
104.0838927112
 30
0.0
 10
19.2336834748
 20
104.5042441601
 30
0.0
 10
19.1763709901
 20
104.912721679
 30
0.0
 10
19.0826508573
 20
105.2978237379
 30
0.0
 10
18.9551285924
 20
105.6488007144
 30
0.0
 10
18.7972401028
 20
105.9559451501
 30
0.0
 10
18.6129023126
 20
106.2109344409
 30
0.0
 10
18.4065616862
 20
106.406573812
 30
0.0
 10
18.2502719153
 20
106.4968734113
 30
0.0
 10
18.171754488
 20
106.5279200515
 30
0.0
  0
SPLINE
  5
2AB
100
AcDbEntity
  8
0
100
AcDbSpline
 62
7
  6
BYLAYER
 70
0
 71
3
 72
9
 73
5
 74
0
 42
0.0000001
 43
0.0000001
 44
0.0000000001
 40
0.0
 40
0.0
 40
0.0
 40
0.0
 40
0.4942646765
 40
1.0
 40
1.0
 40
1.0
 40
1.0
 10
17.4659801365
 20
101.5838814045
 30
0.0
 10
17.5115428508
 20
101.5838814045
 30
0.0
 10
17.6039175219
 20
101.5924752666
 30
0.0
 10
17.6931596144
 20
101.6175900988
 30
0.0
 10
17.7368405954
 20
101.6338814045
 30
0.0
  0
SPLINE
  5
2AC
100
AcDbEntity
  8
0
100
AcDbSpline
 62
7
  6
BYLAYER
 70
0
 71
3
 72
9
 73
5
 74
0
 42
0.0000001
 43
0.0000001
 44
0.0000000001
 40
0.0
 40
0.0
 40
0.0
 40
0.0
 40
0.5057353235
 40
1.0
 40
1.0
 40
1.0
 40
1.0
 10
17.7368405954
 20
91.5338814045
 30
0.0
 10
17.6931596144
 20
91.5501727102
 30
0.0
 10
17.6039175219
 20
91.5752875424
 30
0.0
 10
17.5115428508
 20
91.5838814045
 30
0.0
 10
17.4659801365
 20
91.5838814045
 30
0.0
  0
SPLINE
  5
2AD
100
AcDbEntity
  8
0
100
AcDbSpline
 62
7
  6
BYLAYER
 70
0
 71
3
 72
23
 73
19
 74
0
 42
0.0000001
 43
0.0000001
 44
0.0000000001
 40
0.0
 40
0.0
 40
0.0
 40
0.0
 40
0.0451885619
 40
0.0953180267
 40
0.1511774128
 40
0.2127864093
 40
0.2795779062
 40
0.3505783106
 40
0.4245299904
 40
0.4999997942
 40
0.5754693873
 40
0.6494205183
 40
0.7204204978
 40
0.7872120681
 40
0.8488216169
 40
0.9046814796
 40
0.954811471
 40
1.0
 40
1.0
 40
1.0
 40
1.0
 10
18.1717786999
 20
86.6398523263
 30
0.0
 10
18.2502952588
 20
86.6709013297
 30
0.0
 10
18.4065818941
 20
86.7612042626
 30
0.0
 10
18.6129173451
 20
86.9568461865
 30
0.0
 10
18.7972511795
 20
87.2118346109
 30
0.0
 10
18.9551359832
 20
87.5189786271
 30
0.0
 10
19.0826559864
 20
87.8699559782
 30
0.0
 10
19.1763744848
 20
88.2550601703
 30
0.0
 10
19.2336853583
 20
88.6635401469
 30
0.0
 10
19.2529717871
 20
89.0838927112
 30
0.0
 10
19.2336834748
 20
89.5042441601
 30
0.0
 10
19.1763709901
 20
89.912721679
 30
0.0
 10
19.0826508573
 20
90.2978237379
 30
0.0
 10
18.9551285924
 20
90.6488007144
 30
0.0
 10
18.7972401028
 20
90.9559451501
 30
0.0
 10
18.6129023126
 20
91.2109344409
 30
0.0
 10
18.4065616862
 20
91.406573812
 30
0.0
 10
18.2502719153
 20
91.4968734113
 30
0.0
 10
18.171754488
 20
91.5279200515
 30
0.0
  0
SPLINE
  5
2AE
100
AcDbEntity
  8
0
100
AcDbSpline
 62
7
  6
BYLAYER
 70
0
 71
3
 72
9
 73
5
 74
0
 42
0.0000001
 43
0.0000001
 44
0.0000000001
 40
0.0
 40
0.0
 40
0.0
 40
0.0
 40
0.4942646765
 40
1.0
 40
1.0
 40
1.0
 40
1.0
 10
17.4659801365
 20
94.0838814045
 30
0.0
 10
17.5115428508
 20
94.0838814045
 30
0.0
 10
17.6039175219
 20
94.0924752666
 30
0.0
 10
17.6931596144
 20
94.1175900988
 30
0.0
 10
17.7368405954
 20
94.1338814045
 30
0.0
  0
SPLINE
  5
2AF
100
AcDbEntity
  8
0
100
AcDbSpline
 62
7
  6
BYLAYER
 70
0
 71
3
 72
9
 73
5
 74
0
 42
0.0000001
 43
0.0000001
 44
0.0000000001
 40
0.0
 40
0.0
 40
0.0
 40
0.0
 40
0.5057353235
 40
1.0
 40
1.0
 40
1.0
 40
1.0
 10
17.7368405954
 20
99.0338814045
 30
0.0
 10
17.6931596144
 20
99.0501727102
 30
0.0
 10
17.6039175219
 20
99.0752875424
 30
0.0
 10
17.5115428508
 20
99.0838814045
 30
0.0
 10
17.4659801365
 20
99.0838814045
 30
0.0
  0
SPLINE
  5
2B0
100
AcDbEntity
  8
0
100
AcDbSpline
 62
7
  6
BYLAYER
 70
0
 71
3
 72
23
 73
19
 74
0
 42
0.0000001
 43
0.0000001
 44
0.0000000001
 40
0.0
 40
0.0
 40
0.0
 40
0.0
 40
0.0451885619
 40
0.0953180267
 40
0.1511774128
 40
0.2127864093
 40
0.2795779062
 40
0.3505783106
 40
0.4245299904
 40
0.4999997942
 40
0.5754693873
 40
0.6494205183
 40
0.7204204978
 40
0.7872120681
 40
0.8488216169
 40
0.9046814796
 40
0.954811471
 40
1.0
 40
1.0
 40
1.0
 40
1.0
 10
18.1717786999
 20
94.1398523263
 30
0.0
 10
18.2502952588
 20
94.1709013297
 30
0.0
 10
18.4065818941
 20
94.2612042626
 30
0.0
 10
18.6129173451
 20
94.4568461865
 30
0.0
 10
18.7972511795
 20
94.7118346109
 30
0.0
 10
18.9551359832
 20
95.0189786271
 30
0.0
 10
19.0826559864
 20
95.3699559782
 30
0.0
 10
19.1763744848
 20
95.7550601703
 30
0.0
 10
19.2336853583
 20
96.1635401469
 30
0.0
 10
19.2529717871
 20
96.5838927112
 30
0.0
 10
19.2336834748
 20
97.0042441601
 30
0.0
 10
19.1763709901
 20
97.412721679
 30
0.0
 10
19.0826508573
 20
97.7978237379
 30
0.0
 10
18.9551285924
 20
98.1488007144
 30
0.0
 10
18.7972401028
 20
98.4559451501
 30
0.0
 10
18.6129023126
 20
98.7109344409
 30
0.0
 10
18.4065616862
 20
98.906573812
 30
0.0
 10
18.2502719153
 20
98.9968734113
 30
0.0
 10
18.171754488
 20
99.0279200515
 30
0.0
  0
SPLINE
  5
2B1
100
AcDbEntity
  8
0
100
AcDbSpline
 62
7
  6
BYLAYER
 70
0
 71
3
 72
15
 73
11
 74
0
 42
0.0000001
 43
0.0000001
 44
0.0000000001
 40
0.0
 40
0.0
 40
0.0
 40
0.0
 40
0.1101135093
 40
0.2324945351
 40
0.3638838959
 40
0.5000133966
 40
0.6361405942
 40
0.7675235
 40
0.8898956992
 40
1.0
 40
1.0
 40
1.0
 40
1.0
 10
18.713756982
 20
102.1301336284
 30
0.0
 10
18.62913141
 20
102.2542275696
 30
0.0
 10
18.4796625237
 20
102.5364953659
 30
0.0
 10
18.3217688235
 20
103.0087848545
 30
0.0
 10
18.2238063451
 20
103.5331235
 30
0.0
 10
18.19065202
 20
104.0840727813
 30
0.0
 10
18.2238518449
 20
104.6350105439
 30
0.0
 10
18.3218564314
 20
105.1593170032
 30
0.0
 10
18.4797863937
 20
105.6315594281
 30
0.0
 10
18.6292787244
 20
105.9137874794
 30
0.0
 10
18.7139142607
 20
106.0378594199
 30
0.0
  0
SPLINE
  5
2B2
100
AcDbEntity
  8
0
100
AcDbSpline
 62
7
  6
BYLAYER
 70
0
 71
3
 72
9
 73
5
 74
0
 42
0.0000001
 43
0.0000001
 44
0.0000000001
 40
0.0
 40
0.0
 40
0.0
 40
0.0
 40
0.5057353235
 40
1.0
 40
1.0
 40
1.0
 40
1.0
 10
17.1951196775
 20
101.6338814045
 30
0.0
 10
17.2388006586
 20
101.6175900988
 30
0.0
 10
17.328042751
 20
101.5924752666
 30
0.0
 10
17.4204174221
 20
101.5838814045
 30
0.0
 10
17.4659801365
 20
101.5838814045
 30
0.0
  0
SPLINE
  5
2B3
100
AcDbEntity
  8
0
100
AcDbSpline
 62
7
  6
BYLAYER
 70
0
 71
3
 72
9
 73
5
 74
0
 42
0.0000001
 43
0.0000001
 44
0.0000000001
 40
0.0
 40
0.0
 40
0.0
 40
0.0
 40
0.4942646765
 40
1.0
 40
1.0
 40
1.0
 40
1.0
 10
17.4659801365
 20
91.5838814045
 30
0.0
 10
17.4204174221
 20
91.5838814045
 30
0.0
 10
17.328042751
 20
91.5752875424
 30
0.0
 10
17.2388006586
 20
91.5501727102
 30
0.0
 10
17.1951196775
 20
91.5338814045
 30
0.0
  0
SPLINE
  5
2B4
100
AcDbEntity
  8
0
100
AcDbSpline
 62
7
  6
BYLAYER
 70
0
 71
3
 72
23
 73
19
 74
0
 42
0.0000001
 43
0.0000001
 44
0.0000000001
 40
0.0
 40
0.0
 40
0.0
 40
0.0
 40
0.0450328228
 40
0.0949908127
 40
0.1507204344
 40
0.2122772935
 40
0.279102082
 40
0.3502126105
 40
0.4243312491
 40
0.4999980578
 40
0.575664736
 40
0.6497830671
 40
0.7208935732
 40
0.7877189735
 40
0.8492769907
 40
0.9050077105
 40
0.9549668018
 40
1.0
 40
1.0
 40
1.0
 40
1.0
 10
17.6145163242
 20
106.5338814045
 30
0.0
 10
17.5352141269
 20
106.5043047717
 30
0.0
 10
17.3769744446
 20
106.4163454492
 30
0.0
 10
17.1677397379
 20
106.222488341
 30
0.0
 10
16.9806950428
 20
105.967935459
 30
0.0
 10
16.82038157
 20
105.6600328844
 30
0.0
 10
16.6908230967
 20
105.3072483608
 30
0.0
 10
16.595560814
 20
104.9194974186
 30
0.0
 10
16.5372865239
 20
104.5077826285
 30
0.0
 10
16.517671414
 20
104.0838927598
 30
0.0
 10
16.537284271
 20
103.6600033697
 30
0.0
 10
16.5955561351
 20
103.2482891153
 30
0.0
 10
16.6908162272
 20
102.860537105
 30
0.0
 10
16.8203735372
 20
102.5077486257
 30
0.0
 10
16.9806877016
 20
102.1998403687
 30
0.0
 10
17.1677338796
 20
101.945280654
 30
0.0
 10
17.3769716252
 20
101.7514195624
 30
0.0
 10
17.5352134659
 20
101.6634582838
 30
0.0
 10
17.6145163242
 20
101.6338814045
 30
0.0
  0
SPLINE
  5
2B5
100
AcDbEntity
  8
0
100
AcDbSpline
 62
7
  6
BYLAYER
 70
0
 71
3
 72
9
 73
5
 74
0
 42
0.0000001
 43
0.0000001
 44
0.0000000001
 40
0.0
 40
0.0
 40
0.0
 40
0.0
 40
0.5057353235
 40
1.0
 40
1.0
 40
1.0
 40
1.0
 10
17.1951196775
 20
94.1338814045
 30
0.0
 10
17.2388006586
 20
94.1175900988
 30
0.0
 10
17.328042751
 20
94.0924752666
 30
0.0
 10
17.4204174221
 20
94.0838814045
 30
0.0
 10
17.4659801365
 20
94.0838814045
 30
0.0
  0
SPLINE
  5
2B6
100
AcDbEntity
  8
0
100
AcDbSpline
 62
7
  6
BYLAYER
 70
0
 71
3
 72
23
 73
19
 74
0
 42
0.0000001
 43
0.0000001
 44
0.0000000001
 40
0.0
 40
0.0
 40
0.0
 40
0.0
 40
0.0450328228
 40
0.0949908127
 40
0.1507204344
 40
0.2122772935
 40
0.279102082
 40
0.3502126105
 40
0.4243312491
 40
0.4999980578
 40
0.575664736
 40
0.6497830671
 40
0.7208935732
 40
0.7877189735
 40
0.8492769907
 40
0.9050077105
 40
0.9549668018
 40
1.0
 40
1.0
 40
1.0
 40
1.0
 10
17.6145163242
 20
99.0338814045
 30
0.0
 10
17.5352141269
 20
99.0043047717
 30
0.0
 10
17.3769744446
 20
98.9163454492
 30
0.0
 10
17.1677397379
 20
98.722488341
 30
0.0
 10
16.9806950428
 20
98.467935459
 30
0.0
 10
16.82038157
 20
98.1600328844
 30
0.0
 10
16.6908230967
 20
97.8072483608
 30
0.0
 10
16.595560814
 20
97.4194974186
 30
0.0
 10
16.5372865239
 20
97.0077826285
 30
0.0
 10
16.517671414
 20
96.5838927598
 30
0.0
 10
16.537284271
 20
96.1600033697
 30
0.0
 10
16.5955561351
 20
95.7482891153
 30
0.0
 10
16.6908162272
 20
95.360537105
 30
0.0
 10
16.8203735372
 20
95.0077486257
 30
0.0
 10
16.9806877016
 20
94.6998403687
 30
0.0
 10
17.1677338796
 20
94.445280654
 30
0.0
 10
17.3769716252
 20
94.2514195624
 30
0.0
 10
17.5352134659
 20
94.1634582838
 30
0.0
 10
17.6145163242
 20
94.1338814045
 30
0.0
  0
SPLINE
  5
2B7
100
AcDbEntity
  8
0
100
AcDbSpline
 62
7
  6
BYLAYER
 70
0
 71
3
 72
15
 73
11
 74
0
 42
0.0000001
 43
0.0000001
 44
0.0000000001
 40
0.0
 40
0.0
 40
0.0
 40
0.0
 40
0.1101135093
 40
0.2324945351
 40
0.3638838959
 40
0.5000133966
 40
0.6361405942
 40
0.7675235
 40
0.8898956992
 40
1.0
 40
1.0
 40
1.0
 40
1.0
 10
18.713756982
 20
87.1301336284
 30
0.0
 10
18.62913141
 20
87.2542275696
 30
0.0
 10
18.4796625237
 20
87.5364953659
 30
0.0
 10
18.3217688235
 20
88.0087848545
 30
0.0
 10
18.2238063451
 20
88.5331235
 30
0.0
 10
18.19065202
 20
89.0840727813
 30
0.0
 10
18.2238518449
 20
89.6350105439
 30
0.0
 10
18.3218564314
 20
90.1593170032
 30
0.0
 10
18.4797863937
 20
90.6315594281
 30
0.0
 10
18.6292787244
 20
90.9137874794
 30
0.0
 10
18.7139142607
 20
91.0378594199
 30
0.0
  0
SPLINE
  5
2B8
100
AcDbEntity
  8
0
100
AcDbSpline
 62
7
  6
BYLAYER
 70
0
 71
3
 72
15
 73
11
 74
0
 42
0.0000001
 43
0.0000001
 44
0.0000000001
 40
0.0
 40
0.0
 40
0.0
 40
0.0
 40
0.1101135093
 40
0.2324945351
 40
0.3638838959
 40
0.5000133966
 40
0.6361405942
 40
0.7675235
 40
0.8898956992
 40
1.0
 40
1.0
 40
1.0
 40
1.0
 10
18.713756982
 20
94.6301336284
 30
0.0
 10
18.62913141
 20
94.7542275696
 30
0.0
 10
18.4796625237
 20
95.0364953659
 30
0.0
 10
18.3217688235
 20
95.5087848545
 30
0.0
 10
18.2238063451
 20
96.0331235
 30
0.0
 10
18.19065202
 20
96.5840727813
 30
0.0
 10
18.2238518449
 20
97.1350105439
 30
0.0
 10
18.3218564314
 20
97.6593170032
 30
0.0
 10
18.4797863937
 20
98.1315594281
 30
0.0
 10
18.6292787244
 20
98.4137874794
 30
0.0
 10
18.7139142607
 20
98.5378594199
 30
0.0
  0
SPLINE
  5
2B9
100
AcDbEntity
  8
0
100
AcDbSpline
 62
7
  6
BYLAYER
 70
0
 71
3
 72
9
 73
5
 74
0
 42
0.0000001
 43
0.0000001
 44
0.0000000001
 40
0.0
 40
0.0
 40
0.0
 40
0.0
 40
0.4942646765
 40
1.0
 40
1.0
 40
1.0
 40
1.0
 10
17.4659801365
 20
106.5838814045
 30
0.0
 10
17.4204174221
 20
106.5838814045
 30
0.0
 10
17.328042751
 20
106.5752875424
 30
0.0
 10
17.2388006586
 20
106.5501727102
 30
0.0
 10
17.1951196775
 20
106.5338814045
 30
0.0
  0
SPLINE
  5
2BA
100
AcDbEntity
  8
0
100
AcDbSpline
 62
7
  6
BYLAYER
 70
0
 71
3
 72
9
 73
5
 74
0
 42
0.0000001
 43
0.0000001
 44
0.0000000001
 40
0.0
 40
0.0
 40
0.0
 40
0.0
 40
0.5057353235
 40
1.0
 40
1.0
 40
1.0
 40
1.0
 10
17.1951196775
 20
86.6338814045
 30
0.0
 10
17.2388006586
 20
86.6175900988
 30
0.0
 10
17.328042751
 20
86.5924752666
 30
0.0
 10
17.4204174221
 20
86.5838814045
 30
0.0
 10
17.4659801365
 20
86.5838814045
 30
0.0
  0
SPLINE
  5
2BB
100
AcDbEntity
  8
0
100
AcDbSpline
 62
7
  6
BYLAYER
 70
0
 71
3
 72
9
 73
5
 74
0
 42
0.0000001
 43
0.0000001
 44
0.0000000001
 40
0.0
 40
0.0
 40
0.0
 40
0.0
 40
0.4942646765
 40
1.0
 40
1.0
 40
1.0
 40
1.0
 10
17.4659801365
 20
99.0838814045
 30
0.0
 10
17.4204174221
 20
99.0838814045
 30
0.0
 10
17.328042751
 20
99.0752875424
 30
0.0
 10
17.2388006586
 20
99.0501727102
 30
0.0
 10
17.1951196775
 20
99.0338814045
 30
0.0
  0
SPLINE
  5
2BC
100
AcDbEntity
  8
0
100
AcDbSpline
 62
7
  6
BYLAYER
 70
0
 71
3
 72
23
 73
19
 74
0
 42
0.0000001
 43
0.0000001
 44
0.0000000001
 40
0.0
 40
0.0
 40
0.0
 40
0.0
 40
0.0450328228
 40
0.0949908127
 40
0.1507204344
 40
0.2122772935
 40
0.279102082
 40
0.3502126105
 40
0.4243312491
 40
0.4999980578
 40
0.575664736
 40
0.6497830671
 40
0.7208935732
 40
0.7877189735
 40
0.8492769907
 40
0.9050077105
 40
0.9549668018
 40
1.0
 40
1.0
 40
1.0
 40
1.0
 10
17.6145163242
 20
91.5338814045
 30
0.0
 10
17.5352141269
 20
91.5043047717
 30
0.0
 10
17.3769744446
 20
91.4163454492
 30
0.0
 10
17.1677397379
 20
91.222488341
 30
0.0
 10
16.9806950428
 20
90.967935459
 30
0.0
 10
16.82038157
 20
90.6600328844
 30
0.0
 10
16.6908230967
 20
90.3072483608
 30
0.0
 10
16.595560814
 20
89.9194974186
 30
0.0
 10
16.5372865239
 20
89.5077826285
 30
0.0
 10
16.517671414
 20
89.0838927598
 30
0.0
 10
16.537284271
 20
88.6600033697
 30
0.0
 10
16.5955561351
 20
88.2482891153
 30
0.0
 10
16.6908162272
 20
87.860537105
 30
0.0
 10
16.8203735372
 20
87.5077486257
 30
0.0
 10
16.9806877016
 20
87.1998403687
 30
0.0
 10
17.1677338796
 20
86.945280654
 30
0.0
 10
17.3769716252
 20
86.7514195624
 30
0.0
 10
17.5352134659
 20
86.6634582838
 30
0.0
 10
17.6145163242
 20
86.6338814045
 30
0.0
  0
ENDSEC
  0
SECTION
  2
OBJECTS
  0
DICTIONARY
  5
C
100
AcDbDictionary
280
0
281
1
  3
ACAD_GROUP
350
D
  3
ACAD_MLINESTYLE
350
17
  3
ACAD_LAYOUT
350
1A
  3
ACAD_PLOTSETTINGS
350
19
  3
ACAD_PLOTSTYLENAME
350
E
  0
DICTIONARY
  5
D
102
{ACAD_REACTORS
330
C
102
}
100
AcDbDictionary
280
0
281
1
  0
ACDBDICTIONARYWDFLT
  5
E
102
{ACAD_REACTORS
330
C
102
}
100
AcDbDictionary
281
1
  3
Normal
350
F
100
AcDbDictionaryWithDefault
340
F
  0
DICTIONARY
  5
17
102
{ACAD_REACTORS
330
C
102
}
100
AcDbDictionary
280
0
281
1
  3
Standard
350
18
  0
DICTIONARY
  5
19
102
{ACAD_REACTORS
330
C
102
}
100
AcDbDictionary
281
1
  0
DICTIONARY
  5
1A
102
{ACAD_REACTORS
330
C
102
}
100
AcDbDictionary
281
1
  3
Model
350
2BD
  3
Layout1
350
2BE
  0
ACDBPLACEHOLDER
  5
F
102
{ACAD_REACTORS
330
E
102
}
  0
MLINESTYLE
  5
18
102
{ACAD_REACTORS
330
17
102
}
100
AcDbMlineStyle
  2
STANDARD
 70
0
  3

 62
256
 51
90.0
 52
90.0
 71
2
 49
0.5
 62
256
  6
BYLAYER
 49
-0.5
 62
256
  6
BYLAYER
  0
LAYOUT
  5
2BD
102
{ACAD_REACTORS
330
1A
102
}
100
AcDbPlotSettings
  1

  2
none_device
  4

  6

 40
0.0
 41
0.0
 42
0.0
 43
0.0
 44
210.0
 45
297.0
 46
0.0
 47
0.0
 48
0.0
 49
0.0
140
0.0
141
0.0
142
1.0
143
1.0
 70
1024
 72
1
 73
0
 74
0
  7

 75
0
147
1.0
148
0.0
149
0.0
100
AcDbLayout
  1
Model
 70
0
 71
0
 10
0.0
 20
0.0
 11
210.0
 21
297.0
 12
0.0
 22
0.0
 32
0.0
 14
0.0
 24
0.0
 34
0.0
 15
0.0
 25
0.0
 35
0.0
146
0.0
 13
0.0
 23
0.0
 33
0.0
 16
1.0
 26
0.0
 36
0.0
 17
0.0
 27
1.0
 37
0.0
 76
0
330
210
345
0
346
0
  0
LAYOUT
  5
2BE
102
{ACAD_REACTORS
330
1A
102
}
100
AcDbPlotSettings
  1

  2
none_device
  4

  6

 40
0.0
 41
0.0
 42
0.0
 43
0.0
 44
210.0
 45
297.0
 46
0.0
 47
0.0
 48
0.0
 49
0.0
140
0.0
141
0.0
142
1.0
143
1.0
 70
0
 72
1
 73
0
 74
0
  7

 75
0
147
1.0
148
0.0
149
0.0
100
AcDbLayout
  1
Layout1
 70
0
 71
1
 10
0.0
 20
0.0
 11
210.0
 21
297.0
 12
0.0
 22
0.0
 32
0.0
 14
0.0
 24
0.0
 34
0.0
 15
0.0
 25
0.0
 35
0.0
146
0.0
 13
0.0
 23
0.0
 33
0.0
 16
1.0
 26
0.0
 36
0.0
 17
0.0
 27
1.0
 37
0.0
 76
0
330
211
345
0
346
0
  0
ENDSEC
  0
EOF
