999
DXF file: C:\Users\sesa63760\Dev\_Creo\CAD\MCADID0004817_3D-CAD\drw0001_6.dxf
999
Pro/ENGINEER 2019471 by Parametric Technology Corporation
  0
SECTION
  2
HEADER
  9
$ACADVER
  1
AC1024
  9
$DWGCODEPAGE
  3
ANSI_1252
  9
$EXTMAX
 10
42.3516691845
 20
59.8973607038
 30
0.0
  9
$EXTMIN
 10
0.0
 20
0.0
 30
0.0
  9
$LIMMIN
 10
0.0
 20
0.0
  9
$LIMMAX
 10
42.3516691845
 20
59.8973607038
  9
$VIEWCTR
 10
21.1758345923
 20
29.9486803519
  9
$VIEWSIZE
 40
59.8973607038
  9
$CLAYER
  8
0
  9
$LTSCALE
 40
3.9044205496
  9
$CELTYPE
  6
BYLAYER
  9
$DIMSCALE
 40
1.0
  9
$DIMASZ
 40
0.5041865379
  9
$DIMEXO
 40
1.0
  9
$DIMDLI
 40
2.6975996524
  9
$DIMEXE
 40
1.0
  9
$DIMCEN
 40
0.6389051808
  9
$DIMLFAC
 40
1.0
  9
$DIMBLK
  1
_FILLED
  9
$DIMALT
 70
0
  9
$DIMALTF
 40
0.0393700787
  9
$DIMTXT
 40
0.7058611531
  9
$DIMTOL
 70
1
  9
$DIMLIM
 70
0
  9
$DIMTFAC
 40
1.0
  9
$DIMTP
 40
0.01
  9
$DIMTM
 40
0.01
  9
$DIMGAP
 40
0.625
  9
$DIMDSEP
 70
46
  9
$AUNITS
 70
0
  9
$PDMODE
 70
3
  9
$PDSIZE
 40
0.3125
  9
$HANDSEED
  5
26C
  9
$TILEMODE
 70
1
  9
$MEASUREMENT
 70
1
  9
$INSUNITS
 70
4
  0
ENDSEC
  0
SECTION
  2
CLASSES
  0
CLASS
  1
ACDBDICTIONARYWDFLT
  2
AcDbDictionaryWithDefault
  3
AutoCAD 2000
 90
0
 91
1
280
0
281
0
  0
CLASS
  1
ACDBPLACEHOLDER
  2
AcDbPlaceHolder
  3
AutoCAD 2000
 90
0
 91
1
280
0
281
0
  0
CLASS
  1
LAYOUT
  2
AcDbLayout
  3
AutoCAD 2000
 90
0
 91
0
280
0
281
0
  0
ENDSEC
  0
SECTION
  2
TABLES
  0
TABLE
  2
VPORT
  5
8
100
AcDbSymbolTable
 70
2
  0
VPORT
  5
1F4
100
AcDbSymbolTableRecord
100
AcDbViewportTableRecord
  2
*ACTIVE
 70
0
 10
0.0
 20
0.0
 11
1.0
 21
1.0
 12
21.1758345923
 22
29.9486803519
 13
0.0
 23
0.0
 14
1.0
 24
1.0
 15
0.0
 25
0.0
 16
0.0
 26
0.0
 36
1.0
 17
0.0
 27
0.0
 37
0.0
 40
59.8973607038
 41
0.7070707071
 42
50.0
 43
0.0
 44
0.0
 50
0.0
 51
0.0
 71
0
 72
100
 73
1
 74
1
 75
0
 76
0
 77
0
 78
0
  0
ENDTAB
  0
TABLE
  2
LTYPE
  5
5
100
AcDbSymbolTable
 70
6
  0
LTYPE
  5
14
100
AcDbSymbolTableRecord
100
AcDbLinetypeTableRecord
  2
BYBLOCK
 70
0
  3

 72
65
 73
0
 40
0.0
  0
LTYPE
  5
15
100
AcDbSymbolTableRecord
100
AcDbLinetypeTableRecord
  2
BYLAYER
 70
0
  3

 72
65
 73
0
 40
0.0
  0
LTYPE
  5
16
100
AcDbSymbolTableRecord
100
AcDbLinetypeTableRecord
  2
CONTINUOUS
 70
64
  3
Solid line
 72
65
 73
0
 40
0.0
  0
LTYPE
  5
1F5
100
AcDbSymbolTableRecord
100
AcDbLinetypeTableRecord
  2
CENTER
 70
64
  3
____ _ ____ _ ____ _ ____ _ ____ _ ____ _ ____
 72
65
 73
4
 40
0.6
 49
0.375
 74
0
 49
-0.075
 74
0
 49
0.075
 74
0
 49
-0.075
 74
0
  0
LTYPE
  5
1F6
100
AcDbSymbolTableRecord
100
AcDbLinetypeTableRecord
  2
HIDDEN
 70
64
  3
- - - - - - - - - - - - - - - - - - - -
 72
65
 73
2
 40
0.2
 49
0.1
 74
0
 49
-0.1
 74
0
  0
LTYPE
  5
1F7
100
AcDbSymbolTableRecord
100
AcDbLinetypeTableRecord
  2
PHANTOM
 70
64
  3
_____ _ _ _____ _ _ _____ _ _ _____
 72
65
 73
6
 40
0.8
 49
0.45
 74
0
 49
-0.05
 74
0
 49
0.1
 74
0
 49
-0.05
 74
0
 49
0.1
 74
0
 49
-0.05
 74
0
  0
LTYPE
  5
1F8
100
AcDbSymbolTableRecord
100
AcDbLinetypeTableRecord
  2
DOT
 70
64
  3
. . . . . . . . . . . . . . . . . . . .
 72
65
 73
2
 40
0.2
 49
0.1
 74
0
 49
-0.1
 74
0
  0
LTYPE
  5
1F9
100
AcDbSymbolTableRecord
100
AcDbLinetypeTableRecord
  2
DASHED
 70
64
  3
- - - - - - - - - - - - - - - - - - - -
 72
65
 73
2
 40
0.2
 49
0.1
 74
0
 49
-0.1
 74
0
  0
ENDTAB
  0
TABLE
  2
LAYER
  5
2
100
AcDbSymbolTable
 70
36
  0
LAYER
  5
10
100
AcDbSymbolTableRecord
100
AcDbLayerTableRecord
  2
0
 70
0
 62
7
  6
CONTINUOUS
370
-3
390
F
  0
LAYER
  5
1FA
100
AcDbSymbolTableRecord
100
AcDbLayerTableRecord
  2
DEFAULT_1
 70
0
 62
7
  6
CENTER
370
-3
390
F
  0
LAYER
  5
1FB
100
AcDbSymbolTableRecord
100
AcDbLayerTableRecord
  2
DEFAULT_2
 70
0
 62
7
  6
HIDDEN
370
-3
390
F
  0
LAYER
  5
1FC
100
AcDbSymbolTableRecord
100
AcDbLayerTableRecord
  2
DEFAULT_3
 70
0
 62
7
  6
PHANTOM
370
-3
390
F
  0
LAYER
  5
1FD
100
AcDbSymbolTableRecord
100
AcDbLayerTableRecord
  2
00_COMPONENTS
 70
0
 62
7
  6
CONTINUOUS
370
-3
390
F
  0
LAYER
  5
1FE
100
AcDbSymbolTableRecord
100
AcDbLayerTableRecord
  2
01_1_DEFAULT_DATUMS
 70
0
 62
7
  6
CONTINUOUS
370
-3
390
F
  0
LAYER
  5
1FF
100
AcDbSymbolTableRecord
100
AcDbLayerTableRecord
  2
01_PLANES
 70
0
 62
7
  6
CONTINUOUS
370
-3
390
F
  0
LAYER
  5
200
100
AcDbSymbolTableRecord
100
AcDbLayerTableRecord
  2
02_COORD_SYS
 70
0
 62
7
  6
CONTINUOUS
370
-3
390
F
  0
LAYER
  5
201
100
AcDbSymbolTableRecord
100
AcDbLayerTableRecord
  2
03_AXES
 70
0
 62
7
  6
CONTINUOUS
370
-3
390
F
  0
LAYER
  5
202
100
AcDbSymbolTableRecord
100
AcDbLayerTableRecord
  2
04_POINTS
 70
0
 62
7
  6
CONTINUOUS
370
-3
390
F
  0
LAYER
  5
203
100
AcDbSymbolTableRecord
100
AcDbLayerTableRecord
  2
05_CURVES
 70
0
 62
7
  6
CONTINUOUS
370
-3
390
F
  0
LAYER
  5
204
100
AcDbSymbolTableRecord
100
AcDbLayerTableRecord
  2
06_SURFS
 70
0
 62
7
  6
CONTINUOUS
370
-3
390
F
  0
LAYER
  5
205
100
AcDbSymbolTableRecord
100
AcDbLayerTableRecord
  2
07_COSMETICS
 70
0
 62
7
  6
CONTINUOUS
370
-3
390
F
  0
LAYER
  5
206
100
AcDbSymbolTableRecord
100
AcDbLayerTableRecord
  2
10_NOTES
 70
0
 62
7
  6
CONTINUOUS
370
-3
390
F
  0
LAYER
  5
207
100
AcDbSymbolTableRecord
100
AcDbLayerTableRecord
  2
11_NOTES_PUB
 70
0
 62
7
  6
CONTINUOUS
370
-3
390
F
  0
LAYER
  5
208
100
AcDbSymbolTableRecord
100
AcDbLayerTableRecord
  2
13_REF_GTOL
 70
0
 62
7
  6
CONTINUOUS
370
-3
390
F
  0
LAYER
  5
209
100
AcDbSymbolTableRecord
100
AcDbLayerTableRecord
  2
16_MISC
 70
0
 62
7
  6
CONTINUOUS
370
-3
390
F
  0
LAYER
  5
20A
100
AcDbSymbolTableRecord
100
AcDbLayerTableRecord
  2
17_NO_PRINT
 70
0
 62
7
  6
CONTINUOUS
370
-3
390
F
  0
LAYER
  5
20B
100
AcDbSymbolTableRecord
100
AcDbLayerTableRecord
  2
18_DATUM_CAMS_JOINTS
 70
0
 62
7
  6
CONTINUOUS
370
-3
390
F
  0
LAYER
  5
20C
100
AcDbSymbolTableRecord
100
AcDbLayerTableRecord
  2
19_DATUM_FUNCTIONAL
 70
0
 62
7
  6
CONTINUOUS
370
-3
390
F
  0
LAYER
  5
20D
100
AcDbSymbolTableRecord
100
AcDbLayerTableRecord
  2
20_DATUM_KINEMATIC_SCHEME
 70
0
 62
7
  6
CONTINUOUS
370
-3
390
F
  0
ENDTAB
  0
TABLE
  2
STYLE
  5
3
100
AcDbSymbolTable
 70
1
  0
STYLE
  5
11
100
AcDbSymbolTableRecord
100
AcDbTextStyleTableRecord
  2
STANDARD
 70
0
 40
0.0
 41
1.0
 50
0.0
 71
0
 42
0.2
  3
ARIAL.TTF
  4

  0
STYLE
  5
20E
100
AcDbSymbolTableRecord
100
AcDbTextStyleTableRecord
  2
TEXTSTYLE_1
 70
0
 40
0.0
 41
0.8
 50
0.0
 71
0
 42
0.2
  3
gdt
  4

  0
ENDTAB
  0
TABLE
  2
VIEW
  5
6
100
AcDbSymbolTable
 70
0
  0
ENDTAB
  0
TABLE
  2
UCS
  5
7
100
AcDbSymbolTable
 70
0
  0
ENDTAB
  0
TABLE
  2
APPID
  5
9
100
AcDbSymbolTable
 70
1
  0
APPID
  5
20F
100
AcDbSymbolTableRecord
100
AcDbRegAppTableRecord
  2
ACAD
 70
0
  0
ENDTAB
  0
TABLE
  2
BLOCK_RECORD
  5
1
100
AcDbSymbolTable
 70
0
  0
BLOCK_RECORD
  5
210
100
AcDbSymbolTableRecord
100
AcDbBlockTableRecord
  2
*Model_Space
  0
BLOCK_RECORD
  5
211
100
AcDbSymbolTableRecord
100
AcDbBlockTableRecord
  2
*Paper_Space
  0
BLOCK_RECORD
  5
212
100
AcDbSymbolTableRecord
100
AcDbBlockTableRecord
  2
_FILLED
  0
ENDTAB
  0
TABLE
  2
DIMSTYLE
  5
A
100
AcDbSymbolTable
 70
1
100
AcDbDimStyleTable
 71
0
  0
DIMSTYLE
105
213
100
AcDbSymbolTableRecord
100
AcDbDimStyleTableRecord
  2
STANDARD
 70
0
  3

  4

 40
1.0
 41
0.5041865379
 42
1.0
 43
0.38
 44
1.0
 45
0.0
 46
0.0
 47
0.01
 48
0.01
140
0.7058611531
141
0.09
142
0.0
143
25.4
144
1.0
145
0.0
146
1.0
147
0.625
 71
1
 72
0
 73
0
 74
0
 75
0
 76
0
 77
1
 78
8
 79
2
170
0
171
1
172
0
173
0
174
0
175
0
176
0
177
0
178
0
270
2
179
2
271
2
272
2
273
2
274
2
275
0
280
0
281
0
282
0
283
1
284
8
285
0
286
0
287
3
288
0
340
11
278
46
341
212
342
212
343
212
344
212
  0
ENDTAB
  0
ENDSEC
  0
SECTION
  2
BLOCKS
  0
BLOCK
  5
20
100
AcDbEntity
  8
0
100
AcDbBlockBegin
  2
*Model_Space
 70
0
 10
0.0
 20
0.0
 30
0.0
  3
*Model_Space
  1

  0
ENDBLK
  5
21
100
AcDbEntity
  8
0
100
AcDbBlockEnd
  0
BLOCK
  5
1C
100
AcDbEntity
  8
0
100
AcDbBlockBegin
  2
*Paper_Space
 70
0
 10
0.0
 20
0.0
 30
0.0
  3
*Paper_Space
  1

  0
ENDBLK
  5
1D
100
AcDbEntity
  8
0
100
AcDbBlockEnd
  0
BLOCK
  5
214
100
AcDbEntity
  8
0
100
AcDbBlockBegin
  2
_FILLED
 70
64
 10
0.0
 20
0.0
  3
_FILLED
  1

  0
SOLID
  5
215
100
AcDbEntity
  8
0
  6
BYBLOCK
 62
0
100
AcDbTrace
 10
0.0
 20
0.0
 11
-1.0
 21
0.25
 12
-1.0
 22
-0.25
 13
-1.0
 23
-0.25
  0
ENDBLK
  5
216
100
AcDbEntity
  8
0
  6
BYBLOCK
 62
0
100
AcDbBlockEnd
  0
ENDSEC
  0
SECTION
  2
ENTITIES
  0
LINE
  5
217
100
AcDbEntity
  8
0
100
AcDbLine
 62
7
  6
BYLAYER
 10
29.5423906368
 20
4.9486803519
 11
13.5424130012
 21
4.9486803519
  0
LINE
  5
218
100
AcDbEntity
  8
0
100
AcDbLine
 62
7
  6
BYLAYER
 10
29.1577307967
 20
6.6662650378
 11
13.9270728413
 21
6.6662650378
  0
LINE
  5
219
100
AcDbEntity
  8
0
100
AcDbLine
 62
7
  6
BYLAYER
 10
28.842401819
 20
7.1527982816
 11
14.242401819
 21
7.1527982816
  0
LINE
  5
21A
100
AcDbEntity
  8
0
100
AcDbLine
 62
7
  6
BYLAYER
 10
29.535321731
 20
14.9486806767
 11
29.5300002569
 21
14.9486806398
  0
LINE
  5
21B
100
AcDbEntity
  8
0
100
AcDbLine
 62
7
  6
BYLAYER
 10
13.5494738929
 20
14.9486799937
 11
13.5547959804
 21
14.9486800346
  0
LWPOLYLINE
  5
21C
100
AcDbEntity
  8
0
100
AcDbPolyline
 62
7
  6
BYLAYER
 90
4
 70
0
 10
13.5423734
 20
15.7553157761
 10
13.5441071031
 20
15.5222872865
 10
13.5483062542
 20
15.1860258671
 10
13.5494738932
 20
14.9486799937
  0
LINE
  5
21D
100
AcDbEntity
  8
0
100
AcDbLine
 62
7
  6
BYLAYER
 10
14.533628012
 20
44.4621806981
 11
14.5373403436
 21
43.3986803519
  0
LINE
  5
21E
100
AcDbEntity
  8
0
100
AcDbLine
 62
7
  6
BYLAYER
 10
13.542401819
 20
4.9486803519
 11
13.542401819
 21
14.142067063
  0
LINE
  5
21F
100
AcDbEntity
  8
0
100
AcDbLine
 62
7
  6
BYLAYER
 10
13.542401819
 20
14.1468593043
 11
13.542401819
 21
53.4486803519
  0
LINE
  5
220
100
AcDbEntity
  8
0
100
AcDbLine
 62
7
  6
BYLAYER
 10
13.642401819
 20
54.2486273075
 11
13.642401819
 21
45.1621806981
  0
LINE
  5
221
100
AcDbEntity
  8
0
100
AcDbLine
 62
7
  6
BYLAYER
 10
13.842401819
 20
4.9958363501
 11
13.842401819
 21
6.6082071527
  0
LINE
  5
222
100
AcDbEntity
  8
0
100
AcDbLine
 62
7
  6
BYLAYER
 10
14.242401819
 20
7.1527982816
 11
14.242401819
 21
43.7086803519
  0
LINE
  5
223
100
AcDbEntity
  8
0
100
AcDbLine
 62
7
  6
BYLAYER
 10
14.342401892
 20
44.4621806981
 11
14.342401819
 21
54.9486273075
  0
LINE
  5
224
100
AcDbEntity
  8
0
100
AcDbLine
 62
7
  6
BYLAYER
 10
14.592401819
 20
43.5486803519
 11
14.592401819
 21
44.4621806981
  0
LWPOLYLINE
  5
225
100
AcDbEntity
  8
0
100
AcDbPolyline
 62
7
  6
BYLAYER
 90
4
 70
0
 10
13.5494859499
 20
14.9486799318
 10
13.5483935619
 20
14.7205788409
 10
13.5442256734
 20
14.3843470589
 10
13.5423648044
 20
14.1420395552
  0
LWPOLYLINE
  5
226
100
AcDbEntity
  8
0
100
AcDbPolyline
 62
7
  6
BYLAYER
 90
6
 70
0
 10
13.6424017914
 20
45.162127235
 10
13.6566203573
 20
45.0218094924
 10
13.8114877551
 20
44.7059641048
 10
13.9372928721
 20
44.5913158924
 10
14.2424674029
 20
44.4693544229
 10
14.3424019194
 20
44.4622205292
  0
LINE
  5
227
100
AcDbEntity
  8
0
100
AcDbLine
 62
7
  6
BYLAYER
 10
16.242401819
 20
43.3986803519
 11
16.242401819
 21
43.5486803519
  0
LINE
  5
228
100
AcDbEntity
  8
0
100
AcDbLine
 62
7
  6
BYLAYER
 10
21.5424022357
 20
54.9486140984
 11
21.5424021561
 21
54.7374690403
  0
LINE
  5
229
100
AcDbEntity
  8
0
100
AcDbLine
 62
7
  6
BYLAYER
 10
28.2557992786
 20
43.3986803519
 11
28.342401819
 21
43.5486803519
  0
LINE
  5
22A
100
AcDbEntity
  8
0
100
AcDbLine
 62
7
  6
BYLAYER
 10
14.742401819
 20
43.5486803519
 11
14.8290043594
 21
43.3986803519
  0
LINE
  5
22B
100
AcDbEntity
  8
0
100
AcDbLine
 62
7
  6
BYLAYER
 10
26.842401819
 20
43.5486803519
 11
26.842401819
 21
43.3986803519
  0
LINE
  5
22C
100
AcDbEntity
  8
0
100
AcDbLine
 62
7
  6
BYLAYER
 10
28.492401819
 20
43.5486803519
 11
28.492401819
 21
44.4621806981
  0
LINE
  5
22D
100
AcDbEntity
  8
0
100
AcDbLine
 62
7
  6
BYLAYER
 10
28.7424008504
 20
44.4621806981
 11
28.742401819
 21
54.9486273075
  0
LINE
  5
22E
100
AcDbEntity
  8
0
100
AcDbLine
 62
7
  6
BYLAYER
 10
28.551175626
 20
44.4621806981
 11
28.5474632944
 21
43.3986803519
  0
LWPOLYLINE
  5
22F
100
AcDbEntity
  8
0
100
AcDbPolyline
 62
7
  6
BYLAYER
 90
4
 70
0
 10
29.542425012
 20
14.142044679
 10
29.5406979447
 20
14.3752932179
 10
29.5365003664
 20
14.7115549294
 10
29.535321731
 20
14.9486806767
  0
LINE
  5
230
100
AcDbEntity
  8
0
100
AcDbLine
 62
7
  6
BYLAYER
 10
28.842401819
 20
43.7086803519
 11
28.842401819
 21
7.1527982816
  0
LINE
  5
231
100
AcDbEntity
  8
0
100
AcDbLine
 62
7
  6
BYLAYER
 10
29.242401819
 20
6.6082071527
 11
29.242401819
 21
4.9958363501
  0
LINE
  5
232
100
AcDbEntity
  8
0
100
AcDbLine
 62
7
  6
BYLAYER
 10
29.442401819
 20
45.1621806981
 11
29.442401819
 21
54.2486273075
  0
LINE
  5
233
100
AcDbEntity
  8
0
100
AcDbLine
 62
7
  6
BYLAYER
 10
29.542401819
 20
4.9486803519
 11
29.542401819
 21
53.4486803519
  0
LWPOLYLINE
  5
234
100
AcDbEntity
  8
0
100
AcDbPolyline
 62
7
  6
BYLAYER
 90
4
 70
0
 10
29.5353310723
 20
14.9486807329
 10
29.5364164354
 20
15.1771828373
 10
29.540591086
 20
15.5134153368
 10
29.5424301358
 20
15.7553207506
  0
LWPOLYLINE
  5
235
100
AcDbEntity
  8
0
100
AcDbPolyline
 62
7
  6
BYLAYER
 90
6
 70
0
 10
28.7424009068
 20
44.4622206268
 10
28.837142723
 20
44.4686291929
 10
29.143556029
 20
44.5885298164
 10
29.2703152335
 20
44.7024955995
 10
29.4273274384
 20
45.0176913274
 10
29.4424018472
 20
45.1621307782
  0
LINE
  5
236
100
AcDbEntity
  8
0
100
AcDbLine
 62
7
  6
BYLAYER
 10
28.5474632944
 20
43.3986803519
 11
24.9656655543
 21
43.3986803519
  0
LINE
  5
237
100
AcDbEntity
  8
0
100
AcDbLine
 62
7
  6
BYLAYER
 10
18.1126162737
 20
43.3986803519
 11
14.5373403436
 21
43.3986803519
  0
LINE
  5
238
100
AcDbEntity
  8
0
100
AcDbLine
 62
7
  6
BYLAYER
 10
28.492401819
 20
43.5486803519
 11
25.2136011301
 21
43.5486803519
  0
LINE
  5
239
100
AcDbEntity
  8
0
100
AcDbLine
 62
7
  6
BYLAYER
 10
17.8661528292
 20
43.5486803519
 11
14.592401819
 21
43.5486803519
  0
LINE
  5
23A
100
AcDbEntity
  8
0
100
AcDbLine
 62
7
  6
BYLAYER
 10
28.842401819
 20
43.7086803519
 11
28.5485454029
 21
43.7086803519
  0
LINE
  5
23B
100
AcDbEntity
  8
0
100
AcDbLine
 62
7
  6
BYLAYER
 10
14.5362582351
 20
43.7086803519
 11
14.242401819
 21
43.7086803519
  0
LINE
  5
23C
100
AcDbEntity
  8
0
100
AcDbLine
 62
7
  6
BYLAYER
 10
28.492401819
 20
44.1086803519
 11
25.9614181142
 21
44.1086803519
  0
LINE
  5
23D
100
AcDbEntity
  8
0
100
AcDbLine
 62
7
  6
BYLAYER
 10
17.1330699587
 20
44.1086803519
 11
14.592401819
 21
44.1086803519
  0
LINE
  5
23E
100
AcDbEntity
  8
0
100
AcDbLine
 62
7
  6
BYLAYER
 10
28.7424008504
 20
44.4621806981
 11
26.2242795088
 21
44.4621806981
  0
LINE
  5
23F
100
AcDbEntity
  8
0
100
AcDbLine
 62
7
  6
BYLAYER
 10
16.8612867861
 20
44.4621806981
 11
14.342401892
 21
44.4621806981
  0
LINE
  5
240
100
AcDbEntity
  8
0
100
AcDbLine
 62
7
  6
BYLAYER
 10
16.6690781096
 20
44.7121808471
 11
14.3424018264
 21
44.7121807006
  0
LINE
  5
241
100
AcDbEntity
  8
0
100
AcDbLine
 62
7
  6
BYLAYER
 10
28.7424018116
 20
44.7121807006
 11
26.4101786142
 21
44.7121808862
  0
LINE
  5
242
100
AcDbEntity
  8
0
100
AcDbLine
 62
7
  6
BYLAYER
 10
29.542401819
 20
53.4486803519
 11
29.442401819
 21
53.4486803519
  0
LINE
  5
243
100
AcDbEntity
  8
0
100
AcDbLine
 62
7
  6
BYLAYER
 10
13.642401819
 20
53.4486803519
 11
13.542401819
 21
53.4486803519
  0
LINE
  5
244
100
AcDbEntity
  8
0
100
AcDbLine
 62
7
  6
BYLAYER
 10
13.642401819
 20
54.2486273075
 11
18.6501686639
 21
54.2486273075
  0
LINE
  5
245
100
AcDbEntity
  8
0
100
AcDbLine
 62
7
  6
BYLAYER
 10
29.442401819
 20
54.2486273075
 11
24.4346257861
 21
54.2486307692
  0
LINE
  5
246
100
AcDbEntity
  8
0
100
AcDbLine
 62
7
  6
BYLAYER
 10
28.742401819
 20
54.9486273075
 11
14.342401819
 21
54.9486273075
  0
ARC
  5
247
100
AcDbEntity
  8
0
100
AcDbCircle
 62
7
  6
BYLAYER
 10
14.342401819
 20
54.2486273075
 40
0.7
100
AcDbArc
 50
89.9999996958
 51
180.0
  0
CIRCLE
  5
248
100
AcDbEntity
  8
0
100
AcDbCircle
 62
7
  6
BYLAYER
 10
21.542401819
 20
48.6236273075
 40
6.325
  0
ARC
  5
249
100
AcDbEntity
  8
0
100
AcDbCircle
 62
7
  6
BYLAYER
 10
21.542401819
 20
47.6986273075
 40
5.75
100
AcDbArc
 50
342.8652490876
 51
197.1378866029
  0
CIRCLE
  5
24A
100
AcDbEntity
  8
0
100
AcDbCircle
 62
7
  6
BYLAYER
 10
21.542401819
 20
47.6986273075
 40
5.35
  0
CIRCLE
  5
24B
100
AcDbEntity
  8
0
100
AcDbCircle
 62
7
  6
BYLAYER
 10
21.542401819
 20
47.6986273075
 40
4.925
  0
ARC
  5
24C
100
AcDbEntity
  8
0
100
AcDbCircle
 62
7
  6
BYLAYER
 10
28.742401819
 20
54.2486273075
 40
0.7
100
AcDbArc
 50
0.0
 51
90.0000003021
  0
SPLINE
  5
24D
100
AcDbEntity
  8
0
100
AcDbSpline
 62
7
  6
BYLAYER
 70
0
 71
3
 72
26
 73
22
 74
0
 42
0.0000001
 43
0.0000001
 44
0.0000000001
 40
0.0
 40
0.0
 40
0.0
 40
0.0
 40
0.0641027144
 40
0.0961543034
 40
0.1281679251
 40
0.192034559
 40
0.2556843822
 40
0.2874254992
 40
0.3190919017
 40
0.3821554338
 40
0.4448924175
 40
0.5073036299
 40
0.5694068423
 40
0.631237882
 40
0.6928456028
 40
0.7235983181
 40
0.754319579
 40
0.8156761627
 40
0.8770163263
 40
0.9384389379
 40
1.0
 40
1.0
 40
1.0
 40
1.0
 10
21.542401819
 20
54.7374816895
 30
0.0
 10
21.2799306615
 20
54.737474853
 30
0.0
 10
20.8856010042
 20
54.7118303326
 30
0.0
 10
20.3674440275
 20
54.6270286768
 30
0.0
 10
19.8567368917
 20
54.5090464952
 30
0.0
 10
19.235701107
 20
54.3004527162
 30
0.0
 10
18.6476939112
 20
54.0141516357
 30
0.0
 10
18.2037832836
 20
53.7422689746
 30
0.0
 10
17.7801329525
 20
53.4439502624
 30
0.0
 10
17.2893844959
 20
53.0228488234
 30
0.0
 10
16.7715134304
 20
52.4494335356
 30
0.0
 10
16.3321068302
 20
51.8186539323
 30
0.0
 10
15.9767748033
 20
51.1411882602
 30
0.0
 10
15.7095839427
 20
50.4279714464
 30
0.0
 10
15.5624866529
 20
49.8122050017
 30
0.0
 10
15.491206012
 20
49.313030909
 30
0.0
 10
15.4508106828
 20
48.8114449019
 30
0.0
 10
15.4583178355
 20
48.1816008668
 30
0.0
 10
15.5597678382
 20
47.4326817676
 30
0.0
 10
15.7523967999
 20
46.701075246
 30
0.0
 10
15.9399045338
 20
46.2321076023
 30
0.0
 10
16.0477113965
 20
46.0042610068
 30
0.0
  0
SPLINE
  5
24E
100
AcDbEntity
  8
0
100
AcDbSpline
 62
7
  6
BYLAYER
 70
0
 71
3
 72
15
 73
11
 74
0
 42
0.0000001
 43
0.0000001
 44
0.0000000001
 40
0.0
 40
0.0
 40
0.0
 40
0.0
 40
0.1249738897
 40
0.2500078152
 40
0.3749997439
 40
0.4999930263
 40
0.6249914487
 40
0.7499924019
 40
0.8750324148
 40
1.0
 40
1.0
 40
1.0
 40
1.0
 10
18.8064191125
 20
42.9209642883
 30
0.0
 10
18.6466421435
 20
42.9976444945
 30
0.0
 10
18.3337475626
 20
43.1655890081
 30
0.0
 10
17.8899340453
 20
43.4599225706
 30
0.0
 10
17.4763817835
 20
43.7956477063
 30
0.0
 10
17.0981261196
 20
44.1706771958
 30
0.0
 10
16.7600446635
 20
44.5823798365
 30
0.0
 10
16.4671938079
 20
45.0275786416
 30
0.0
 10
16.2247428246
 20
45.5020593948
 30
0.0
 10
16.0999309726
 20
45.8349145736
 30
0.0
 10
16.0477110453
 20
46.0042616852
 30
0.0
  0
SPLINE
  5
24F
100
AcDbEntity
  8
0
100
AcDbSpline
 62
7
  6
BYLAYER
 70
0
 71
3
 72
23
 73
19
 74
0
 42
0.0000001
 43
0.0000001
 44
0.0000000001
 40
0.0
 40
0.0
 40
0.0
 40
0.0
 40
0.0629710785
 40
0.125458779
 40
0.187582027
 40
0.2494663877
 40
0.3112265966
 40
0.3729638391
 40
0.434771396
 40
0.4967166574
 40
0.5588624139
 40
0.6212365078
 40
0.6838636272
 40
0.746732384
 40
0.8098294458
 40
0.8731077147
 40
0.9365192008
 40
1.0
 40
1.0
 40
1.0
 40
1.0
 10
27.0372080829
 20
46.0045297896
 30
0.0
 10
27.1474676073
 20
46.2375678996
 30
0.0
 10
27.3380320805
 20
46.7162721268
 30
0.0
 10
27.5311757658
 20
47.4615209253
 30
0.0
 10
27.6295283535
 20
48.2206870001
 30
0.0
 10
27.6333041839
 20
48.9831609044
 30
0.0
 10
27.5428798724
 20
49.738669775
 30
0.0
 10
27.3600943335
 20
50.4769695255
 30
0.0
 10
27.086879642
 20
51.1876150695
 30
0.0
 10
26.7270062093
 20
51.8604740636
 30
0.0
 10
26.2844850808
 20
52.4849723349
 30
0.0
 10
25.7656040364
 20
53.0514652263
 30
0.0
 10
25.177057752
 20
53.5498203195
 30
0.0
 10
24.5279448165
 20
53.9717497739
 30
0.0
 10
23.8278909568
 20
54.3085753141
 30
0.0
 10
23.0885996711
 20
54.5545839446
 30
0.0
 10
22.3223952767
 20
54.7038392345
 30
0.0
 10
21.802294615
 20
54.7374690799
 30
0.0
 10
21.542401819
 20
54.7374690403
 30
0.0
  0
SPLINE
  5
250
100
AcDbEntity
  8
0
100
AcDbSpline
 62
7
  6
BYLAYER
 70
0
 71
3
 72
15
 73
11
 74
0
 42
0.0000001
 43
0.0000001
 44
0.0000000001
 40
0.0
 40
0.0
 40
0.0
 40
0.0
 40
0.1249680448
 40
0.2500084291
 40
0.3750098565
 40
0.5000084039
 40
0.6250015691
 40
0.7499931631
 40
0.8750266349
 40
1.0
 40
1.0
 40
1.0
 40
1.0
 10
27.0371850772
 20
46.0045624749
 30
0.0
 10
26.9849600341
 20
45.8352029376
 30
0.0
 10
26.8601683192
 20
45.5023133113
 30
0.0
 10
26.6177361601
 20
45.0277761964
 30
0.0
 10
26.3248710315
 20
44.5825388412
 30
0.0
 10
25.9867788061
 20
44.1707951084
 30
0.0
 10
25.6085073639
 20
43.7957273779
 30
0.0
 10
25.1949319085
 20
43.4599722456
 30
0.0
 10
24.7510962019
 20
43.1656062015
 30
0.0
 10
24.4381738467
 20
42.9976593396
 30
0.0
 10
24.2783777693
 20
42.9209912483
 30
0.0
  0
SPLINE
  5
251
100
AcDbEntity
  8
0
100
AcDbSpline
 62
7
  6
BYLAYER
 70
0
 71
3
 72
16
 73
12
 74
0
 42
0.0000001
 43
0.0000001
 44
0.0000000001
 40
0.0
 40
0.0
 40
0.0
 40
0.0
 40
0.044836477
 40
0.0900905869
 40
0.1846391096
 40
0.2884083844
 40
0.4044625895
 40
0.5347065749
 40
0.6793013153
 40
0.8361048172
 40
1.0
 40
1.0
 40
1.0
 40
1.0
 10
13.642401824
 20
45.1621267929
 30
0.0
 10
13.6424043309
 20
45.1484866453
 30
0.0
 10
13.6443378631
 20
45.1210373859
 30
0.0
 10
13.6561456653
 20
45.0659626155
 30
0.0
 10
13.6866704932
 20
44.997434493
 30
0.0
 10
13.7460177755
 20
44.921433247
 30
0.0
 10
13.8282207295
 20
44.852648583
 30
0.0
 10
13.9322244929
 20
44.7938282515
 30
0.0
 10
14.055839483
 20
44.7480293575
 30
0.0
 10
14.1948537774
 20
44.7188388439
 30
0.0
 10
14.2925427112
 20
44.7125061361
 30
0.0
 10
14.3424018227
 20
44.7121807009
 30
0.0
  0
SPLINE
  5
252
100
AcDbEntity
  8
0
100
AcDbSpline
 62
7
  6
BYLAYER
 70
0
 71
3
 72
17
 73
13
 74
0
 42
0.0000001
 43
0.0000001
 44
0.0000000001
 40
0.0
 40
0.0
 40
0.0
 40
0.0
 40
0.0448304514
 40
0.09008345
 40
0.1846258915
 40
0.2883801631
 40
0.4044204038
 40
0.5346474232
 40
0.6792291224
 40
0.8360224132
 40
0.9176227761
 40
1.0
 40
1.0
 40
1.0
 40
1.0
 10
29.4424018147
 20
45.1621303695
 30
0.0
 10
29.4423994735
 20
45.1484909878
 30
0.0
 10
29.4404658106
 20
45.1210417664
 30
0.0
 10
29.428659261
 20
45.0659664639
 30
0.0
 10
29.3981376838
 20
44.9974375618
 30
0.0
 10
29.3387881458
 20
44.9214416709
 30
0.0
 10
29.2565906076
 20
44.8526611226
 30
0.0
 10
29.1525848079
 20
44.7938441543
 30
0.0
 10
29.0289839045
 20
44.7480606279
 30
0.0
 10
28.9145191599
 20
44.7239669945
 30
0.0
 10
28.817355278
 20
44.7142441228
 30
0.0
 10
28.7674637203
 20
44.7123865542
 30
0.0
 10
28.7424018153
 20
44.7121807009
 30
0.0
  0
SPLINE
  5
253
100
AcDbEntity
  8
0
100
AcDbSpline
 62
7
  6
BYLAYER
 70
0
 71
3
 72
13
 73
9
 74
0
 42
0.0000001
 43
0.0000001
 44
0.0000000001
 40
0.0
 40
0.0
 40
0.0
 40
0.0
 40
0.2217136771
 40
0.3466971294
 40
0.4782108237
 40
0.613105299
 40
0.7475972142
 40
1.0
 40
1.0
 40
1.0
 40
1.0
 10
13.9270728413
 20
6.6662650378
 30
0.0
 10
13.8979687448
 20
6.6713603456
 30
0.0
 10
13.8538470699
 20
6.6894709422
 30
0.0
 10
13.8032106595
 20
6.7284307548
 30
0.0
 10
13.7673806853
 20
6.7666931594
 30
0.0
 10
13.7374945577
 20
6.8112350695
 30
0.0
 10
13.707207162
 20
6.8740050362
 30
0.0
 10
13.6944158501
 20
6.9247683221
 30
0.0
 10
13.6905761073
 20
6.9581849904
 30
0.0
  0
SPLINE
  5
254
100
AcDbEntity
  8
0
100
AcDbSpline
 62
7
  6
BYLAYER
 70
0
 71
3
 72
13
 73
9
 74
0
 42
0.0000001
 43
0.0000001
 44
0.0000000001
 40
0.0
 40
0.0
 40
0.0
 40
0.0
 40
0.2424018287
 40
0.3723543655
 40
0.5042698867
 40
0.635465768
 40
0.7634662318
 40
1.0
 40
1.0
 40
1.0
 40
1.0
 10
13.842401819
 20
6.6082070108
 30
0.0
 10
13.8049625961
 20
6.608206998
 30
0.0
 10
13.7466985089
 20
6.6189177678
 30
0.0
 10
13.6769662531
 20
6.6544179209
 30
0.0
 10
13.6288200141
 20
6.692136662
 30
0.0
 10
13.5900090203
 20
6.7390280605
 30
0.0
 10
13.5535538587
 20
6.8067859065
 30
0.0
 10
13.5424018195
 20
6.8638686843
 30
0.0
 10
13.542401819
 20
6.900401579
 30
0.0
  0
SPLINE
  5
255
100
AcDbEntity
  8
0
100
AcDbSpline
 62
7
  6
BYLAYER
 70
0
 71
3
 72
13
 73
9
 74
0
 42
0.0000001
 43
0.0000001
 44
0.0000000001
 40
0.0
 40
0.0
 40
0.0
 40
0.0
 40
0.1559949847
 40
0.2951595843
 40
0.4228788152
 40
0.5430468482
 40
0.7717770618
 40
1.0
 40
1.0
 40
1.0
 40
1.0
 10
13.842401819
 20
4.9958363501
 30
0.0
 10
13.8190633312
 20
4.9930002028
 30
0.0
 10
13.7740660355
 20
4.9924657313
 30
0.0
 10
13.7115055533
 20
5.0073256315
 30
0.0
 10
13.6588163741
 20
5.0335002583
 30
0.0
 10
13.6026637867
 20
5.0791100691
 30
0.0
 10
13.5544603562
 20
5.1546460871
 30
0.0
 10
13.542401819
 20
5.22428461
 30
0.0
 10
13.542401819
 20
5.2586803519
 30
0.0
  0
SPLINE
  5
256
100
AcDbEntity
  8
0
100
AcDbSpline
 62
7
  6
BYLAYER
 70
0
 71
3
 72
10
 73
6
 74
0
 42
0.0000001
 43
0.0000001
 44
0.0000000001
 40
0.0
 40
0.0
 40
0.0
 40
0.0
 40
0.3303550754
 40
0.6264112821
 40
1.0
 40
1.0
 40
1.0
 40
1.0
 10
21.542401819
 20
5.4654374716
 30
0.0
 10
20.6924546515
 20
5.4654374716
 30
0.0
 10
19.0805895432
 20
5.4327314039
 30
0.0
 10
16.5117249698
 20
5.2821005757
 30
0.0
 10
14.7965622175
 20
5.1117881383
 30
0.0
 10
13.842401819
 20
4.9958363501
 30
0.0
  0
SPLINE
  5
257
100
AcDbEntity
  8
0
100
AcDbSpline
 62
7
  6
BYLAYER
 70
0
 71
3
 72
10
 73
6
 74
0
 42
0.0000001
 43
0.0000001
 44
0.0000000001
 40
0.0
 40
0.0
 40
0.0
 40
0.0
 40
0.3735898476
 40
0.6696458796
 40
1.0
 40
1.0
 40
1.0
 40
1.0
 10
29.242401819
 20
4.9958363501
 30
0.0
 10
28.288238531
 20
5.1117884894
 30
0.0
 10
26.5730734063
 20
5.282102094
 30
0.0
 10
24.00420873
 20
5.4327316413
 30
0.0
 10
22.3923465333
 20
5.4654374716
 30
0.0
 10
21.542401819
 20
5.4654374716
 30
0.0
  0
SPLINE
  5
258
100
AcDbEntity
  8
0
100
AcDbSpline
 62
7
  6
BYLAYER
 70
0
 71
3
 72
13
 73
9
 74
0
 42
0.0000001
 43
0.0000001
 44
0.0000000001
 40
0.0
 40
0.0
 40
0.0
 40
0.0
 40
0.3595895908
 40
0.6403113001
 40
0.7519745202
 40
0.8465081249
 40
0.9273092478
 40
1.0
 40
1.0
 40
1.0
 40
1.0
 10
13.9270728413
 20
6.6662650378
 30
0.0
 10
13.9147221291
 20
6.6624958762
 30
0.0
 10
13.8929982503
 20
6.654878316
 30
0.0
 10
13.868741
 20
6.6425963738
 30
0.0
 10
13.8548561124
 20
6.6318737982
 30
0.0
 10
13.8478352231
 20
6.6242364703
 30
0.0
 10
13.8434478464
 20
6.6163617105
 30
0.0
 10
13.8424025642
 20
6.610817514
 30
0.0
 10
13.842401819
 20
6.6082071527
 30
0.0
  0
SPLINE
  5
259
100
AcDbEntity
  8
0
100
AcDbSpline
 62
7
  6
BYLAYER
 70
0
 71
3
 72
11
 73
7
 74
0
 42
0.0000001
 43
0.0000001
 44
0.0000000001
 40
0.0
 40
0.0
 40
0.0
 40
0.0
 40
0.3532735533
 40
0.4856222945
 40
0.6374514868
 40
1.0
 40
1.0
 40
1.0
 40
1.0
 10
29.2424032719
 20
6.6082071527
 30
0.0
 10
29.2424020386
 20
6.6207274395
 30
0.0
 10
29.2270049428
 20
6.6352895498
 30
0.0
 10
29.208041293
 20
6.6464882322
 30
0.0
 10
29.1872275571
 20
6.6565154155
 30
0.0
 10
29.1700220258
 20
6.6625167812
 30
0.0
 10
29.1577319558
 20
6.6662652398
 30
0.0
  0
SPLINE
  5
25A
100
AcDbEntity
  8
0
100
AcDbSpline
 62
7
  6
BYLAYER
 70
0
 71
3
 72
13
 73
9
 74
0
 42
0.0000001
 43
0.0000001
 44
0.0000000001
 40
0.0
 40
0.0
 40
0.0
 40
0.0
 40
0.2424023859
 40
0.3723550875
 40
0.5042706712
 40
0.6354664967
 40
0.7634667998
 40
1.0
 40
1.0
 40
1.0
 40
1.0
 10
29.242401819
 20
6.6082071527
 30
0.0
 10
29.2798411321
 20
6.6082071527
 30
0.0
 10
29.3381053382
 20
6.6189179906
 30
0.0
 10
29.4078376643
 20
6.6544182937
 30
0.0
 10
29.4559838774
 20
6.6921371219
 30
0.0
 10
29.4947947977
 20
6.7390285578
 30
0.0
 10
29.531249828
 20
6.8067863444
 30
0.0
 10
29.5424018189
 20
6.8638690099
 30
0.0
 10
29.542401819
 20
6.9004018209
 30
0.0
  0
SPLINE
  5
25B
100
AcDbEntity
  8
0
100
AcDbSpline
 62
7
  6
BYLAYER
 70
0
 71
3
 72
10
 73
6
 74
0
 42
0.0000001
 43
0.0000001
 44
0.0000000001
 40
0.0
 40
0.0
 40
0.0
 40
0.0
 40
0.2857250698
 40
0.5427824818
 40
1.0
 40
1.0
 40
1.0
 40
1.0
 10
29.242401819
 20
4.9958363501
 30
0.0
 10
29.2635774684
 20
4.993263036
 30
0.0
 10
29.304501052
 20
4.9923906719
 30
0.0
 10
29.3780708384
 20
5.0071425209
 30
0.0
 10
29.4265088883
 20
5.0335750336
 30
0.0
 10
29.4524526033
 20
5.0557582077
 30
0.0
  0
SPLINE
  5
25C
100
AcDbEntity
  8
0
100
AcDbSpline
 62
7
  6
BYLAYER
 70
0
 71
3
 72
11
 73
7
 74
0
 42
0.0000001
 43
0.0000001
 44
0.0000000001
 40
0.0
 40
0.0
 40
0.0
 40
0.0
 40
0.2542634759
 40
0.5024492177
 40
0.7497182956
 40
1.0
 40
1.0
 40
1.0
 40
1.0
 10
29.4524526033
 20
5.0557582077
 30
0.0
 10
29.4671804243
 20
5.0683512313
 30
0.0
 10
29.4934296667
 20
5.096801511
 30
0.0
 10
29.521857826
 20
5.1468820991
 30
0.0
 10
29.5387678008
 20
5.2015700573
 30
0.0
 10
29.542401819
 20
5.2396061656
 30
0.0
 10
29.542401819
 20
5.2586803519
 30
0.0
  0
SPLINE
  5
25D
100
AcDbEntity
  8
0
100
AcDbSpline
 62
7
  6
BYLAYER
 70
0
 71
3
 72
15
 73
11
 74
0
 42
0.0000001
 43
0.0000001
 44
0.0000000001
 40
0.0
 40
0.0
 40
0.0
 40
0.0
 40
0.0318122517
 40
0.0692178936
 40
0.1600740914
 40
0.270322941
 40
0.3968569669
 40
0.5363802442
 40
0.6856961163
 40
1.0
 40
1.0
 40
1.0
 40
1.0
 10
29.1577307967
 20
6.6662650378
 30
0.0
 10
29.1528064684
 20
6.6699802069
 30
0.0
 10
29.1426839447
 20
6.678846577
 30
0.0
 10
29.1212232512
 20
6.7013003664
 30
0.0
 10
29.0925279964
 20
6.7376754656
 30
0.0
 10
29.0563722599
 20
6.7899268465
 30
0.0
 10
29.0171819069
 20
6.8514951552
 30
0.0
 10
28.9755372708
 20
6.9204405076
 30
0.0
 10
28.9166516714
 20
7.0214919018
 30
0.0
 10
28.8725006785
 20
7.0998038991
 30
0.0
 10
28.842401819
 20
7.1527982816
 30
0.0
  0
SPLINE
  5
25E
100
AcDbEntity
  8
0
100
AcDbSpline
 62
7
  6
BYLAYER
 70
0
 71
3
 72
15
 73
11
 74
0
 42
0.0000001
 43
0.0000001
 44
0.0000000001
 40
0.0
 40
0.0
 40
0.0
 40
0.0
 40
0.3142548264
 40
0.4635679226
 40
0.6031189441
 40
0.729683857
 40
0.8399482297
 40
0.9307955902
 40
0.9681929544
 40
1.0
 40
1.0
 40
1.0
 40
1.0
 10
14.242401819
 20
7.1527982816
 30
0.0
 10
14.2122946692
 20
7.0998195472
 30
0.0
 10
14.1681625041
 20
7.021508434
 30
0.0
 10
14.1092798806
 20
6.9204606561
 30
0.0
 10
14.0676296072
 20
6.8515060577
 30
0.0
 10
14.0284311462
 20
6.7899258479
 30
0.0
 10
13.9922708329
 20
6.737668783
 30
0.0
 10
13.963575376
 20
6.7012941975
 30
0.0
 10
13.9421167659
 20
6.6788443745
 30
0.0
 10
13.9319961273
 20
6.6699799127
 30
0.0
 10
13.9270728413
 20
6.6662650378
 30
0.0
  0
SPLINE
  5
25F
100
AcDbEntity
  8
0
100
AcDbSpline
 62
7
  6
BYLAYER
 70
0
 71
3
 72
11
 73
7
 74
0
 42
0.0000001
 43
0.0000001
 44
0.0000000001
 40
0.0
 40
0.0
 40
0.0
 40
0.0
 40
0.2444022279
 40
0.4935309601
 40
0.745933868
 40
1.0
 40
1.0
 40
1.0
 40
1.0
 10
13.542401819
 20
14.1420670626
 30
0.0
 10
13.5424056939
 20
14.2077887461
 30
0.0
 10
13.5443802152
 20
14.3404995729
 30
0.0
 10
13.5494104592
 20
14.5410212287
 30
0.0
 10
13.5537030226
 20
14.7441648162
 30
0.0
 10
13.5548118867
 20
14.8803599688
 30
0.0
 10
13.5548165971
 20
14.9486803521
 30
0.0
  0
SPLINE
  5
260
100
AcDbEntity
  8
0
100
AcDbSpline
 62
7
  6
BYLAYER
 70
0
 71
3
 72
13
 73
9
 74
0
 42
0.0000001
 43
0.0000001
 44
0.0000000001
 40
0.0
 40
0.0
 40
0.0
 40
0.0
 40
0.2170065456
 40
0.3403987269
 40
0.4711676754
 40
0.6064186997
 40
0.7423149481
 40
1.0
 40
1.0
 40
1.0
 40
1.0
 10
29.1577307967
 20
6.6662650378
 30
0.0
 10
29.1862178805
 20
6.6712523241
 30
0.0
 10
29.2295677437
 20
6.6888170737
 30
0.0
 10
29.2797694285
 20
6.7268019878
 30
0.0
 10
29.3157323587
 20
6.764575976
 30
0.0
 10
29.346037417
 20
6.8090044231
 30
0.0
 10
29.3771474476
 20
6.8724261621
 30
0.0
 10
29.3903073068
 20
6.9240679122
 30
0.0
 10
29.39422753
 20
6.9581849841
 30
0.0
  0
SPLINE
  5
261
100
AcDbEntity
  8
0
100
AcDbSpline
 62
7
  6
BYLAYER
 70
0
 71
3
 72
12
 73
8
 74
0
 42
0.0000001
 43
0.0000001
 44
0.0000000001
 40
0.0
 40
0.0
 40
0.0
 40
0.0
 40
0.0930016504
 40
0.1993617297
 40
0.443488689
 40
0.7149463413
 40
1.0
 40
1.0
 40
1.0
 40
1.0
 10
13.6905762705
 20
6.9581832837
 30
0.0
 10
13.7084719975
 20
6.9612883469
 30
0.0
 10
13.7464911837
 20
6.9699051205
 30
0.0
 10
13.8297058737
 20
6.9940099474
 30
0.0
 10
13.9442745316
 20
7.0345783595
 30
0.0
 10
14.0900288733
 20
7.0911786721
 30
0.0
 10
14.1907868423
 20
7.1319389229
 30
0.0
 10
14.2424024478
 20
7.1527967257
 30
0.0
  0
SPLINE
  5
262
100
AcDbEntity
  8
0
100
AcDbSpline
 62
7
  6
BYLAYER
 70
0
 71
3
 72
15
 73
11
 74
0
 42
0.0000001
 43
0.0000001
 44
0.0000000001
 40
0.0
 40
0.0
 40
0.0
 40
0.0
 40
0.0490894371
 40
0.1133961459
 40
0.1997156531
 40
0.3103160361
 40
0.4458109607
 40
0.6061652799
 40
0.7910525593
 40
1.0
 40
1.0
 40
1.0
 40
1.0
 10
13.542401819
 20
6.9004021396
 30
0.0
 10
13.5424022839
 20
6.9030920211
 30
0.0
 10
13.5447501564
 20
6.9092695941
 30
0.0
 10
13.5528605115
 20
6.9168443065
 30
0.0
 10
13.5651592449
 20
6.9242639765
 30
0.0
 10
13.5819022315
 20
6.9315317546
 30
0.0
 10
13.6030158992
 20
6.9386668496
 30
0.0
 10
13.6284450049
 20
6.9455900387
 30
0.0
 10
13.6580807433
 20
6.9522475693
 30
0.0
 10
13.6792952077
 20
6.9562285178
 30
0.0
 10
13.6905761372
 20
6.9581853122
 30
0.0
  0
SPLINE
  5
263
100
AcDbEntity
  8
0
100
AcDbSpline
 62
7
  6
BYLAYER
 70
0
 71
3
 72
11
 73
7
 74
0
 42
0.0000001
 43
0.0000001
 44
0.0000000001
 40
0.0
 40
0.0
 40
0.0
 40
0.0
 40
0.2540672039
 40
0.5064665542
 40
0.755593572
 40
1.0
 40
1.0
 40
1.0
 40
1.0
 10
13.5548165971
 20
14.9486803521
 30
0.0
 10
13.5548108843
 20
15.0170010271
 30
0.0
 10
13.5537070047
 20
15.1531955492
 30
0.0
 10
13.5494112468
 20
15.3563379805
 30
0.0
 10
13.5443775816
 20
15.5568592884
 30
0.0
 10
13.5424064498
 20
15.689570825
 30
0.0
 10
13.542401819
 20
15.7552936413
 30
0.0
  0
SPLINE
  5
264
100
AcDbEntity
  8
0
100
AcDbSpline
 62
7
  6
BYLAYER
 70
0
 71
3
 72
13
 73
9
 74
0
 42
0.0000001
 43
0.0000001
 44
0.0000000001
 40
0.0
 40
0.0
 40
0.0
 40
0.0
 40
0.3944679657
 40
0.6909846091
 40
0.8013239303
 40
0.8871258957
 40
0.9510092355
 40
1.0
 40
1.0
 40
1.0
 40
1.0
 10
29.3942265785
 20
6.9581852843
 30
0.0
 10
29.4155336241
 20
6.9544977826
 30
0.0
 10
29.4526899169
 20
6.947087578
 30
0.0
 10
29.4950759479
 20
6.9350704869
 30
0.0
 10
29.5199111709
 20
6.9243182275
 30
0.0
 10
29.5321334838
 20
6.9168800779
 30
0.0
 10
29.540129676
 20
6.90925021
 30
0.0
 10
29.5424018437
 20
6.903087425
 30
0.0
 10
29.542401819
 20
6.9004018698
 30
0.0
  0
SPLINE
  5
265
100
AcDbEntity
  8
0
100
AcDbSpline
 62
7
  6
BYLAYER
 70
0
 71
3
 72
12
 73
8
 74
0
 42
0.0000001
 43
0.0000001
 44
0.0000000001
 40
0.0
 40
0.0
 40
0.0
 40
0.0
 40
0.2850415488
 40
0.5565097055
 40
0.8006358441
 40
0.9069950611
 40
1.0
 40
1.0
 40
1.0
 40
1.0
 10
28.8423998982
 20
7.1527935282
 30
0.0
 10
28.8940132701
 20
7.1319364599
 30
0.0
 10
28.9947710258
 20
7.0911764154
 30
0.0
 10
29.140524997
 20
7.0345763267
 30
0.0
 10
29.2550951644
 20
6.9940068889
 30
0.0
 10
29.33831021
 20
6.9699020203
 30
0.0
 10
29.3763298823
 20
6.9612852274
 30
0.0
 10
29.3942262267
 20
6.9581799292
 30
0.0
  0
SPLINE
  5
266
100
AcDbEntity
  8
0
100
AcDbSpline
 62
7
  6
BYLAYER
 70
0
 71
3
 72
11
 73
7
 74
0
 42
0.0000001
 43
0.0000001
 44
0.0000000001
 40
0.0
 40
0.0
 40
0.0
 40
0.0
 40
0.2444023757
 40
0.4935283915
 40
0.7459316032
 40
1.0
 40
1.0
 40
1.0
 40
1.0
 10
29.542401819
 20
15.7552936409
 30
0.0
 10
29.5423955073
 20
15.6895719179
 30
0.0
 10
29.5404236016
 20
15.556861786
 30
0.0
 10
29.535389953
 20
15.3563407937
 30
0.0
 10
29.531100518
 20
15.15319717
 30
0.0
 10
29.5299933314
 20
15.0170013414
 30
0.0
 10
29.529987041
 20
14.9486803492
 30
0.0
  0
SPLINE
  5
267
100
AcDbEntity
  8
0
100
AcDbSpline
 62
7
  6
BYLAYER
 70
0
 71
3
 72
11
 73
7
 74
0
 42
0.0000001
 43
0.0000001
 44
0.0000000001
 40
0.0
 40
0.0
 40
0.0
 40
0.0
 40
0.2540668087
 40
0.5064666908
 40
0.7555937626
 40
1.0
 40
1.0
 40
1.0
 40
1.0
 10
29.529987041
 20
14.9486803492
 30
0.0
 10
29.5299944705
 20
14.8803597828
 30
0.0
 10
29.531097886
 20
14.7441652456
 30
0.0
 10
29.5353927212
 20
14.5410227469
 30
0.0
 10
29.5404255222
 20
14.340501302
 30
0.0
 10
29.5423954125
 20
14.2077898254
 30
0.0
 10
29.542401819
 20
14.1420670627
 30
0.0
  0
ELLIPSE
  5
268
100
AcDbEntity
  8
0
100
AcDbEllipse
 62
7
  6
BYLAYER
 10
14.242401819
 20
44.4086803519
 30
0.0
 11
0.0
 21
0.7
 31
0.0
 40
1.0
 41
-4.7123889804
 42
-3.1415926536
  0
ELLIPSE
  5
269
100
AcDbEntity
  8
0
100
AcDbEllipse
 62
7
  6
BYLAYER
 10
28.842401819
 20
44.4086803519
 30
0.0
 11
0.7
 21
-0.0
 31
0.0
 40
1.0
 41
-1.5707963268
 42
0.0
  0
ENDSEC
  0
SECTION
  2
OBJECTS
  0
DICTIONARY
  5
C
100
AcDbDictionary
280
0
281
1
  3
ACAD_GROUP
350
D
  3
ACAD_MLINESTYLE
350
17
  3
ACAD_LAYOUT
350
1A
  3
ACAD_PLOTSETTINGS
350
19
  3
ACAD_PLOTSTYLENAME
350
E
  0
DICTIONARY
  5
D
102
{ACAD_REACTORS
330
C
102
}
100
AcDbDictionary
280
0
281
1
  0
ACDBDICTIONARYWDFLT
  5
E
102
{ACAD_REACTORS
330
C
102
}
100
AcDbDictionary
281
1
  3
Normal
350
F
100
AcDbDictionaryWithDefault
340
F
  0
DICTIONARY
  5
17
102
{ACAD_REACTORS
330
C
102
}
100
AcDbDictionary
280
0
281
1
  3
Standard
350
18
  0
DICTIONARY
  5
19
102
{ACAD_REACTORS
330
C
102
}
100
AcDbDictionary
281
1
  0
DICTIONARY
  5
1A
102
{ACAD_REACTORS
330
C
102
}
100
AcDbDictionary
281
1
  3
Model
350
26A
  3
Layout1
350
26B
  0
ACDBPLACEHOLDER
  5
F
102
{ACAD_REACTORS
330
E
102
}
  0
MLINESTYLE
  5
18
102
{ACAD_REACTORS
330
17
102
}
100
AcDbMlineStyle
  2
STANDARD
 70
0
  3

 62
256
 51
90.0
 52
90.0
 71
2
 49
0.5
 62
256
  6
BYLAYER
 49
-0.5
 62
256
  6
BYLAYER
  0
LAYOUT
  5
26A
102
{ACAD_REACTORS
330
1A
102
}
100
AcDbPlotSettings
  1

  2
none_device
  4

  6

 40
0.0
 41
0.0
 42
0.0
 43
0.0
 44
210.0
 45
297.0
 46
0.0
 47
0.0
 48
0.0
 49
0.0
140
0.0
141
0.0
142
1.0
143
1.0
 70
1024
 72
1
 73
0
 74
0
  7

 75
0
147
1.0
148
0.0
149
0.0
100
AcDbLayout
  1
Model
 70
0
 71
0
 10
0.0
 20
0.0
 11
210.0
 21
297.0
 12
0.0
 22
0.0
 32
0.0
 14
0.0
 24
0.0
 34
0.0
 15
0.0
 25
0.0
 35
0.0
146
0.0
 13
0.0
 23
0.0
 33
0.0
 16
1.0
 26
0.0
 36
0.0
 17
0.0
 27
1.0
 37
0.0
 76
0
330
210
345
0
346
0
  0
LAYOUT
  5
26B
102
{ACAD_REACTORS
330
1A
102
}
100
AcDbPlotSettings
  1

  2
none_device
  4

  6

 40
0.0
 41
0.0
 42
0.0
 43
0.0
 44
210.0
 45
297.0
 46
0.0
 47
0.0
 48
0.0
 49
0.0
140
0.0
141
0.0
142
1.0
143
1.0
 70
0
 72
1
 73
0
 74
0
  7

 75
0
147
1.0
148
0.0
149
0.0
100
AcDbLayout
  1
Layout1
 70
0
 71
1
 10
0.0
 20
0.0
 11
210.0
 21
297.0
 12
0.0
 22
0.0
 32
0.0
 14
0.0
 24
0.0
 34
0.0
 15
0.0
 25
0.0
 35
0.0
146
0.0
 13
0.0
 23
0.0
 33
0.0
 16
1.0
 26
0.0
 36
0.0
 17
0.0
 27
1.0
 37
0.0
 76
0
330
211
345
0
346
0
  0
ENDSEC
  0
EOF
