999
DXF file: C:\Users\sesa63760\Dev\_Creo\CAD\MCADID0000948_3D-CAD\drw0001_6.dxf
999
Pro/ENGINEER 2019471 by Parametric Technology Corporation
  0
SECTION
  2
HEADER
  9
$ACADVER
  1
AC1024
  9
$DWGCODEPAGE
  3
ANSI_1252
  9
$EXTMAX
 10
293.7682293393
 20
415.4722100656
 30
0.0
  9
$EXTMIN
 10
0.0
 20
0.0
 30
0.0
  9
$LIMMIN
 10
0.0
 20
0.0
  9
$LIMMAX
 10
293.7682293393
 20
415.4722100656
  9
$VIEWCTR
 10
146.8841146697
 20
207.7361050328
  9
$VIEWSIZE
 40
415.4722100656
  9
$CLAYER
  8
0
  9
$LTSCALE
 40
27.0826329524
  9
$CELTYPE
  6
BYLAYER
  9
$DIMSCALE
 40
1.0
  9
$DIMASZ
 40
3.4972408255
  9
$DIMEXO
 40
1.0
  9
$DIMDLI
 40
18.7116373126
  9
$DIMEXE
 40
1.0
  9
$DIMCEN
 40
4.431703574
  9
$DIMLFAC
 40
1.0
  9
$DIMBLK
  1
_FILLED
  9
$DIMALT
 70
0
  9
$DIMALTF
 40
0.0393700787
  9
$DIMTXT
 40
4.8961371557
  9
$DIMTOL
 70
1
  9
$DIMLIM
 70
0
  9
$DIMTFAC
 40
1.0
  9
$DIMTP
 40
0.01
  9
$DIMTM
 40
0.01
  9
$DIMGAP
 40
0.625
  9
$DIMDSEP
 70
46
  9
$AUNITS
 70
0
  9
$PDMODE
 70
3
  9
$PDSIZE
 40
0.3125
  9
$HANDSEED
  5
459
  9
$TILEMODE
 70
1
  9
$MEASUREMENT
 70
1
  9
$INSUNITS
 70
4
  0
ENDSEC
  0
SECTION
  2
CLASSES
  0
CLASS
  1
ACDBDICTIONARYWDFLT
  2
AcDbDictionaryWithDefault
  3
AutoCAD 2000
 90
0
 91
1
280
0
281
0
  0
CLASS
  1
ACDBPLACEHOLDER
  2
AcDbPlaceHolder
  3
AutoCAD 2000
 90
0
 91
1
280
0
281
0
  0
CLASS
  1
LAYOUT
  2
AcDbLayout
  3
AutoCAD 2000
 90
0
 91
0
280
0
281
0
  0
ENDSEC
  0
SECTION
  2
TABLES
  0
TABLE
  2
VPORT
  5
8
100
AcDbSymbolTable
 70
2
  0
VPORT
  5
1F4
100
AcDbSymbolTableRecord
100
AcDbViewportTableRecord
  2
*ACTIVE
 70
0
 10
0.0
 20
0.0
 11
1.0
 21
1.0
 12
146.8841146697
 22
207.7361050328
 13
0.0
 23
0.0
 14
1.0
 24
1.0
 15
0.0
 25
0.0
 16
0.0
 26
0.0
 36
1.0
 17
0.0
 27
0.0
 37
0.0
 40
415.4722100656
 41
0.7070707071
 42
50.0
 43
0.0
 44
0.0
 50
0.0
 51
0.0
 71
0
 72
100
 73
1
 74
1
 75
0
 76
0
 77
0
 78
0
  0
ENDTAB
  0
TABLE
  2
LTYPE
  5
5
100
AcDbSymbolTable
 70
6
  0
LTYPE
  5
14
100
AcDbSymbolTableRecord
100
AcDbLinetypeTableRecord
  2
BYBLOCK
 70
0
  3

 72
65
 73
0
 40
0.0
  0
LTYPE
  5
15
100
AcDbSymbolTableRecord
100
AcDbLinetypeTableRecord
  2
BYLAYER
 70
0
  3

 72
65
 73
0
 40
0.0
  0
LTYPE
  5
16
100
AcDbSymbolTableRecord
100
AcDbLinetypeTableRecord
  2
CONTINUOUS
 70
64
  3
Solid line
 72
65
 73
0
 40
0.0
  0
LTYPE
  5
1F5
100
AcDbSymbolTableRecord
100
AcDbLinetypeTableRecord
  2
CENTER
 70
64
  3
____ _ ____ _ ____ _ ____ _ ____ _ ____ _ ____
 72
65
 73
4
 40
0.6
 49
0.375
 74
0
 49
-0.075
 74
0
 49
0.075
 74
0
 49
-0.075
 74
0
  0
LTYPE
  5
1F6
100
AcDbSymbolTableRecord
100
AcDbLinetypeTableRecord
  2
HIDDEN
 70
64
  3
- - - - - - - - - - - - - - - - - - - -
 72
65
 73
2
 40
0.2
 49
0.1
 74
0
 49
-0.1
 74
0
  0
LTYPE
  5
1F7
100
AcDbSymbolTableRecord
100
AcDbLinetypeTableRecord
  2
PHANTOM
 70
64
  3
_____ _ _ _____ _ _ _____ _ _ _____
 72
65
 73
6
 40
0.8
 49
0.45
 74
0
 49
-0.05
 74
0
 49
0.1
 74
0
 49
-0.05
 74
0
 49
0.1
 74
0
 49
-0.05
 74
0
  0
LTYPE
  5
1F8
100
AcDbSymbolTableRecord
100
AcDbLinetypeTableRecord
  2
DOT
 70
64
  3
. . . . . . . . . . . . . . . . . . . .
 72
65
 73
2
 40
0.2
 49
0.1
 74
0
 49
-0.1
 74
0
  0
LTYPE
  5
1F9
100
AcDbSymbolTableRecord
100
AcDbLinetypeTableRecord
  2
DASHED
 70
64
  3
- - - - - - - - - - - - - - - - - - - -
 72
65
 73
2
 40
0.2
 49
0.1
 74
0
 49
-0.1
 74
0
  0
ENDTAB
  0
TABLE
  2
LAYER
  5
2
100
AcDbSymbolTable
 70
36
  0
LAYER
  5
10
100
AcDbSymbolTableRecord
100
AcDbLayerTableRecord
  2
0
 70
0
 62
7
  6
CONTINUOUS
370
-3
390
F
  0
LAYER
  5
1FA
100
AcDbSymbolTableRecord
100
AcDbLayerTableRecord
  2
DEFAULT_1
 70
0
 62
7
  6
CENTER
370
-3
390
F
  0
LAYER
  5
1FB
100
AcDbSymbolTableRecord
100
AcDbLayerTableRecord
  2
DEFAULT_2
 70
0
 62
8
  6
HIDDEN
370
-3
390
F
  0
LAYER
  5
1FC
100
AcDbSymbolTableRecord
100
AcDbLayerTableRecord
  2
DEFAULT_3
 70
0
 62
7
  6
PHANTOM
370
-3
390
F
  0
LAYER
  5
1FD
100
AcDbSymbolTableRecord
100
AcDbLayerTableRecord
  2
00_COMPONENTS
 70
0
 62
7
  6
CONTINUOUS
370
-3
390
F
  0
LAYER
  5
1FE
100
AcDbSymbolTableRecord
100
AcDbLayerTableRecord
  2
01_1_DEFAULT_DATUMS
 70
0
 62
7
  6
CONTINUOUS
370
-3
390
F
  0
LAYER
  5
1FF
100
AcDbSymbolTableRecord
100
AcDbLayerTableRecord
  2
01_PLANES
 70
0
 62
7
  6
CONTINUOUS
370
-3
390
F
  0
LAYER
  5
200
100
AcDbSymbolTableRecord
100
AcDbLayerTableRecord
  2
02_COORD_SYS
 70
0
 62
7
  6
CONTINUOUS
370
-3
390
F
  0
LAYER
  5
201
100
AcDbSymbolTableRecord
100
AcDbLayerTableRecord
  2
03_AXES
 70
0
 62
7
  6
CONTINUOUS
370
-3
390
F
  0
LAYER
  5
202
100
AcDbSymbolTableRecord
100
AcDbLayerTableRecord
  2
04_POINTS
 70
0
 62
7
  6
CONTINUOUS
370
-3
390
F
  0
LAYER
  5
203
100
AcDbSymbolTableRecord
100
AcDbLayerTableRecord
  2
05_CURVES
 70
0
 62
7
  6
CONTINUOUS
370
-3
390
F
  0
LAYER
  5
204
100
AcDbSymbolTableRecord
100
AcDbLayerTableRecord
  2
06_SURFS
 70
0
 62
7
  6
CONTINUOUS
370
-3
390
F
  0
LAYER
  5
205
100
AcDbSymbolTableRecord
100
AcDbLayerTableRecord
  2
07_COSMETICS
 70
0
 62
7
  6
CONTINUOUS
370
-3
390
F
  0
LAYER
  5
206
100
AcDbSymbolTableRecord
100
AcDbLayerTableRecord
  2
10_NOTES
 70
0
 62
7
  6
CONTINUOUS
370
-3
390
F
  0
LAYER
  5
207
100
AcDbSymbolTableRecord
100
AcDbLayerTableRecord
  2
11_NOTES_PUB
 70
0
 62
7
  6
CONTINUOUS
370
-3
390
F
  0
LAYER
  5
208
100
AcDbSymbolTableRecord
100
AcDbLayerTableRecord
  2
13_REF_GTOL
 70
0
 62
7
  6
CONTINUOUS
370
-3
390
F
  0
LAYER
  5
209
100
AcDbSymbolTableRecord
100
AcDbLayerTableRecord
  2
16_MISC
 70
0
 62
7
  6
CONTINUOUS
370
-3
390
F
  0
LAYER
  5
20A
100
AcDbSymbolTableRecord
100
AcDbLayerTableRecord
  2
17_NO_PRINT
 70
0
 62
7
  6
CONTINUOUS
370
-3
390
F
  0
LAYER
  5
20B
100
AcDbSymbolTableRecord
100
AcDbLayerTableRecord
  2
18_DATUM_CAMS_JOINTS
 70
0
 62
7
  6
CONTINUOUS
370
-3
390
F
  0
LAYER
  5
20C
100
AcDbSymbolTableRecord
100
AcDbLayerTableRecord
  2
19_DATUM_FUNCTIONAL
 70
0
 62
7
  6
CONTINUOUS
370
-3
390
F
  0
LAYER
  5
20D
100
AcDbSymbolTableRecord
100
AcDbLayerTableRecord
  2
20_DATUM_KINEMATIC_SCHEME
 70
0
 62
7
  6
CONTINUOUS
370
-3
390
F
  0
ENDTAB
  0
TABLE
  2
STYLE
  5
3
100
AcDbSymbolTable
 70
1
  0
STYLE
  5
11
100
AcDbSymbolTableRecord
100
AcDbTextStyleTableRecord
  2
STANDARD
 70
0
 40
0.0
 41
0.8
 50
0.0
 71
0
 42
0.2
  3
txt
  4

  0
STYLE
  5
20E
100
AcDbSymbolTableRecord
100
AcDbTextStyleTableRecord
  2
TEXTSTYLE_1
 70
0
 40
0.0
 41
0.8
 50
0.0
 71
0
 42
0.2
  3
gdt
  4

  0
ENDTAB
  0
TABLE
  2
VIEW
  5
6
100
AcDbSymbolTable
 70
0
  0
ENDTAB
  0
TABLE
  2
UCS
  5
7
100
AcDbSymbolTable
 70
0
  0
ENDTAB
  0
TABLE
  2
APPID
  5
9
100
AcDbSymbolTable
 70
1
  0
APPID
  5
20F
100
AcDbSymbolTableRecord
100
AcDbRegAppTableRecord
  2
ACAD
 70
0
  0
ENDTAB
  0
TABLE
  2
BLOCK_RECORD
  5
1
100
AcDbSymbolTable
 70
0
  0
BLOCK_RECORD
  5
210
100
AcDbSymbolTableRecord
100
AcDbBlockTableRecord
  2
*Model_Space
  0
BLOCK_RECORD
  5
211
100
AcDbSymbolTableRecord
100
AcDbBlockTableRecord
  2
*Paper_Space
  0
BLOCK_RECORD
  5
212
100
AcDbSymbolTableRecord
100
AcDbBlockTableRecord
  2
_FILLED
  0
ENDTAB
  0
TABLE
  2
DIMSTYLE
  5
A
100
AcDbSymbolTable
 70
1
100
AcDbDimStyleTable
 71
0
  0
DIMSTYLE
105
213
100
AcDbSymbolTableRecord
100
AcDbDimStyleTableRecord
  2
STANDARD
 70
0
  3

  4

 40
1.0
 41
3.4972408255
 42
1.0
 43
0.38
 44
1.0
 45
0.0
 46
0.0
 47
0.01
 48
0.01
140
4.8961371557
141
0.09
142
0.0
143
25.4
144
1.0
145
0.0
146
1.0
147
0.625
 71
1
 72
0
 73
0
 74
0
 75
0
 76
0
 77
1
 78
8
 79
2
170
0
171
1
172
0
173
0
174
0
175
0
176
0
177
0
178
0
270
2
179
2
271
2
272
2
273
2
274
2
275
0
280
0
281
0
282
0
283
1
284
8
285
0
286
0
287
3
288
0
340
11
278
46
341
212
342
212
343
212
344
212
  0
ENDTAB
  0
ENDSEC
  0
SECTION
  2
BLOCKS
  0
BLOCK
  5
20
100
AcDbEntity
  8
0
100
AcDbBlockBegin
  2
*Model_Space
 70
0
 10
0.0
 20
0.0
 30
0.0
  3
*Model_Space
  1

  0
ENDBLK
  5
21
100
AcDbEntity
  8
0
100
AcDbBlockEnd
  0
BLOCK
  5
1C
100
AcDbEntity
  8
0
100
AcDbBlockBegin
  2
*Paper_Space
 70
0
 10
0.0
 20
0.0
 30
0.0
  3
*Paper_Space
  1

  0
ENDBLK
  5
1D
100
AcDbEntity
  8
0
100
AcDbBlockEnd
  0
BLOCK
  5
214
100
AcDbEntity
  8
0
100
AcDbBlockBegin
  2
_FILLED
 70
64
 10
0.0
 20
0.0
  3
_FILLED
  1

  0
SOLID
  5
215
100
AcDbEntity
  8
0
  6
BYBLOCK
 62
0
100
AcDbTrace
 10
0.0
 20
0.0
 11
-1.0
 21
0.25
 12
-1.0
 22
-0.25
 13
-1.0
 23
-0.25
  0
ENDBLK
  5
216
100
AcDbEntity
  8
0
  6
BYBLOCK
 62
0
100
AcDbBlockEnd
  0
ENDSEC
  0
SECTION
  2
ENTITIES
  0
LINE
  5
217
100
AcDbEntity
  8
0
100
AcDbLine
 62
7
  6
CONTINUOUS
 10
33.2267842539
 20
205.6561333419
 11
33.2267842539
 21
193.1561333419
  0
LINE
  5
218
100
AcDbEntity
  8
0
100
AcDbLine
 62
7
  6
CONTINUOUS
 10
34.2267842539
 20
207.6561333419
 11
34.2267842539
 21
214.3161333419
  0
LINE
  5
219
100
AcDbEntity
  8
0
100
AcDbLine
 62
7
  6
CONTINUOUS
 10
34.5267842539
 20
205.6561333419
 11
34.5267842539
 21
206.1561333419
  0
LINE
  5
21A
100
AcDbEntity
  8
0
100
AcDbLine
 62
7
  6
CONTINUOUS
 10
36.7267842539
 20
206.1561333419
 11
36.7267842539
 21
207.6561333419
  0
LINE
  5
21B
100
AcDbEntity
  8
0
100
AcDbLine
 62
7
  6
CONTINUOUS
 10
41.7267842539
 20
206.1561333419
 11
41.7267842539
 21
207.6561333419
  0
LINE
  5
21C
100
AcDbEntity
  8
0
100
AcDbLine
 62
7
  6
CONTINUOUS
 10
44.2267842539
 20
207.6561333419
 11
44.2267842539
 21
214.3161333419
  0
LINE
  5
21D
100
AcDbEntity
  8
0
100
AcDbLine
 62
7
  6
CONTINUOUS
 10
45.2267842539
 20
118.6561333419
 11
45.2267842539
 21
282.7789250069
  0
LINE
  5
21E
100
AcDbEntity
  8
0
100
AcDbLine
 62
7
  6
CONTINUOUS
 10
46.1396285112
 20
213.1561333419
 11
46.1396285112
 21
252.1561333419
  0
LINE
  5
21F
100
AcDbEntity
  8
0
100
AcDbLine
 62
7
  6
CONTINUOUS
 10
46.1641840744
 20
283.3012059094
 11
46.1641840744
 21
279.1133666366
  0
LINE
  5
220
100
AcDbEntity
  8
0
100
AcDbLine
 62
7
  6
CONTINUOUS
 10
46.2267866075
 20
259.8095799704
 11
46.2267858952
 21
278.6434920067
  0
LINE
  5
221
100
AcDbEntity
  8
0
100
AcDbLine
 62
7
  6
CONTINUOUS
 10
48.2267842539
 20
252.1561333419
 11
48.2267842539
 21
252.6561333419
  0
LINE
  5
222
100
AcDbEntity
  8
0
100
AcDbLine
 62
7
  6
CONTINUOUS
 10
50.2267842539
 20
118.6561333419
 11
50.2267842539
 21
120.1561333419
  0
LINE
  5
223
100
AcDbEntity
  8
0
100
AcDbLine
 62
7
  6
CONTINUOUS
 10
50.681920985
 20
259.4101273981
 11
50.6819203395
 21
252.6561333419
  0
LINE
  5
224
100
AcDbEntity
  8
0
100
AcDbLine
 62
7
  6
CONTINUOUS
 10
50.6819202882
 20
252.1561333419
 11
50.6819202882
 21
213.1561333419
  0
LINE
  5
225
100
AcDbEntity
  8
0
100
AcDbLine
 62
7
  6
CONTINUOUS
 10
46.1384947953
 20
252.6561333419
 11
46.1396281077
 21
258.8003323469
  0
LINE
  5
226
100
AcDbEntity
  8
0
100
AcDbLine
 62
7
  6
CONTINUOUS
 10
54.0255467032
 20
193.1561333419
 11
54.0255467032
 21
212.6561333419
  0
LINE
  5
227
100
AcDbEntity
  8
0
100
AcDbLine
 62
7
  6
CONTINUOUS
 10
54.3180761096
 20
213.1561333419
 11
54.3180761096
 21
252.1561333419
  0
LINE
  5
228
100
AcDbEntity
  8
0
100
AcDbLine
 62
7
  6
CONTINUOUS
 10
54.318075833
 20
252.6561333419
 11
54.3180750671
 21
260.0010047293
  0
LINE
  5
229
100
AcDbEntity
  8
0
100
AcDbLine
 62
7
  6
CONTINUOUS
 10
54.6843545401
 20
242.3561333419
 11
54.6843545401
 21
249.1561333419
  0
LINE
  5
22A
100
AcDbEntity
  8
0
100
AcDbLine
 62
7
  6
CONTINUOUS
 10
54.7018522728
 20
230.1561333419
 11
54.7018522728
 21
238.1561333419
  0
LINE
  5
22B
100
AcDbEntity
  8
0
100
AcDbLine
 62
7
  6
CONTINUOUS
 10
54.9205739316
 20
238.1446706254
 11
54.9205739316
 21
230.1675960583
  0
LINE
  5
22C
100
AcDbEntity
  8
0
100
AcDbLine
 62
7
  6
CONTINUOUS
 10
55.0343091942
 20
249.1561333419
 11
55.0343091942
 21
252.1561333419
  0
LINE
  5
22D
100
AcDbEntity
  8
0
100
AcDbLine
 62
7
  6
CONTINUOUS
 10
55.0667710151
 20
252.6561333419
 11
55.0670582852
 21
260.0965144338
  0
LINE
  5
22E
100
AcDbEntity
  8
0
100
AcDbLine
 62
7
  6
CONTINUOUS
 10
55.1469207298
 20
242.3561333419
 11
55.1469207299
 21
213.1561333419
  0
LINE
  5
22F
100
AcDbEntity
  8
0
100
AcDbLine
 62
7
  6
CONTINUOUS
 10
55.2267842539
 20
252.1561333419
 11
55.2267842539
 21
242.3561333419
  0
LINE
  5
230
100
AcDbEntity
  8
0
100
AcDbLine
 62
7
  6
CONTINUOUS
 10
55.2267842539
 20
193.1561333419
 11
55.2267842539
 21
212.6561333419
  0
LINE
  5
231
100
AcDbEntity
  8
0
100
AcDbLine
 62
7
  6
CONTINUOUS
 10
55.4048714266
 20
193.1561333419
 11
55.4048714266
 21
120.1561333419
  0
LINE
  5
232
100
AcDbEntity
  8
0
100
AcDbLine
 62
7
  6
CONTINUOUS
 10
55.5024464576
 20
212.6561333419
 11
55.5024464576
 21
213.1561333419
  0
LINE
  5
233
100
AcDbEntity
  8
0
100
AcDbLine
 62
7
  6
CONTINUOUS
 10
55.7267842539
 20
252.1561333419
 11
55.7267842539
 21
252.6561333419
  0
LINE
  5
234
100
AcDbEntity
  8
0
100
AcDbLine
 62
7
  6
CONTINUOUS
 10
55.9119876265
 20
252.6561333419
 11
55.9119876265
 21
252.1561333419
  0
LINE
  5
235
100
AcDbEntity
  8
0
100
AcDbLine
 62
7
  6
CONTINUOUS
 10
55.9119876265
 20
213.1561333419
 11
55.9119876265
 21
212.6561333419
  0
LINE
  5
236
100
AcDbEntity
  8
0
100
AcDbLine
 62
7
  6
CONTINUOUS
 10
56.2267842539
 20
242.3561333419
 11
56.2267842539
 21
252.1561333419
  0
LINE
  5
237
100
AcDbEntity
  8
0
100
AcDbLine
 62
7
  6
CONTINUOUS
 10
56.6929141323
 20
213.1561333419
 11
56.6929141323
 21
212.6561333419
  0
LINE
  5
238
100
AcDbEntity
  8
0
100
AcDbLine
 62
7
  6
CONTINUOUS
 10
56.6929141323
 20
252.1561333419
 11
56.6929141323
 21
252.6561333419
  0
LINE
  5
239
100
AcDbEntity
  8
0
100
AcDbLine
 62
7
  6
CONTINUOUS
 10
56.7267842539
 20
193.1561333419
 11
56.7267842539
 21
120.1561333419
  0
LINE
  5
23A
100
AcDbEntity
  8
0
100
AcDbLine
 62
7
  6
CONTINUOUS
 10
57.0594467413
 20
252.6561333419
 11
57.0594469134
 21
260.2227884391
  0
LINE
  5
23B
100
AcDbEntity
  8
0
100
AcDbLine
 62
7
  6
CONTINUOUS
 10
57.2267842539
 20
239.6561333419
 11
57.2267842539
 21
236.6561333419
  0
LINE
  5
23C
100
AcDbEntity
  8
0
100
AcDbLine
 62
7
  6
CONTINUOUS
 10
57.2267842539
 20
233.6561333419
 11
57.2267842539
 21
230.6561333419
  0
LINE
  5
23D
100
AcDbEntity
  8
0
100
AcDbLine
 62
7
  6
CONTINUOUS
 10
57.2267842539
 20
227.6561333419
 11
57.2267842539
 21
224.6561333419
  0
LINE
  5
23E
100
AcDbEntity
  8
0
100
AcDbLine
 62
7
  6
CONTINUOUS
 10
57.2267842539
 20
221.6561333419
 11
57.2267842539
 21
218.6561333419
  0
LINE
  5
23F
100
AcDbEntity
  8
0
100
AcDbLine
 62
7
  6
CONTINUOUS
 10
58.6661071556
 20
213.1561333419
 11
58.6661071556
 21
212.6561333419
  0
LINE
  5
240
100
AcDbEntity
  8
0
100
AcDbLine
 62
7
  6
CONTINUOUS
 10
58.7405060466
 20
213.1561333419
 11
58.7405060466
 21
212.6561333419
  0
LINE
  5
241
100
AcDbEntity
  8
0
100
AcDbLine
 62
7
  6
CONTINUOUS
 10
59.8848981369
 20
239.5786150648
 11
59.8848981369
 21
236.7336516189
  0
LINE
  5
242
100
AcDbEntity
  8
0
100
AcDbLine
 62
7
  6
CONTINUOUS
 10
59.8848981369
 20
233.5786150648
 11
59.8848981369
 21
230.7336516189
  0
LINE
  5
243
100
AcDbEntity
  8
0
100
AcDbLine
 62
7
  6
CONTINUOUS
 10
59.8848981369
 20
227.5786150648
 11
59.8848981369
 21
224.7336516189
  0
LINE
  5
244
100
AcDbEntity
  8
0
100
AcDbLine
 62
7
  6
CONTINUOUS
 10
59.8848981369
 20
221.5786150648
 11
59.8848981369
 21
218.7336516189
  0
LINE
  5
245
100
AcDbEntity
  8
0
100
AcDbLine
 62
7
  6
CONTINUOUS
 10
60.2267842539
 20
218.7751511358
 11
60.2267842539
 21
221.5371155479
  0
LINE
  5
246
100
AcDbEntity
  8
0
100
AcDbLine
 62
7
  6
CONTINUOUS
 10
60.2267842539
 20
224.7751511358
 11
60.2267842539
 21
227.5371155479
  0
LINE
  5
247
100
AcDbEntity
  8
0
100
AcDbLine
 62
7
  6
CONTINUOUS
 10
60.2267842539
 20
230.7751511358
 11
60.2267842539
 21
233.5371155479
  0
LINE
  5
248
100
AcDbEntity
  8
0
100
AcDbLine
 62
7
  6
CONTINUOUS
 10
60.2267842539
 20
236.7751511358
 11
60.2267842539
 21
239.5371155479
  0
LINE
  5
249
100
AcDbEntity
  8
0
100
AcDbLine
 62
7
  6
CONTINUOUS
 10
56.1455792713
 20
213.1561333419
 11
56.155045529
 21
242.3561333419
  0
LINE
  5
24A
100
AcDbEntity
  8
0
100
AcDbLine
 62
7
  6
CONTINUOUS
 10
45.2267842539
 20
118.6561333419
 11
265.2267842539
 21
118.6561333419
  0
LINE
  5
24B
100
AcDbEntity
  8
0
100
AcDbLine
 62
7
  6
CONTINUOUS
 10
45.2267842539
 20
120.1561333419
 11
70.9267842539
 21
120.1561333419
  0
LINE
  5
24C
100
AcDbEntity
  8
0
100
AcDbLine
 62
7
  6
CONTINUOUS
 10
241.9267842539
 20
120.1561333419
 11
265.2267842539
 21
120.1561333419
  0
LINE
  5
24D
100
AcDbEntity
  8
0
100
AcDbLine
 62
7
  6
CONTINUOUS
 10
70.2267842539
 20
120.1561333419
 11
70.2267842539
 21
118.6561333419
  0
LINE
  5
24E
100
AcDbEntity
  8
0
100
AcDbLine
 62
7
  6
CONTINUOUS
 10
70.9267842539
 20
120.1561333419
 11
70.9267842539
 21
118.6561333419
  0
LINE
  5
24F
100
AcDbEntity
  8
0
100
AcDbLine
 62
7
  6
CONTINUOUS
 10
134.2267842539
 20
123.6561333419
 11
105.2267842539
 21
123.6561333419
  0
LINE
  5
250
100
AcDbEntity
  8
0
100
AcDbLine
 62
7
  6
CONTINUOUS
 10
94.2267842539
 20
123.6561333419
 11
65.2267842539
 21
123.6561333419
  0
LINE
  5
251
100
AcDbEntity
  8
0
100
AcDbLine
 62
7
  6
CONTINUOUS
 10
65.2267842539
 20
129.6561333419
 11
94.2267842539
 21
129.6561333419
  0
LINE
  5
252
100
AcDbEntity
  8
0
100
AcDbLine
 62
7
  6
CONTINUOUS
 10
105.2267842539
 20
129.6561333419
 11
134.2267842539
 21
129.6561333419
  0
LINE
  5
253
100
AcDbEntity
  8
0
100
AcDbLine
 62
7
  6
CONTINUOUS
 10
57.0594468188
 20
260.2227884277
 11
56.934182739
 21
261.2149118627
  0
LINE
  5
254
100
AcDbEntity
  8
0
100
AcDbLine
 62
7
  6
CONTINUOUS
 10
80.7267842539
 20
263.2848963309
 11
80.7267842539
 21
290.6561333419
  0
LINE
  5
255
100
AcDbEntity
  8
0
100
AcDbLine
 62
7
  6
CONTINUOUS
 10
80.8465041076
 20
261.6561333419
 11
80.8465041076
 21
260.9523495912
  0
LINE
  5
256
100
AcDbEntity
  8
0
100
AcDbLine
 62
7
  6
CONTINUOUS
 10
80.5539791111
 20
252.6561333419
 11
80.7395221306
 21
263.2858858094
  0
LINE
  5
257
100
AcDbEntity
  8
0
100
AcDbLine
 62
7
  6
CONTINUOUS
 10
81.2380231801
 20
262.7796114121
 11
80.9727808147
 21
252.6561333419
  0
LINE
  5
258
100
AcDbEntity
  8
0
100
AcDbLine
 62
7
  6
CONTINUOUS
 10
81.2378741531
 20
262.7796395043
 11
81.2510688603
 21
263.2835250432
  0
LINE
  5
259
100
AcDbEntity
  8
0
100
AcDbLine
 62
7
  6
CONTINUOUS
 10
134.2267842539
 20
132.6561333419
 11
105.2267842539
 21
132.6561333419
  0
LINE
  5
25A
100
AcDbEntity
  8
0
100
AcDbLine
 62
7
  6
CONTINUOUS
 10
94.2267842539
 20
132.6561333419
 11
65.2267842539
 21
132.6561333419
  0
LINE
  5
25B
100
AcDbEntity
  8
0
100
AcDbLine
 62
7
  6
CONTINUOUS
 10
65.2267842539
 20
138.6561333419
 11
94.2267842539
 21
138.6561333419
  0
LINE
  5
25C
100
AcDbEntity
  8
0
100
AcDbLine
 62
7
  6
CONTINUOUS
 10
105.2267842539
 20
138.6561333419
 11
134.2267842539
 21
138.6561333419
  0
LINE
  5
25D
100
AcDbEntity
  8
0
100
AcDbLine
 62
7
  6
CONTINUOUS
 10
86.3162101266
 20
218.7873663372
 11
86.3162101266
 21
221.5249003466
  0
LINE
  5
25E
100
AcDbEntity
  8
0
100
AcDbLine
 62
7
  6
CONTINUOUS
 10
86.4036987901
 20
218.6998776736
 11
86.4036987901
 21
221.6123890101
  0
LINE
  5
25F
100
AcDbEntity
  8
0
100
AcDbLine
 62
7
  6
CONTINUOUS
 10
87.9239052812
 20
224.7873663372
 11
87.9239052812
 21
227.5249003466
  0
LINE
  5
260
100
AcDbEntity
  8
0
100
AcDbLine
 62
7
  6
CONTINUOUS
 10
88.0113939447
 20
224.6998776736
 11
88.0113939447
 21
227.6123890101
  0
LINE
  5
261
100
AcDbEntity
  8
0
100
AcDbLine
 62
7
  6
CONTINUOUS
 10
89.5316004358
 20
230.7873663372
 11
89.5316004358
 21
233.5249003466
  0
LINE
  5
262
100
AcDbEntity
  8
0
100
AcDbLine
 62
7
  6
CONTINUOUS
 10
89.6190890993
 20
230.6998776736
 11
89.6190890993
 21
233.6123890101
  0
LINE
  5
263
100
AcDbEntity
  8
0
100
AcDbLine
 62
7
  6
CONTINUOUS
 10
91.1392955904
 20
236.7873663372
 11
91.1392955904
 21
239.5249003466
  0
LINE
  5
264
100
AcDbEntity
  8
0
100
AcDbLine
 62
7
  6
CONTINUOUS
 10
91.2267842539
 20
236.6998776736
 11
91.2267842539
 21
239.6123890101
  0
LINE
  5
265
100
AcDbEntity
  8
0
100
AcDbLine
 62
7
  6
CONTINUOUS
 10
91.2267842539
 20
239.6123890101
 11
91.1392955904
 21
239.5249003466
  0
LINE
  5
266
100
AcDbEntity
  8
0
100
AcDbLine
 62
7
  6
CONTINUOUS
 10
89.6190890993
 20
233.6123890101
 11
89.5316004358
 21
233.5249003466
  0
LINE
  5
267
100
AcDbEntity
  8
0
100
AcDbLine
 62
7
  6
CONTINUOUS
 10
88.0113939447
 20
227.6123890101
 11
87.9239052812
 21
227.5249003466
  0
LINE
  5
268
100
AcDbEntity
  8
0
100
AcDbLine
 62
7
  6
CONTINUOUS
 10
97.2267842539
 20
236.6998776736
 11
97.3142729174
 21
236.7873663372
  0
LINE
  5
269
100
AcDbEntity
  8
0
100
AcDbLine
 62
7
  6
CONTINUOUS
 10
134.2267842539
 20
141.6561333419
 11
105.2267842539
 21
141.6561333419
  0
LINE
  5
26A
100
AcDbEntity
  8
0
100
AcDbLine
 62
7
  6
CONTINUOUS
 10
94.2267842539
 20
141.6561333419
 11
65.2267842539
 21
141.6561333419
  0
LINE
  5
26B
100
AcDbEntity
  8
0
100
AcDbLine
 62
7
  6
CONTINUOUS
 10
65.2267842539
 20
147.6561333419
 11
94.2267842539
 21
147.6561333419
  0
LINE
  5
26C
100
AcDbEntity
  8
0
100
AcDbLine
 62
7
  6
CONTINUOUS
 10
105.2267842539
 20
147.6561333419
 11
134.2267842539
 21
147.6561333419
  0
LINE
  5
26D
100
AcDbEntity
  8
0
100
AcDbLine
 62
7
  6
CONTINUOUS
 10
251.9267842539
 20
150.1561333419
 11
255.4267842539
 21
150.1561333419
  0
LINE
  5
26E
100
AcDbEntity
  8
0
100
AcDbLine
 62
7
  6
CONTINUOUS
 10
92.4036987901
 20
221.6123890101
 11
92.4036987901
 21
218.6998776736
  0
LINE
  5
26F
100
AcDbEntity
  8
0
100
AcDbLine
 62
7
  6
CONTINUOUS
 10
92.4911874537
 20
221.5249003466
 11
92.4911874537
 21
218.7873663372
  0
LINE
  5
270
100
AcDbEntity
  8
0
100
AcDbLine
 62
7
  6
CONTINUOUS
 10
94.0113939447
 20
227.6123890101
 11
94.0113939447
 21
224.6998776736
  0
LINE
  5
271
100
AcDbEntity
  8
0
100
AcDbLine
 62
7
  6
CONTINUOUS
 10
94.0988826083
 20
227.5249003466
 11
94.0988826083
 21
224.7873663372
  0
LINE
  5
272
100
AcDbEntity
  8
0
100
AcDbLine
 62
7
  6
CONTINUOUS
 10
95.6190890993
 20
233.6123890101
 11
95.6190890993
 21
230.6998776736
  0
LINE
  5
273
100
AcDbEntity
  8
0
100
AcDbLine
 62
7
  6
CONTINUOUS
 10
95.7065777628
 20
233.5249003466
 11
95.7065777628
 21
230.7873663372
  0
LINE
  5
274
100
AcDbEntity
  8
0
100
AcDbLine
 62
7
  6
CONTINUOUS
 10
97.2267842539
 20
239.6123890101
 11
97.2267842539
 21
236.6998776736
  0
LINE
  5
275
100
AcDbEntity
  8
0
100
AcDbLine
 62
7
  6
CONTINUOUS
 10
97.3142729174
 20
239.5249003466
 11
97.3142729174
 21
236.7873663372
  0
LINE
  5
276
100
AcDbEntity
  8
0
100
AcDbLine
 62
7
  6
CONTINUOUS
 10
103.2005983323
 20
267.9561333419
 11
103.1856128873
 21
267.383862285
  0
LINE
  5
277
100
AcDbEntity
  8
0
100
AcDbLine
 62
7
  6
CONTINUOUS
 10
86.4036987901
 20
221.6123890101
 11
86.3162101266
 21
221.5249003466
  0
LINE
  5
278
100
AcDbEntity
  8
0
100
AcDbLine
 62
7
  6
CONTINUOUS
 10
95.6190890993
 20
230.6998776736
 11
95.7065777628
 21
230.7873663372
  0
LINE
  5
279
100
AcDbEntity
  8
0
100
AcDbLine
 62
7
  6
CONTINUOUS
 10
94.0113939447
 20
224.6998776736
 11
94.0988826082
 21
224.7873663372
  0
LINE
  5
27A
100
AcDbEntity
  8
0
100
AcDbLine
 62
7
  6
CONTINUOUS
 10
92.4036987901
 20
218.6998776736
 11
92.4911874536
 21
218.7873663372
  0
LINE
  5
27B
100
AcDbEntity
  8
0
100
AcDbLine
 62
7
  6
CONTINUOUS
 10
134.2267842539
 20
150.6561333419
 11
105.2267842539
 21
150.6561333419
  0
LINE
  5
27C
100
AcDbEntity
  8
0
100
AcDbLine
 62
7
  6
CONTINUOUS
 10
94.2267842539
 20
150.6561333419
 11
65.2267842539
 21
150.6561333419
  0
LINE
  5
27D
100
AcDbEntity
  8
0
100
AcDbLine
 62
7
  6
CONTINUOUS
 10
255.4267842539
 20
155.1561333419
 11
251.9267842539
 21
155.1561333419
  0
LINE
  5
27E
100
AcDbEntity
  8
0
100
AcDbLine
 62
7
  6
CONTINUOUS
 10
259.2267842539
 20
156.1561333419
 11
265.2267842539
 21
156.1561333419
  0
LINE
  5
27F
100
AcDbEntity
  8
0
100
AcDbLine
 62
7
  6
CONTINUOUS
 10
65.2267842539
 20
156.6561333419
 11
94.2267842539
 21
156.6561333419
  0
LINE
  5
280
100
AcDbEntity
  8
0
100
AcDbLine
 62
7
  6
CONTINUOUS
 10
105.2267842539
 20
156.6561333419
 11
134.2267842539
 21
156.6561333419
  0
LINE
  5
281
100
AcDbEntity
  8
0
100
AcDbLine
 62
7
  6
CONTINUOUS
 10
134.2267842539
 20
159.6561333419
 11
105.2267842539
 21
159.6561333419
  0
LINE
  5
282
100
AcDbEntity
  8
0
100
AcDbLine
 62
7
  6
CONTINUOUS
 10
94.2267842539
 20
159.6561333419
 11
65.2267842539
 21
159.6561333419
  0
LINE
  5
283
100
AcDbEntity
  8
0
100
AcDbLine
 62
7
  6
CONTINUOUS
 10
109.2549501845
 20
267.8730834314
 11
109.2529701755
 21
267.9561333419
  0
LINE
  5
284
100
AcDbEntity
  8
0
100
AcDbLine
 62
7
  6
CONTINUOUS
 10
109.3708381562
 20
265.8366578585
 11
109.3708983776
 21
265.8103761749
  0
LINE
  5
285
100
AcDbEntity
  8
0
100
AcDbLine
 62
7
  6
CONTINUOUS
 10
103.0684673458
 20
265.3014055416
 11
103.0685275775
 21
265.3277014611
  0
LINE
  5
286
100
AcDbEntity
  8
0
100
AcDbLine
 62
7
  6
CONTINUOUS
 10
65.2267842539
 20
165.6561333419
 11
94.2267842539
 21
165.6561333419
  0
LINE
  5
287
100
AcDbEntity
  8
0
100
AcDbLine
 62
7
  6
CONTINUOUS
 10
105.2267842539
 20
165.6561333419
 11
134.2267842539
 21
165.6561333419
  0
LINE
  5
288
100
AcDbEntity
  8
0
100
AcDbLine
 62
7
  6
CONTINUOUS
 10
265.2267842539
 20
167.1561333419
 11
259.2267842539
 21
167.1561333419
  0
LINE
  5
289
100
AcDbEntity
  8
0
100
AcDbLine
 62
7
  6
CONTINUOUS
 10
251.9267842539
 20
168.1561333419
 11
255.4267842539
 21
168.1561333419
  0
LINE
  5
28A
100
AcDbEntity
  8
0
100
AcDbLine
 62
7
  6
CONTINUOUS
 10
134.2267842539
 20
168.6561333419
 11
105.2267842539
 21
168.6561333419
  0
LINE
  5
28B
100
AcDbEntity
  8
0
100
AcDbLine
 62
7
  6
CONTINUOUS
 10
94.2267842539
 20
168.6561333419
 11
65.2267842539
 21
168.6561333419
  0
LINE
  5
28C
100
AcDbEntity
  8
0
100
AcDbLine
 62
7
  6
CONTINUOUS
 10
120.6853375779
 20
266.5703674816
 11
120.6853375779
 21
266.6861349483
  0
LINE
  5
28D
100
AcDbEntity
  8
0
100
AcDbLine
 62
7
  6
CONTINUOUS
 10
133.2267842539
 20
239.6123890101
 11
133.1392955904
 21
239.5249003466
  0
LINE
  5
28E
100
AcDbEntity
  8
0
100
AcDbLine
 62
7
  6
CONTINUOUS
 10
131.6190890993
 20
233.6123890101
 11
131.5316004358
 21
233.5249003466
  0
LINE
  5
28F
100
AcDbEntity
  8
0
100
AcDbLine
 62
7
  6
CONTINUOUS
 10
255.4267842539
 20
173.1561333419
 11
251.9267842539
 21
173.1561333419
  0
LINE
  5
290
100
AcDbEntity
  8
0
100
AcDbLine
 62
7
  6
CONTINUOUS
 10
65.2267842539
 20
174.6561333419
 11
94.2267842539
 21
174.6561333419
  0
LINE
  5
291
100
AcDbEntity
  8
0
100
AcDbLine
 62
7
  6
CONTINUOUS
 10
105.2267842539
 20
174.6561333419
 11
134.2267842539
 21
174.6561333419
  0
LINE
  5
292
100
AcDbEntity
  8
0
100
AcDbLine
 62
7
  6
CONTINUOUS
 10
134.2267842539
 20
177.6561333419
 11
105.2267842539
 21
177.6561333419
  0
LINE
  5
293
100
AcDbEntity
  8
0
100
AcDbLine
 62
7
  6
CONTINUOUS
 10
94.2267842539
 20
177.6561333419
 11
65.2267842539
 21
177.6561333419
  0
LINE
  5
294
100
AcDbEntity
  8
0
100
AcDbLine
 62
7
  6
CONTINUOUS
 10
86.4036987901
 20
218.6998776736
 11
86.3162101266
 21
218.7873663372
  0
LINE
  5
295
100
AcDbEntity
  8
0
100
AcDbLine
 62
7
  6
CONTINUOUS
 10
88.0113939447
 20
224.6998776736
 11
87.9239052812
 21
224.7873663372
  0
LINE
  5
296
100
AcDbEntity
  8
0
100
AcDbLine
 62
7
  6
CONTINUOUS
 10
92.4036987902
 20
221.6123890101
 11
92.4911874537
 21
221.5249003466
  0
LINE
  5
297
100
AcDbEntity
  8
0
100
AcDbLine
 62
7
  6
CONTINUOUS
 10
128.3162101266
 20
218.7873663372
 11
128.3162101266
 21
221.5249003466
  0
LINE
  5
298
100
AcDbEntity
  8
0
100
AcDbLine
 62
7
  6
CONTINUOUS
 10
128.4036987901
 20
218.6998776736
 11
128.4036987901
 21
221.6123890101
  0
LINE
  5
299
100
AcDbEntity
  8
0
100
AcDbLine
 62
7
  6
CONTINUOUS
 10
129.9239052812
 20
224.7873663372
 11
129.9239052812
 21
227.5249003466
  0
LINE
  5
29A
100
AcDbEntity
  8
0
100
AcDbLine
 62
7
  6
CONTINUOUS
 10
130.0113939447
 20
224.6998776736
 11
130.0113939447
 21
227.6123890101
  0
LINE
  5
29B
100
AcDbEntity
  8
0
100
AcDbLine
 62
7
  6
CONTINUOUS
 10
130.0113939447
 20
227.6123890101
 11
129.9239052812
 21
227.5249003466
  0
LINE
  5
29C
100
AcDbEntity
  8
0
100
AcDbLine
 62
7
  6
CONTINUOUS
 10
139.2267842539
 20
236.6998776736
 11
139.3142729174
 21
236.7873663372
  0
LINE
  5
29D
100
AcDbEntity
  8
0
100
AcDbLine
 62
7
  6
CONTINUOUS
 10
128.4036987901
 20
221.6123890101
 11
128.3162101266
 21
221.5249003466
  0
LINE
  5
29E
100
AcDbEntity
  8
0
100
AcDbLine
 62
7
  6
CONTINUOUS
 10
137.6190890993
 20
230.6998776736
 11
137.7065777628
 21
230.7873663372
  0
LINE
  5
29F
100
AcDbEntity
  8
0
100
AcDbLine
 62
7
  6
CONTINUOUS
 10
136.0113939447
 20
224.6998776736
 11
136.0988826082
 21
224.7873663372
  0
LINE
  5
2A0
100
AcDbEntity
  8
0
100
AcDbLine
 62
7
  6
CONTINUOUS
 10
134.4036987901
 20
218.6998776736
 11
134.4911874536
 21
218.7873663372
  0
LINE
  5
2A1
100
AcDbEntity
  8
0
100
AcDbLine
 62
7
  6
CONTINUOUS
 10
65.2267842539
 20
183.6561333419
 11
94.2267842539
 21
183.6561333419
  0
LINE
  5
2A2
100
AcDbEntity
  8
0
100
AcDbLine
 62
7
  6
CONTINUOUS
 10
105.2267842539
 20
183.6561333419
 11
134.2267842539
 21
183.6561333419
  0
LINE
  5
2A3
100
AcDbEntity
  8
0
100
AcDbLine
 62
7
  6
CONTINUOUS
 10
89.6190890993
 20
230.6998776736
 11
89.5316004358
 21
230.7873663372
  0
LINE
  5
2A4
100
AcDbEntity
  8
0
100
AcDbLine
 62
7
  6
CONTINUOUS
 10
94.0113939448
 20
227.6123890101
 11
94.0988826083
 21
227.5249003466
  0
LINE
  5
2A5
100
AcDbEntity
  8
0
100
AcDbLine
 62
7
  6
CONTINUOUS
 10
91.2267842539
 20
236.6998776736
 11
91.1392955904
 21
236.7873663372
  0
LINE
  5
2A6
100
AcDbEntity
  8
0
100
AcDbLine
 62
7
  6
CONTINUOUS
 10
95.6190890993
 20
233.6123890101
 11
95.7065777628
 21
233.5249003466
  0
LINE
  5
2A7
100
AcDbEntity
  8
0
100
AcDbLine
 62
7
  6
CONTINUOUS
 10
131.5316004358
 20
230.7873663372
 11
131.5316004358
 21
233.5249003466
  0
LINE
  5
2A8
100
AcDbEntity
  8
0
100
AcDbLine
 62
7
  6
CONTINUOUS
 10
131.6190890993
 20
230.6998776736
 11
131.6190890993
 21
233.6123890101
  0
LINE
  5
2A9
100
AcDbEntity
  8
0
100
AcDbLine
 62
7
  6
CONTINUOUS
 10
133.1392955904
 20
236.7873663372
 11
133.1392955904
 21
239.5249003466
  0
LINE
  5
2AA
100
AcDbEntity
  8
0
100
AcDbLine
 62
7
  6
CONTINUOUS
 10
133.2267842539
 20
236.6998776736
 11
133.2267842539
 21
239.6123890101
  0
LINE
  5
2AB
100
AcDbEntity
  8
0
100
AcDbLine
 62
7
  6
CONTINUOUS
 10
134.4036987901
 20
221.6123890101
 11
134.4036987901
 21
218.6998776736
  0
LINE
  5
2AC
100
AcDbEntity
  8
0
100
AcDbLine
 62
7
  6
CONTINUOUS
 10
134.4911874537
 20
221.5249003466
 11
134.4911874537
 21
218.7873663372
  0
LINE
  5
2AD
100
AcDbEntity
  8
0
100
AcDbLine
 62
7
  6
CONTINUOUS
 10
136.0113939447
 20
227.6123890101
 11
136.0113939447
 21
224.6998776736
  0
LINE
  5
2AE
100
AcDbEntity
  8
0
100
AcDbLine
 62
7
  6
CONTINUOUS
 10
136.0988826083
 20
227.5249003466
 11
136.0988826083
 21
224.7873663372
  0
LINE
  5
2AF
100
AcDbEntity
  8
0
100
AcDbLine
 62
7
  6
CONTINUOUS
 10
137.6190890993
 20
233.6123890101
 11
137.6190890993
 21
230.6998776736
  0
LINE
  5
2B0
100
AcDbEntity
  8
0
100
AcDbLine
 62
7
  6
CONTINUOUS
 10
137.7065777628
 20
233.5249003466
 11
137.7065777628
 21
230.7873663372
  0
LINE
  5
2B1
100
AcDbEntity
  8
0
100
AcDbLine
 62
7
  6
CONTINUOUS
 10
139.2267842539
 20
239.6123890101
 11
139.2267842539
 21
236.6998776736
  0
LINE
  5
2B2
100
AcDbEntity
  8
0
100
AcDbLine
 62
7
  6
CONTINUOUS
 10
139.3142729174
 20
239.5249003466
 11
139.3142729174
 21
236.7873663372
  0
LINE
  5
2B3
100
AcDbEntity
  8
0
100
AcDbLine
 62
7
  6
CONTINUOUS
 10
56.7267842539
 20
193.1561333419
 11
33.2267842539
 21
193.1561333419
  0
LINE
  5
2B4
100
AcDbEntity
  8
0
100
AcDbLine
 62
7
  6
CONTINUOUS
 10
245.2267842539
 20
193.1561333419
 11
265.2267842539
 21
193.1561333419
  0
LINE
  5
2B5
100
AcDbEntity
  8
0
100
AcDbLine
 62
7
  6
CONTINUOUS
 10
97.2267842539
 20
239.6123890101
 11
97.3142729174
 21
239.5249003466
  0
LINE
  5
2B6
100
AcDbEntity
  8
0
100
AcDbLine
 62
7
  6
CONTINUOUS
 10
148.0781781312
 20
290.6561333419
 11
148.5089272928
 21
296.8161333419
  0
LINE
  5
2B7
100
AcDbEntity
  8
0
100
AcDbLine
 62
7
  6
CONTINUOUS
 10
200.2889903031
 20
265.6689567563
 11
200.3023350803
 21
265.6823184689
  0
LINE
  5
2B8
100
AcDbEntity
  8
0
100
AcDbLine
 62
7
  6
CONTINUOUS
 10
175.2267842539
 20
239.6123890101
 11
175.1392955904
 21
239.5249003466
  0
LINE
  5
2B9
100
AcDbEntity
  8
0
100
AcDbLine
 62
7
  6
CONTINUOUS
 10
198.6812042317
 20
259.6688835689
 11
198.1813755693
 21
259.1690549064
  0
LINE
  5
2BA
100
AcDbEntity
  8
0
100
AcDbLine
 62
7
  6
CONTINUOUS
 10
173.6190890993
 20
233.6123890101
 11
173.5316004358
 21
233.5249003466
  0
LINE
  5
2BB
100
AcDbEntity
  8
0
100
AcDbLine
 62
7
  6
CONTINUOUS
 10
240.2267842539
 20
203.6561333419
 11
239.7267842539
 21
203.6561333419
  0
LINE
  5
2BC
100
AcDbEntity
  8
0
100
AcDbLine
 62
7
  6
CONTINUOUS
 10
45.2267842539
 20
205.6561333419
 11
33.2267842539
 21
205.6561333419
  0
LINE
  5
2BD
100
AcDbEntity
  8
0
100
AcDbLine
 62
7
  6
CONTINUOUS
 10
45.2267842539
 20
206.1561333419
 11
34.5267842539
 21
206.1561333419
  0
LINE
  5
2BE
100
AcDbEntity
  8
0
100
AcDbLine
 62
7
  6
CONTINUOUS
 10
44.2267192585
 20
207.6561333419
 11
34.2268492493
 21
207.6561333419
  0
LINE
  5
2BF
100
AcDbEntity
  8
0
100
AcDbLine
 62
7
  6
CONTINUOUS
 10
239.7267842539
 20
208.1561333419
 11
230.2267842539
 21
208.1561333419
  0
LINE
  5
2C0
100
AcDbEntity
  8
0
100
AcDbLine
 62
7
  6
CONTINUOUS
 10
230.2267842539
 20
208.6561333419
 11
240.2267842539
 21
208.6561333419
  0
LINE
  5
2C1
100
AcDbEntity
  8
0
100
AcDbLine
 62
7
  6
CONTINUOUS
 10
128.4036987901
 20
218.6998776736
 11
128.3162101266
 21
218.7873663372
  0
LINE
  5
2C2
100
AcDbEntity
  8
0
100
AcDbLine
 62
7
  6
CONTINUOUS
 10
130.0113939447
 20
224.6998776736
 11
129.9239052812
 21
224.7873663372
  0
LINE
  5
2C3
100
AcDbEntity
  8
0
100
AcDbLine
 62
7
  6
CONTINUOUS
 10
134.4036987902
 20
221.6123890101
 11
134.4911874537
 21
221.5249003466
  0
LINE
  5
2C4
100
AcDbEntity
  8
0
100
AcDbLine
 62
7
  6
CONTINUOUS
 10
172.0113939447
 20
227.6123890101
 11
171.9239052812
 21
227.5249003466
  0
LINE
  5
2C5
100
AcDbEntity
  8
0
100
AcDbLine
 62
7
  6
CONTINUOUS
 10
181.2267842539
 20
236.6998776736
 11
181.3142729174
 21
236.7873663372
  0
LINE
  5
2C6
100
AcDbEntity
  8
0
100
AcDbLine
 62
7
  6
CONTINUOUS
 10
170.4036987902
 20
221.6123890101
 11
170.3162101266
 21
221.5249003466
  0
LINE
  5
2C7
100
AcDbEntity
  8
0
100
AcDbLine
 62
7
  6
CONTINUOUS
 10
179.6190890993
 20
230.6998776736
 11
179.7065777629
 21
230.7873663372
  0
LINE
  5
2C8
100
AcDbEntity
  8
0
100
AcDbLine
 62
7
  6
CONTINUOUS
 10
178.0113939447
 20
224.6998776736
 11
178.0988826083
 21
224.7873663372
  0
LINE
  5
2C9
100
AcDbEntity
  8
0
100
AcDbLine
 62
7
  6
CONTINUOUS
 10
253.2267842539
 20
221.6561333419
 11
250.5686703709
 21
221.5786150648
  0
LINE
  5
2CA
100
AcDbEntity
  8
0
100
AcDbLine
 62
7
  6
CONTINUOUS
 10
45.2267842539
 20
212.6561333419
 11
265.2267842539
 21
212.6561333419
  0
LINE
  5
2CB
100
AcDbEntity
  8
0
100
AcDbLine
 62
7
  6
CONTINUOUS
 10
265.2267842539
 20
213.1561333419
 11
45.2267842539
 21
213.1561333419
  0
LINE
  5
2CC
100
AcDbEntity
  8
0
100
AcDbLine
 62
7
  6
CONTINUOUS
 10
34.2268492493
 20
214.3161333419
 11
44.2267192585
 21
214.3161333419
  0
LINE
  5
2CD
100
AcDbEntity
  8
0
100
AcDbLine
 62
7
  6
CONTINUOUS
 10
57.2267842539
 20
218.6561333419
 11
253.2267842539
 21
218.6561333419
  0
LINE
  5
2CE
100
AcDbEntity
  8
0
100
AcDbLine
 62
7
  6
CONTINUOUS
 10
218.4036987902
 20
218.6998776736
 11
212.4036987902
 21
218.6998776736
  0
LINE
  5
2CF
100
AcDbEntity
  8
0
100
AcDbLine
 62
7
  6
CONTINUOUS
 10
176.4036987902
 20
218.6998776736
 11
170.4036987902
 21
218.6998776736
  0
LINE
  5
2D0
100
AcDbEntity
  8
0
100
AcDbLine
 62
7
  6
CONTINUOUS
 10
134.4036987902
 20
218.6998776736
 11
128.4036987901
 21
218.6998776736
  0
LINE
  5
2D1
100
AcDbEntity
  8
0
100
AcDbLine
 62
7
  6
CONTINUOUS
 10
92.4036987902
 20
218.6998776736
 11
86.4036987901
 21
218.6998776736
  0
LINE
  5
2D2
100
AcDbEntity
  8
0
100
AcDbLine
 62
7
  6
CONTINUOUS
 10
250.2267842539
 20
218.7873663372
 11
218.4911874537
 21
218.7873663372
  0
LINE
  5
2D3
100
AcDbEntity
  8
0
100
AcDbLine
 62
7
  6
CONTINUOUS
 10
212.3162101266
 20
218.7873663372
 11
176.4911874537
 21
218.7873663372
  0
LINE
  5
2D4
100
AcDbEntity
  8
0
100
AcDbLine
 62
7
  6
CONTINUOUS
 10
170.3162101266
 20
218.7873663372
 11
134.4911874537
 21
218.7873663372
  0
LINE
  5
2D5
100
AcDbEntity
  8
0
100
AcDbLine
 62
7
  6
CONTINUOUS
 10
128.3162101266
 20
218.7873663372
 11
92.4911874537
 21
218.7873663372
  0
LINE
  5
2D6
100
AcDbEntity
  8
0
100
AcDbLine
 62
7
  6
CONTINUOUS
 10
86.3162101266
 20
218.7873663372
 11
60.2267842539
 21
218.7873663372
  0
LINE
  5
2D7
100
AcDbEntity
  8
0
100
AcDbLine
 62
7
  6
CONTINUOUS
 10
131.6190890993
 20
230.6998776736
 11
131.5316004358
 21
230.7873663372
  0
LINE
  5
2D8
100
AcDbEntity
  8
0
100
AcDbLine
 62
7
  6
CONTINUOUS
 10
136.0113939448
 20
227.6123890101
 11
136.0988826083
 21
227.5249003466
  0
LINE
  5
2D9
100
AcDbEntity
  8
0
100
AcDbLine
 62
7
  6
CONTINUOUS
 10
133.2267842539
 20
236.6998776736
 11
133.1392955904
 21
236.7873663372
  0
LINE
  5
2DA
100
AcDbEntity
  8
0
100
AcDbLine
 62
7
  6
CONTINUOUS
 10
137.6190890993
 20
233.6123890101
 11
137.7065777628
 21
233.5249003466
  0
LINE
  5
2DB
100
AcDbEntity
  8
0
100
AcDbLine
 62
7
  6
CONTINUOUS
 10
176.4036987902
 20
218.6998776736
 11
176.4911874537
 21
218.7873663372
  0
LINE
  5
2DC
100
AcDbEntity
  8
0
100
AcDbLine
 62
7
  6
CONTINUOUS
 10
57.2267842539
 20
218.6561333419
 11
59.8848981369
 21
218.7336516189
  0
LINE
  5
2DD
100
AcDbEntity
  8
0
100
AcDbLine
 62
7
  6
CONTINUOUS
 10
253.2267842539
 20
227.6561333419
 11
250.5686703709
 21
227.5786150648
  0
LINE
  5
2DE
100
AcDbEntity
  8
0
100
AcDbLine
 62
7
  6
CONTINUOUS
 10
57.2267842539
 20
224.6561333419
 11
59.8848981369
 21
224.7336516189
  0
LINE
  5
2DF
100
AcDbEntity
  8
0
100
AcDbLine
 62
7
  6
CONTINUOUS
 10
212.3162101266
 20
221.5249003466
 11
176.4911874537
 21
221.5249003466
  0
LINE
  5
2E0
100
AcDbEntity
  8
0
100
AcDbLine
 62
7
  6
CONTINUOUS
 10
170.3162101266
 20
221.5249003466
 11
134.4911874537
 21
221.5249003466
  0
LINE
  5
2E1
100
AcDbEntity
  8
0
100
AcDbLine
 62
7
  6
CONTINUOUS
 10
128.3162101266
 20
221.5249003466
 11
92.4911874537
 21
221.5249003466
  0
LINE
  5
2E2
100
AcDbEntity
  8
0
100
AcDbLine
 62
7
  6
CONTINUOUS
 10
60.2267842539
 20
221.5249003466
 11
86.3162101266
 21
221.5249003466
  0
LINE
  5
2E3
100
AcDbEntity
  8
0
100
AcDbLine
 62
7
  6
CONTINUOUS
 10
218.4911874537
 20
221.5249003466
 11
250.2267842539
 21
221.5249003466
  0
LINE
  5
2E4
100
AcDbEntity
  8
0
100
AcDbLine
 62
7
  6
CONTINUOUS
 10
218.4036987902
 20
221.6123890101
 11
212.4036987902
 21
221.6123890101
  0
LINE
  5
2E5
100
AcDbEntity
  8
0
100
AcDbLine
 62
7
  6
CONTINUOUS
 10
176.4036987902
 20
221.6123890101
 11
170.4036987902
 21
221.6123890101
  0
LINE
  5
2E6
100
AcDbEntity
  8
0
100
AcDbLine
 62
7
  6
CONTINUOUS
 10
134.4036987901
 20
221.6123890101
 11
128.4036987901
 21
221.6123890101
  0
LINE
  5
2E7
100
AcDbEntity
  8
0
100
AcDbLine
 62
7
  6
CONTINUOUS
 10
92.4036987901
 20
221.6123890101
 11
86.4036987901
 21
221.6123890101
  0
LINE
  5
2E8
100
AcDbEntity
  8
0
100
AcDbLine
 62
7
  6
CONTINUOUS
 10
253.2267842539
 20
221.6561333419
 11
57.2267842539
 21
221.6561333419
  0
LINE
  5
2E9
100
AcDbEntity
  8
0
100
AcDbLine
 62
7
  6
CONTINUOUS
 10
57.2267842539
 20
224.6561333419
 11
253.2267842539
 21
224.6561333419
  0
LINE
  5
2EA
100
AcDbEntity
  8
0
100
AcDbLine
 62
7
  6
CONTINUOUS
 10
220.0113939447
 20
224.6998776736
 11
214.0113939447
 21
224.6998776736
  0
LINE
  5
2EB
100
AcDbEntity
  8
0
100
AcDbLine
 62
7
  6
CONTINUOUS
 10
178.0113939447
 20
224.6998776736
 11
172.0113939447
 21
224.6998776736
  0
LINE
  5
2EC
100
AcDbEntity
  8
0
100
AcDbLine
 62
7
  6
CONTINUOUS
 10
136.0113939448
 20
224.6998776736
 11
130.0113939447
 21
224.6998776736
  0
LINE
  5
2ED
100
AcDbEntity
  8
0
100
AcDbLine
 62
7
  6
CONTINUOUS
 10
94.0113939448
 20
224.6998776736
 11
88.0113939447
 21
224.6998776736
  0
LINE
  5
2EE
100
AcDbEntity
  8
0
100
AcDbLine
 62
7
  6
CONTINUOUS
 10
250.2267842539
 20
224.7873663372
 11
220.0988826083
 21
224.7873663372
  0
LINE
  5
2EF
100
AcDbEntity
  8
0
100
AcDbLine
 62
7
  6
CONTINUOUS
 10
213.9239052812
 20
224.7873663372
 11
178.0988826083
 21
224.7873663372
  0
LINE
  5
2F0
100
AcDbEntity
  8
0
100
AcDbLine
 62
7
  6
CONTINUOUS
 10
171.9239052812
 20
224.7873663372
 11
136.0988826083
 21
224.7873663372
  0
LINE
  5
2F1
100
AcDbEntity
  8
0
100
AcDbLine
 62
7
  6
CONTINUOUS
 10
129.9239052812
 20
224.7873663372
 11
94.0988826083
 21
224.7873663372
  0
LINE
  5
2F2
100
AcDbEntity
  8
0
100
AcDbLine
 62
7
  6
CONTINUOUS
 10
87.9239052812
 20
224.7873663372
 11
60.2267842539
 21
224.7873663372
  0
LINE
  5
2F3
100
AcDbEntity
  8
0
100
AcDbLine
 62
7
  6
CONTINUOUS
 10
250.2267842539
 20
227.5249003466
 11
220.0988826083
 21
227.5249003466
  0
LINE
  5
2F4
100
AcDbEntity
  8
0
100
AcDbLine
 62
7
  6
CONTINUOUS
 10
213.9239052812
 20
227.5249003466
 11
178.0988826083
 21
227.5249003466
  0
LINE
  5
2F5
100
AcDbEntity
  8
0
100
AcDbLine
 62
7
  6
CONTINUOUS
 10
171.9239052812
 20
227.5249003466
 11
136.0988826083
 21
227.5249003466
  0
LINE
  5
2F6
100
AcDbEntity
  8
0
100
AcDbLine
 62
7
  6
CONTINUOUS
 10
129.9239052812
 20
227.5249003466
 11
94.0988826083
 21
227.5249003466
  0
LINE
  5
2F7
100
AcDbEntity
  8
0
100
AcDbLine
 62
7
  6
CONTINUOUS
 10
87.9239052812
 20
227.5249003466
 11
60.2267842539
 21
227.5249003466
  0
LINE
  5
2F8
100
AcDbEntity
  8
0
100
AcDbLine
 62
7
  6
CONTINUOUS
 10
220.0113939447
 20
227.6123890101
 11
214.0113939447
 21
227.6123890101
  0
LINE
  5
2F9
100
AcDbEntity
  8
0
100
AcDbLine
 62
7
  6
CONTINUOUS
 10
178.0113939447
 20
227.6123890101
 11
172.0113939447
 21
227.6123890101
  0
LINE
  5
2FA
100
AcDbEntity
  8
0
100
AcDbLine
 62
7
  6
CONTINUOUS
 10
136.0113939447
 20
227.6123890101
 11
130.0113939447
 21
227.6123890101
  0
LINE
  5
2FB
100
AcDbEntity
  8
0
100
AcDbLine
 62
7
  6
CONTINUOUS
 10
94.0113939447
 20
227.6123890101
 11
88.0113939447
 21
227.6123890101
  0
LINE
  5
2FC
100
AcDbEntity
  8
0
100
AcDbLine
 62
7
  6
CONTINUOUS
 10
253.2267842539
 20
227.6561333419
 11
57.2267842539
 21
227.6561333419
  0
LINE
  5
2FD
100
AcDbEntity
  8
0
100
AcDbLine
 62
7
  6
CONTINUOUS
 10
59.8848981369
 20
221.5786150648
 11
57.2267842539
 21
221.6561333419
  0
LINE
  5
2FE
100
AcDbEntity
  8
0
100
AcDbLine
 62
7
  6
CONTINUOUS
 10
250.5686703709
 20
218.7336516189
 11
253.2267842539
 21
218.6561333419
  0
LINE
  5
2FF
100
AcDbEntity
  8
0
100
AcDbLine
 62
7
  6
CONTINUOUS
 10
59.8848981369
 20
227.5786150648
 11
57.2267842539
 21
227.6561333419
  0
LINE
  5
300
100
AcDbEntity
  8
0
100
AcDbLine
 62
7
  6
CONTINUOUS
 10
250.5686703709
 20
224.7336516189
 11
253.2267842539
 21
224.6561333419
  0
LINE
  5
301
100
AcDbEntity
  8
0
100
AcDbLine
 62
7
  6
CONTINUOUS
 10
139.2267842539
 20
239.6123890101
 11
139.3142729174
 21
239.5249003466
  0
LINE
  5
302
100
AcDbEntity
  8
0
100
AcDbLine
 62
7
  6
CONTINUOUS
 10
170.3753903766
 20
290.6561333419
 11
169.944641215
 21
296.8161333419
  0
LINE
  5
303
100
AcDbEntity
  8
0
100
AcDbLine
 62
7
  6
CONTINUOUS
 10
170.3162101266
 20
218.7873663372
 11
170.3162101266
 21
221.5249003466
  0
LINE
  5
304
100
AcDbEntity
  8
0
100
AcDbLine
 62
7
  6
CONTINUOUS
 10
170.4036987902
 20
218.6998776736
 11
170.4036987902
 21
221.6123890101
  0
LINE
  5
305
100
AcDbEntity
  8
0
100
AcDbLine
 62
7
  6
CONTINUOUS
 10
171.9239052812
 20
224.7873663372
 11
171.9239052812
 21
227.5249003466
  0
LINE
  5
306
100
AcDbEntity
  8
0
100
AcDbLine
 62
7
  6
CONTINUOUS
 10
172.0113939447
 20
224.6998776736
 11
172.0113939447
 21
227.6123890101
  0
LINE
  5
307
100
AcDbEntity
  8
0
100
AcDbLine
 62
7
  6
CONTINUOUS
 10
173.5316004358
 20
230.7873663372
 11
173.5316004358
 21
233.5249003466
  0
LINE
  5
308
100
AcDbEntity
  8
0
100
AcDbLine
 62
7
  6
CONTINUOUS
 10
173.6190890993
 20
230.6998776736
 11
173.6190890993
 21
233.6123890101
  0
LINE
  5
309
100
AcDbEntity
  8
0
100
AcDbLine
 62
7
  6
CONTINUOUS
 10
175.1392955904
 20
236.7873663372
 11
175.1392955904
 21
239.5249003466
  0
LINE
  5
30A
100
AcDbEntity
  8
0
100
AcDbLine
 62
7
  6
CONTINUOUS
 10
175.2267842539
 20
236.6998776736
 11
175.2267842539
 21
239.6123890101
  0
LINE
  5
30B
100
AcDbEntity
  8
0
100
AcDbLine
 62
7
  6
CONTINUOUS
 10
176.4036987902
 20
221.6123890101
 11
176.4036987902
 21
218.6998776736
  0
LINE
  5
30C
100
AcDbEntity
  8
0
100
AcDbLine
 62
7
  6
CONTINUOUS
 10
176.4911874537
 20
221.5249003466
 11
176.4911874537
 21
218.7873663372
  0
LINE
  5
30D
100
AcDbEntity
  8
0
100
AcDbLine
 62
7
  6
CONTINUOUS
 10
178.0113939447
 20
227.6123890101
 11
178.0113939447
 21
224.6998776736
  0
LINE
  5
30E
100
AcDbEntity
  8
0
100
AcDbLine
 62
7
  6
CONTINUOUS
 10
178.0988826083
 20
227.5249003466
 11
178.0988826083
 21
224.7873663372
  0
LINE
  5
30F
100
AcDbEntity
  8
0
100
AcDbLine
 62
7
  6
CONTINUOUS
 10
179.6190890993
 20
233.6123890101
 11
179.6190890993
 21
230.6998776736
  0
LINE
  5
310
100
AcDbEntity
  8
0
100
AcDbLine
 62
7
  6
CONTINUOUS
 10
179.7065777629
 20
233.5249003466
 11
179.7065777629
 21
230.7873663372
  0
LINE
  5
311
100
AcDbEntity
  8
0
100
AcDbLine
 62
7
  6
CONTINUOUS
 10
217.2267842539
 20
239.6123890101
 11
217.1392955904
 21
239.5249003466
  0
LINE
  5
312
100
AcDbEntity
  8
0
100
AcDbLine
 62
7
  6
CONTINUOUS
 10
215.6190890993
 20
233.6123890101
 11
215.5316004358
 21
233.5249003466
  0
LINE
  5
313
100
AcDbEntity
  8
0
100
AcDbLine
 62
7
  6
CONTINUOUS
 10
54.7018522728
 20
230.1561333419
 11
54.9205739316
 21
230.1675960583
  0
LINE
  5
314
100
AcDbEntity
  8
0
100
AcDbLine
 62
7
  6
CONTINUOUS
 10
253.2267842539
 20
233.6561333419
 11
250.5686703709
 21
233.5786150648
  0
LINE
  5
315
100
AcDbEntity
  8
0
100
AcDbLine
 62
7
  6
CONTINUOUS
 10
57.2267842539
 20
230.6561333419
 11
59.8848981369
 21
230.7336516189
  0
LINE
  5
316
100
AcDbEntity
  8
0
100
AcDbLine
 62
7
  6
CONTINUOUS
 10
253.2267842539
 20
239.6561333419
 11
250.5686703709
 21
239.5786150648
  0
LINE
  5
317
100
AcDbEntity
  8
0
100
AcDbLine
 62
7
  6
CONTINUOUS
 10
57.2267842539
 20
230.6561333419
 11
253.2267842539
 21
230.6561333419
  0
LINE
  5
318
100
AcDbEntity
  8
0
100
AcDbLine
 62
7
  6
CONTINUOUS
 10
221.6190890993
 20
230.6998776736
 11
215.6190890993
 21
230.6998776736
  0
LINE
  5
319
100
AcDbEntity
  8
0
100
AcDbLine
 62
7
  6
CONTINUOUS
 10
179.6190890993
 20
230.6998776736
 11
173.6190890993
 21
230.6998776736
  0
LINE
  5
31A
100
AcDbEntity
  8
0
100
AcDbLine
 62
7
  6
CONTINUOUS
 10
137.6190890993
 20
230.6998776736
 11
131.6190890993
 21
230.6998776736
  0
LINE
  5
31B
100
AcDbEntity
  8
0
100
AcDbLine
 62
7
  6
CONTINUOUS
 10
95.6190890993
 20
230.6998776736
 11
89.6190890993
 21
230.6998776736
  0
LINE
  5
31C
100
AcDbEntity
  8
0
100
AcDbLine
 62
7
  6
CONTINUOUS
 10
250.2267842539
 20
230.7873663372
 11
221.7065777629
 21
230.7873663372
  0
LINE
  5
31D
100
AcDbEntity
  8
0
100
AcDbLine
 62
7
  6
CONTINUOUS
 10
215.5316004358
 20
230.7873663372
 11
179.7065777629
 21
230.7873663372
  0
LINE
  5
31E
100
AcDbEntity
  8
0
100
AcDbLine
 62
7
  6
CONTINUOUS
 10
173.5316004358
 20
230.7873663372
 11
137.7065777628
 21
230.7873663372
  0
LINE
  5
31F
100
AcDbEntity
  8
0
100
AcDbLine
 62
7
  6
CONTINUOUS
 10
131.5316004358
 20
230.7873663372
 11
95.7065777628
 21
230.7873663372
  0
LINE
  5
320
100
AcDbEntity
  8
0
100
AcDbLine
 62
7
  6
CONTINUOUS
 10
89.5316004358
 20
230.7873663372
 11
60.2267842539
 21
230.7873663372
  0
LINE
  5
321
100
AcDbEntity
  8
0
100
AcDbLine
 62
7
  6
CONTINUOUS
 10
250.2267842539
 20
233.5249003466
 11
221.7065777629
 21
233.5249003466
  0
LINE
  5
322
100
AcDbEntity
  8
0
100
AcDbLine
 62
7
  6
CONTINUOUS
 10
215.5316004358
 20
233.5249003466
 11
179.7065777629
 21
233.5249003466
  0
LINE
  5
323
100
AcDbEntity
  8
0
100
AcDbLine
 62
7
  6
CONTINUOUS
 10
173.5316004358
 20
233.5249003466
 11
137.7065777628
 21
233.5249003466
  0
LINE
  5
324
100
AcDbEntity
  8
0
100
AcDbLine
 62
7
  6
CONTINUOUS
 10
131.5316004358
 20
233.5249003466
 11
95.7065777628
 21
233.5249003466
  0
LINE
  5
325
100
AcDbEntity
  8
0
100
AcDbLine
 62
7
  6
CONTINUOUS
 10
89.5316004358
 20
233.5249003466
 11
60.2267842539
 21
233.5249003466
  0
LINE
  5
326
100
AcDbEntity
  8
0
100
AcDbLine
 62
7
  6
CONTINUOUS
 10
221.6190890993
 20
233.6123890101
 11
215.6190890993
 21
233.6123890101
  0
LINE
  5
327
100
AcDbEntity
  8
0
100
AcDbLine
 62
7
  6
CONTINUOUS
 10
179.6190890993
 20
233.6123890101
 11
173.6190890993
 21
233.6123890101
  0
LINE
  5
328
100
AcDbEntity
  8
0
100
AcDbLine
 62
7
  6
CONTINUOUS
 10
137.6190890993
 20
233.6123890101
 11
131.6190890993
 21
233.6123890101
  0
LINE
  5
329
100
AcDbEntity
  8
0
100
AcDbLine
 62
7
  6
CONTINUOUS
 10
95.6190890993
 20
233.6123890101
 11
89.6190890993
 21
233.6123890101
  0
LINE
  5
32A
100
AcDbEntity
  8
0
100
AcDbLine
 62
7
  6
CONTINUOUS
 10
253.2267842539
 20
233.6561333419
 11
57.2267842539
 21
233.6561333419
  0
LINE
  5
32B
100
AcDbEntity
  8
0
100
AcDbLine
 62
7
  6
CONTINUOUS
 10
57.2267842539
 20
236.6561333419
 11
253.2267842539
 21
236.6561333419
  0
LINE
  5
32C
100
AcDbEntity
  8
0
100
AcDbLine
 62
7
  6
CONTINUOUS
 10
223.2267842539
 20
236.6998776736
 11
217.2267842539
 21
236.6998776736
  0
LINE
  5
32D
100
AcDbEntity
  8
0
100
AcDbLine
 62
7
  6
CONTINUOUS
 10
181.2267842539
 20
236.6998776736
 11
175.2267842539
 21
236.6998776736
  0
LINE
  5
32E
100
AcDbEntity
  8
0
100
AcDbLine
 62
7
  6
CONTINUOUS
 10
139.2267842539
 20
236.6998776736
 11
133.2267842539
 21
236.6998776736
  0
LINE
  5
32F
100
AcDbEntity
  8
0
100
AcDbLine
 62
7
  6
CONTINUOUS
 10
97.2267842539
 20
236.6998776736
 11
91.2267842539
 21
236.6998776736
  0
LINE
  5
330
100
AcDbEntity
  8
0
100
AcDbLine
 62
7
  6
CONTINUOUS
 10
250.2267842539
 20
236.7873663372
 11
223.3142729174
 21
236.7873663372
  0
LINE
  5
331
100
AcDbEntity
  8
0
100
AcDbLine
 62
7
  6
CONTINUOUS
 10
217.1392955904
 20
236.7873663372
 11
181.3142729174
 21
236.7873663372
  0
LINE
  5
332
100
AcDbEntity
  8
0
100
AcDbLine
 62
7
  6
CONTINUOUS
 10
175.1392955904
 20
236.7873663372
 11
139.3142729174
 21
236.7873663372
  0
LINE
  5
333
100
AcDbEntity
  8
0
100
AcDbLine
 62
7
  6
CONTINUOUS
 10
133.1392955904
 20
236.7873663372
 11
97.3142729174
 21
236.7873663372
  0
LINE
  5
334
100
AcDbEntity
  8
0
100
AcDbLine
 62
7
  6
CONTINUOUS
 10
91.1392955904
 20
236.7873663372
 11
60.2267842539
 21
236.7873663372
  0
LINE
  5
335
100
AcDbEntity
  8
0
100
AcDbLine
 62
7
  6
CONTINUOUS
 10
59.8848981369
 20
233.5786150648
 11
57.2267842539
 21
233.6561333419
  0
LINE
  5
336
100
AcDbEntity
  8
0
100
AcDbLine
 62
7
  6
CONTINUOUS
 10
250.5686703709
 20
230.7336516189
 11
253.2267842539
 21
230.6561333419
  0
LINE
  5
337
100
AcDbEntity
  8
0
100
AcDbLine
 62
7
  6
CONTINUOUS
 10
59.8848981369
 20
239.5786150648
 11
57.2267842539
 21
239.6561333419
  0
LINE
  5
338
100
AcDbEntity
  8
0
100
AcDbLine
 62
7
  6
CONTINUOUS
 10
54.9205739316
 20
238.1446706254
 11
54.7018522727
 21
238.1561333419
  0
LINE
  5
339
100
AcDbEntity
  8
0
100
AcDbLine
 62
7
  6
CONTINUOUS
 10
170.4036987902
 20
218.6998776736
 11
170.3162101266
 21
218.7873663372
  0
LINE
  5
33A
100
AcDbEntity
  8
0
100
AcDbLine
 62
7
  6
CONTINUOUS
 10
172.0113939447
 20
224.6998776736
 11
171.9239052812
 21
224.7873663372
  0
LINE
  5
33B
100
AcDbEntity
  8
0
100
AcDbLine
 62
7
  6
CONTINUOUS
 10
176.4036987902
 20
221.6123890101
 11
176.4911874537
 21
221.5249003466
  0
LINE
  5
33C
100
AcDbEntity
  8
0
100
AcDbLine
 62
7
  6
CONTINUOUS
 10
181.2267842539
 20
239.6123890101
 11
181.2267842539
 21
236.6998776736
  0
LINE
  5
33D
100
AcDbEntity
  8
0
100
AcDbLine
 62
7
  6
CONTINUOUS
 10
181.3142729174
 20
239.5249003466
 11
181.3142729174
 21
236.7873663372
  0
LINE
  5
33E
100
AcDbEntity
  8
0
100
AcDbLine
 62
7
  6
CONTINUOUS
 10
214.0113939447
 20
227.6123890101
 11
213.9239052812
 21
227.5249003466
  0
LINE
  5
33F
100
AcDbEntity
  8
0
100
AcDbLine
 62
7
  6
CONTINUOUS
 10
223.2267842539
 20
236.6998776736
 11
223.3142729174
 21
236.7873663372
  0
LINE
  5
340
100
AcDbEntity
  8
0
100
AcDbLine
 62
7
  6
CONTINUOUS
 10
249.7138626894
 20
263.1432117773
 11
249.2140340269
 21
262.6433831148
  0
LINE
  5
341
100
AcDbEntity
  8
0
100
AcDbLine
 62
7
  6
CONTINUOUS
 10
212.4036987902
 20
221.6123890101
 11
212.3162101266
 21
221.5249003466
  0
LINE
  5
342
100
AcDbEntity
  8
0
100
AcDbLine
 62
7
  6
CONTINUOUS
 10
221.6190890993
 20
230.6998776736
 11
221.7065777629
 21
230.7873663372
  0
LINE
  5
343
100
AcDbEntity
  8
0
100
AcDbLine
 62
7
  6
CONTINUOUS
 10
220.0113939447
 20
224.6998776736
 11
220.0988826083
 21
224.7873663372
  0
LINE
  5
344
100
AcDbEntity
  8
0
100
AcDbLine
 62
7
  6
CONTINUOUS
 10
57.2267842539
 20
236.6561333419
 11
59.8848981369
 21
236.7336516189
  0
LINE
  5
345
100
AcDbEntity
  8
0
100
AcDbLine
 62
7
  6
CONTINUOUS
 10
250.2267842539
 20
239.5249003466
 11
223.3142729174
 21
239.5249003466
  0
LINE
  5
346
100
AcDbEntity
  8
0
100
AcDbLine
 62
7
  6
CONTINUOUS
 10
217.1392955904
 20
239.5249003466
 11
181.3142729174
 21
239.5249003466
  0
LINE
  5
347
100
AcDbEntity
  8
0
100
AcDbLine
 62
7
  6
CONTINUOUS
 10
175.1392955904
 20
239.5249003466
 11
139.3142729174
 21
239.5249003466
  0
LINE
  5
348
100
AcDbEntity
  8
0
100
AcDbLine
 62
7
  6
CONTINUOUS
 10
133.1392955904
 20
239.5249003466
 11
97.3142729174
 21
239.5249003466
  0
LINE
  5
349
100
AcDbEntity
  8
0
100
AcDbLine
 62
7
  6
CONTINUOUS
 10
91.1392955904
 20
239.5249003466
 11
60.2267842539
 21
239.5249003466
  0
LINE
  5
34A
100
AcDbEntity
  8
0
100
AcDbLine
 62
7
  6
CONTINUOUS
 10
223.2267842539
 20
239.6123890101
 11
217.2267842539
 21
239.6123890101
  0
LINE
  5
34B
100
AcDbEntity
  8
0
100
AcDbLine
 62
7
  6
CONTINUOUS
 10
181.2267842539
 20
239.6123890101
 11
175.2267842539
 21
239.6123890101
  0
LINE
  5
34C
100
AcDbEntity
  8
0
100
AcDbLine
 62
7
  6
CONTINUOUS
 10
139.2267842539
 20
239.6123890101
 11
133.2267842539
 21
239.6123890101
  0
LINE
  5
34D
100
AcDbEntity
  8
0
100
AcDbLine
 62
7
  6
CONTINUOUS
 10
97.2267842539
 20
239.6123890101
 11
91.2267842539
 21
239.6123890101
  0
LINE
  5
34E
100
AcDbEntity
  8
0
100
AcDbLine
 62
7
  6
CONTINUOUS
 10
253.2267842539
 20
239.6561333419
 11
57.2267842539
 21
239.6561333419
  0
LINE
  5
34F
100
AcDbEntity
  8
0
100
AcDbLine
 62
7
  6
CONTINUOUS
 10
54.68435454
 20
242.3561333419
 11
56.2267842539
 21
242.3561333419
  0
LINE
  5
350
100
AcDbEntity
  8
0
100
AcDbLine
 62
7
  6
CONTINUOUS
 10
250.5686703709
 20
236.7336516189
 11
253.2267842539
 21
236.6561333419
  0
LINE
  5
351
100
AcDbEntity
  8
0
100
AcDbLine
 62
7
  6
CONTINUOUS
 10
173.6190890993
 20
230.6998776736
 11
173.5316004358
 21
230.7873663372
  0
LINE
  5
352
100
AcDbEntity
  8
0
100
AcDbLine
 62
7
  6
CONTINUOUS
 10
178.0113939447
 20
227.6123890101
 11
178.0988826083
 21
227.5249003466
  0
LINE
  5
353
100
AcDbEntity
  8
0
100
AcDbLine
 62
7
  6
CONTINUOUS
 10
175.2267842539
 20
236.6998776736
 11
175.1392955904
 21
236.7873663372
  0
LINE
  5
354
100
AcDbEntity
  8
0
100
AcDbLine
 62
7
  6
CONTINUOUS
 10
179.6190890993
 20
233.6123890101
 11
179.7065777629
 21
233.5249003466
  0
LINE
  5
355
100
AcDbEntity
  8
0
100
AcDbLine
 62
7
  6
CONTINUOUS
 10
194.2267842539
 20
269.1561333419
 11
194.2267842539
 21
290.6561333419
  0
LINE
  5
356
100
AcDbEntity
  8
0
100
AcDbLine
 62
7
  6
CONTINUOUS
 10
194.6688853474
 20
269.1561334594
 11
194.6688853474
 21
285.6561333426
  0
LINE
  5
357
100
AcDbEntity
  8
0
100
AcDbLine
 62
7
  6
CONTINUOUS
 10
194.9287048104
 20
288.1923686241
 11
194.9287048104
 21
288.6561333419
  0
LINE
  5
358
100
AcDbEntity
  8
0
100
AcDbLine
 62
7
  6
CONTINUOUS
 10
196.8924730819
 20
287.6561333411
 11
196.8924730819
 21
288.6561333419
  0
LINE
  5
359
100
AcDbEntity
  8
0
100
AcDbLine
 62
7
  6
CONTINUOUS
 10
198.1813755693
 20
263.1432117773
 11
198.1813755693
 21
259.1690549064
  0
LINE
  5
35A
100
AcDbEntity
  8
0
100
AcDbLine
 62
7
  6
CONTINUOUS
 10
198.6812042317
 20
259.6688835689
 11
198.6812958329
 21
262.643309549
  0
LINE
  5
35B
100
AcDbEntity
  8
0
100
AcDbLine
 62
7
  6
CONTINUOUS
 10
194.2464384218
 20
269.1561333419
 11
194.6688853473
 21
281.2534318423
  0
LINE
  5
35C
100
AcDbEntity
  8
0
100
AcDbLine
 62
7
  6
CONTINUOUS
 10
194.8401306238
 20
285.6561334655
 11
194.9287029675
 21
288.1923704767
  0
LINE
  5
35D
100
AcDbEntity
  8
0
100
AcDbLine
 62
7
  6
CONTINUOUS
 10
195.2458292488
 20
269.1561333419
 11
195.893082224
 21
287.691033477
  0
LINE
  5
35E
100
AcDbEntity
  8
0
100
AcDbLine
 62
7
  6
CONTINUOUS
 10
196.892473076
 20
287.6561333406
 11
196.2289784419
 21
268.6561333419
  0
LINE
  5
35F
100
AcDbEntity
  8
0
100
AcDbLine
 62
7
  6
CONTINUOUS
 10
218.4036987902
 20
218.6998776736
 11
218.4911874537
 21
218.7873663372
  0
LINE
  5
360
100
AcDbEntity
  8
0
100
AcDbLine
 62
7
  6
CONTINUOUS
 10
265.2268806906
 20
256.1561334747
 11
265.6266878172
 21
256.1666075777
  0
LINE
  5
361
100
AcDbEntity
  8
0
100
AcDbLine
 62
7
  6
CONTINUOUS
 10
55.2267842539
 20
249.1561333419
 11
54.68435454
 21
249.1561333419
  0
LINE
  5
362
100
AcDbEntity
  8
0
100
AcDbLine
 62
7
  6
CONTINUOUS
 10
45.2267842539
 20
252.1561333419
 11
265.2267842539
 21
252.1561333419
  0
LINE
  5
363
100
AcDbEntity
  8
0
100
AcDbLine
 62
7
  6
CONTINUOUS
 10
265.2267842539
 20
252.6561333419
 11
80.9727808147
 21
252.6561333419
  0
LINE
  5
364
100
AcDbEntity
  8
0
100
AcDbLine
 62
7
  6
CONTINUOUS
 10
80.5539791111
 20
252.6561333419
 11
45.2267844422
 21
252.6561333419
  0
LINE
  5
365
100
AcDbEntity
  8
0
100
AcDbLine
 62
7
  6
CONTINUOUS
 10
81.025182245
 20
254.6561333419
 11
80.588889241
 21
254.6561333419
  0
LINE
  5
366
100
AcDbEntity
  8
0
100
AcDbLine
 62
7
  6
CONTINUOUS
 10
181.2267842539
 20
239.6123890101
 11
181.3142729174
 21
239.5249003466
  0
LINE
  5
367
100
AcDbEntity
  8
0
100
AcDbLine
 62
7
  6
CONTINUOUS
 10
199.7890707238
 20
269.1432117773
 11
199.7890707238
 21
265.1690549064
  0
LINE
  5
368
100
AcDbEntity
  8
0
100
AcDbLine
 62
7
  6
CONTINUOUS
 10
200.2889903031
 20
265.6689567563
 11
200.288990305
 21
268.6433099324
  0
LINE
  5
369
100
AcDbEntity
  8
0
100
AcDbLine
 62
7
  6
CONTINUOUS
 10
200.3023350803
 20
265.6823184689
 11
200.3023350803
 21
268.6299482309
  0
LINE
  5
36A
100
AcDbEntity
  8
0
100
AcDbLine
 62
7
  6
CONTINUOUS
 10
201.3967658784
 20
275.1432117773
 11
201.3967658784
 21
271.1690549064
  0
LINE
  5
36B
100
AcDbEntity
  8
0
100
AcDbLine
 62
7
  6
CONTINUOUS
 10
201.8966854574
 20
271.6689567554
 11
201.8966854575
 21
274.6433099315
  0
LINE
  5
36C
100
AcDbEntity
  8
0
100
AcDbLine
 62
7
  6
CONTINUOUS
 10
203.004461033
 20
281.1432117773
 11
203.004461033
 21
277.1690549064
  0
LINE
  5
36D
100
AcDbEntity
  8
0
100
AcDbLine
 62
7
  6
CONTINUOUS
 10
203.5043201817
 20
277.668912032
 11
203.5043201818
 21
280.6433546529
  0
LWPOLYLINE
  5
36E
100
AcDbEntity
  8
0
100
AcDbPolyline
 62
7
  6
CONTINUOUS
 90
3
 70
0
 10
57.0594468274
 20
260.2227852686
 10
55.9404090993
 20
260.1519755923
 10
55.0670572058
 20
260.0965048379
  0
LINE
  5
36F
100
AcDbEntity
  8
0
100
AcDbLine
 62
7
  6
CONTINUOUS
 10
57.0594468274
 20
260.2227852686
 11
55.0670572058
 21
260.0965048379
  0
LINE
  5
370
100
AcDbEntity
  8
0
100
AcDbLine
 62
7
  6
CONTINUOUS
 10
45.2267843357
 20
258.8003324088
 11
46.1396281077
 21
258.8003324088
  0
LINE
  5
371
100
AcDbEntity
  8
0
100
AcDbLine
 62
7
  6
CONTINUOUS
 10
198.1813755693
 20
259.1690549064
 11
249.7138626894
 21
259.1690549064
  0
LINE
  5
372
100
AcDbEntity
  8
0
100
AcDbLine
 62
7
  6
CONTINUOUS
 10
229.1885681595
 20
259.6690549064
 11
198.6812042317
 21
259.6688835689
  0
LINE
  5
373
100
AcDbEntity
  8
0
100
AcDbLine
 62
7
  6
CONTINUOUS
 10
249.2135168226
 20
259.6688835689
 11
229.1650854273
 21
259.6689788439
  0
LINE
  5
374
100
AcDbEntity
  8
0
100
AcDbLine
 62
7
  6
CONTINUOUS
 10
80.7110746955
 20
261.6561333419
 11
80.8465041076
 21
261.6561333419
  0
LINE
  5
375
100
AcDbEntity
  8
0
100
AcDbLine
 62
7
  6
CONTINUOUS
 10
198.6817214331
 20
262.6433831148
 11
249.2140340269
 21
262.6433831148
  0
LINE
  5
376
100
AcDbEntity
  8
0
100
AcDbLine
 62
7
  6
CONTINUOUS
 10
249.7138626894
 20
263.1432117773
 11
198.1813755693
 21
263.1432117773
  0
LINE
  5
377
100
AcDbEntity
  8
0
100
AcDbLine
 62
7
  6
CONTINUOUS
 10
199.7890707238
 20
265.1690549064
 11
249.7138626894
 21
265.1690549064
  0
LINE
  5
378
100
AcDbEntity
  8
0
100
AcDbLine
 62
7
  6
CONTINUOUS
 10
230.7963434371
 20
265.6690549064
 11
200.2894139815
 21
265.6688835708
  0
LINE
  5
379
100
AcDbEntity
  8
0
100
AcDbLine
 62
7
  6
CONTINUOUS
 10
249.2135211314
 20
265.6688835689
 11
230.7728469786
 21
265.6689770243
  0
LINE
  5
37A
100
AcDbEntity
  8
0
100
AcDbLine
 62
7
  6
CONTINUOUS
 10
225.245507627
 20
265.6823192588
 11
200.3023350803
 21
265.6823192623
  0
LINE
  5
37B
100
AcDbEntity
  8
0
100
AcDbLine
 62
7
  6
CONTINUOUS
 10
80.846863701
 20
260.9660819117
 11
81.1902718014
 21
260.9570894541
  0
LINE
  5
37C
100
AcDbEntity
  8
0
100
AcDbLine
 62
7
  6
CONTINUOUS
 10
212.4036987902
 20
218.6998776736
 11
212.3162101266
 21
218.7873663372
  0
LINE
  5
37D
100
AcDbEntity
  8
0
100
AcDbLine
 62
7
  6
CONTINUOUS
 10
214.0113939447
 20
224.6998776736
 11
213.9239052812
 21
224.7873663372
  0
LINE
  5
37E
100
AcDbEntity
  8
0
100
AcDbLine
 62
7
  6
CONTINUOUS
 10
218.4036987902
 20
221.6123890101
 11
218.4911874537
 21
221.5249003466
  0
LINE
  5
37F
100
AcDbEntity
  8
0
100
AcDbLine
 62
7
  6
CONTINUOUS
 10
212.3162101266
 20
218.7873663372
 11
212.3162101266
 21
221.5249003466
  0
LINE
  5
380
100
AcDbEntity
  8
0
100
AcDbLine
 62
7
  6
CONTINUOUS
 10
212.4036987902
 20
218.6998776736
 11
212.4036987902
 21
221.6123890101
  0
LINE
  5
381
100
AcDbEntity
  8
0
100
AcDbLine
 62
7
  6
CONTINUOUS
 10
213.9239052812
 20
224.7873663372
 11
213.9239052812
 21
227.5249003466
  0
LINE
  5
382
100
AcDbEntity
  8
0
100
AcDbLine
 62
7
  6
CONTINUOUS
 10
214.0113939447
 20
224.6998776736
 11
214.0113939447
 21
227.6123890101
  0
LINE
  5
383
100
AcDbEntity
  8
0
100
AcDbLine
 62
7
  6
CONTINUOUS
 10
215.5316004358
 20
230.7873663372
 11
215.5316004358
 21
233.5249003466
  0
LINE
  5
384
100
AcDbEntity
  8
0
100
AcDbLine
 62
7
  6
CONTINUOUS
 10
215.6190890993
 20
230.6998776736
 11
215.6190890993
 21
233.6123890101
  0
LINE
  5
385
100
AcDbEntity
  8
0
100
AcDbLine
 62
7
  6
CONTINUOUS
 10
217.1392955904
 20
236.7873663372
 11
217.1392955904
 21
239.5249003466
  0
LINE
  5
386
100
AcDbEntity
  8
0
100
AcDbLine
 62
7
  6
CONTINUOUS
 10
217.2267842539
 20
236.6998776736
 11
217.2267842539
 21
239.6123890101
  0
LINE
  5
387
100
AcDbEntity
  8
0
100
AcDbLine
 62
7
  6
CONTINUOUS
 10
218.4036987902
 20
221.6123890101
 11
218.4036987902
 21
218.6998776736
  0
LINE
  5
388
100
AcDbEntity
  8
0
100
AcDbLine
 62
7
  6
CONTINUOUS
 10
218.4911874537
 20
221.5249003466
 11
218.4911874537
 21
218.7873663372
  0
LINE
  5
389
100
AcDbEntity
  8
0
100
AcDbLine
 62
7
  6
CONTINUOUS
 10
55.0670582852
 20
260.0965144338
 11
54.3180750671
 21
260.0010047293
  0
LINE
  5
38A
100
AcDbEntity
  8
0
100
AcDbLine
 62
7
  6
CONTINUOUS
 10
109.2529701755
 20
267.9561333419
 11
103.2005983323
 21
267.9561333419
  0
LINE
  5
38B
100
AcDbEntity
  8
0
100
AcDbLine
 62
7
  6
CONTINUOUS
 10
200.3023350803
 20
268.6299474214
 11
225.2455015331
 21
268.629947425
  0
LINE
  5
38C
100
AcDbEntity
  8
0
100
AcDbLine
 62
7
  6
CONTINUOUS
 10
200.2894151547
 20
268.6433831148
 11
249.213519431
 21
268.6433831122
  0
LINE
  5
38D
100
AcDbEntity
  8
0
100
AcDbLine
 62
7
  6
CONTINUOUS
 10
196.2289784419
 20
268.6561333419
 11
194.7630532386
 21
268.6561333419
  0
LINE
  5
38E
100
AcDbEntity
  8
0
100
AcDbLine
 62
7
  6
CONTINUOUS
 10
249.7138626894
 20
269.1432117773
 11
199.7890707238
 21
269.1432117773
  0
LINE
  5
38F
100
AcDbEntity
  8
0
100
AcDbLine
 62
7
  6
CONTINUOUS
 10
195.3789637955
 20
269.1561333419
 11
194.7630789692
 21
269.1561333419
  0
LINE
  5
390
100
AcDbEntity
  8
0
100
AcDbLine
 62
7
  6
CONTINUOUS
 10
201.3967658784
 20
271.1690549064
 11
249.7138626894
 21
271.1690549064
  0
LINE
  5
391
100
AcDbEntity
  8
0
100
AcDbLine
 62
7
  6
CONTINUOUS
 10
232.4040385917
 20
271.6690549064
 11
201.8971091361
 21
271.6688835708
  0
LINE
  5
392
100
AcDbEntity
  8
0
100
AcDbLine
 62
7
  6
CONTINUOUS
 10
249.21352113
 20
271.6688835689
 11
232.3805421333
 21
271.6689770243
  0
LINE
  5
393
100
AcDbEntity
  8
0
100
AcDbLine
 62
7
  6
CONTINUOUS
 10
201.8971074323
 20
274.6433831148
 11
249.2135194307
 21
274.643383112
  0
LINE
  5
394
100
AcDbEntity
  8
0
100
AcDbLine
 62
7
  6
CONTINUOUS
 10
249.7138626894
 20
275.1432117773
 11
201.3967658784
 21
275.1432117773
  0
LINE
  5
395
100
AcDbEntity
  8
0
100
AcDbLine
 62
7
  6
CONTINUOUS
 10
203.004461033
 20
277.1690549064
 11
249.7138626894
 21
277.1690549064
  0
LINE
  5
396
100
AcDbEntity
  8
0
100
AcDbLine
 62
7
  6
CONTINUOUS
 10
215.6190890993
 20
230.6998776736
 11
215.5316004358
 21
230.7873663372
  0
LINE
  5
397
100
AcDbEntity
  8
0
100
AcDbLine
 62
7
  6
CONTINUOUS
 10
220.0113939447
 20
227.6123890101
 11
220.0988826083
 21
227.5249003466
  0
LINE
  5
398
100
AcDbEntity
  8
0
100
AcDbLine
 62
7
  6
CONTINUOUS
 10
217.2267842539
 20
236.6998776736
 11
217.1392955904
 21
236.7873663372
  0
LINE
  5
399
100
AcDbEntity
  8
0
100
AcDbLine
 62
7
  6
CONTINUOUS
 10
221.6190890993
 20
233.6123890101
 11
221.7065777629
 21
233.5249003466
  0
LINE
  5
39A
100
AcDbEntity
  8
0
100
AcDbLine
 62
7
  6
CONTINUOUS
 10
220.0113939447
 20
227.6123890101
 11
220.0113939447
 21
224.6998776736
  0
LINE
  5
39B
100
AcDbEntity
  8
0
100
AcDbLine
 62
7
  6
CONTINUOUS
 10
220.0988826083
 20
227.5249003466
 11
220.0988826083
 21
224.7873663372
  0
LINE
  5
39C
100
AcDbEntity
  8
0
100
AcDbLine
 62
7
  6
CONTINUOUS
 10
221.6190890993
 20
233.6123890101
 11
221.6190890993
 21
230.6998776736
  0
LINE
  5
39D
100
AcDbEntity
  8
0
100
AcDbLine
 62
7
  6
CONTINUOUS
 10
221.7065777629
 20
233.5249003466
 11
221.7065777629
 21
230.7873663372
  0
LINE
  5
39E
100
AcDbEntity
  8
0
100
AcDbLine
 62
7
  6
CONTINUOUS
 10
223.2267842539
 20
239.6123890101
 11
223.2267842539
 21
236.6998776736
  0
LINE
  5
39F
100
AcDbEntity
  8
0
100
AcDbLine
 62
7
  6
CONTINUOUS
 10
223.3142729174
 20
239.5249003466
 11
223.3142729174
 21
236.7873663372
  0
LINE
  5
3A0
100
AcDbEntity
  8
0
100
AcDbLine
 62
7
  6
CONTINUOUS
 10
223.6424394794
 20
262.6299534097
 11
223.6424394794
 21
259.6823133285
  0
LINE
  5
3A1
100
AcDbEntity
  8
0
100
AcDbLine
 62
7
  6
CONTINUOUS
 10
224.1483605717
 20
259.6690549064
 11
224.1483397126
 21
262.6432117773
  0
LINE
  5
3A2
100
AcDbEntity
  8
0
100
AcDbLine
 62
7
  6
CONTINUOUS
 10
225.250134634
 20
268.6299534085
 11
225.250134634
 21
265.6823133005
  0
LINE
  5
3A3
100
AcDbEntity
  8
0
100
AcDbLine
 62
7
  6
CONTINUOUS
 10
225.7559548815
 20
265.6690549064
 11
225.7559548815
 21
268.6432117773
  0
LINE
  5
3A4
100
AcDbEntity
  8
0
100
AcDbLine
 62
7
  6
CONTINUOUS
 10
226.8578297886
 20
274.6299534085
 11
226.8578297886
 21
271.6823133005
  0
LINE
  5
3A5
100
AcDbEntity
  8
0
100
AcDbLine
 62
7
  6
CONTINUOUS
 10
227.3636500361
 20
271.6690549064
 11
227.3636500361
 21
274.6432117773
  0
LINE
  5
3A6
100
AcDbEntity
  8
0
100
AcDbLine
 62
7
  6
CONTINUOUS
 10
228.4655249432
 20
280.6299534083
 11
228.4655249432
 21
277.6823132999
  0
LINE
  5
3A7
100
AcDbEntity
  8
0
100
AcDbLine
 62
7
  6
CONTINUOUS
 10
234.0117320402
 20
277.6690549064
 11
203.5044262378
 21
277.6688835695
  0
LINE
  5
3A8
100
AcDbEntity
  8
0
100
AcDbLine
 62
7
  6
CONTINUOUS
 10
249.2138973619
 20
277.6688835689
 11
233.9883390501
 21
277.6689898826
  0
LINE
  5
3A9
100
AcDbEntity
  8
0
100
AcDbLine
 62
7
  6
CONTINUOUS
 10
203.5044261506
 20
280.6433831148
 11
249.2138975693
 21
280.6433831139
  0
LINE
  5
3AA
100
AcDbEntity
  8
0
100
AcDbLine
 62
7
  6
CONTINUOUS
 10
249.7138626894
 20
281.1432117773
 11
203.004461033
 21
281.1432117773
  0
LINE
  5
3AB
100
AcDbEntity
  8
0
100
AcDbLine
 62
7
  6
CONTINUOUS
 10
194.2267842539
 20
283.3873947537
 11
194.6688853473
 21
283.3873947537
  0
LINE
  5
3AC
100
AcDbEntity
  8
0
100
AcDbLine
 62
7
  6
CONTINUOUS
 10
194.6688853474
 20
283.8887306276
 11
194.2267842539
 21
283.8887306119
  0
LINE
  5
3AD
100
AcDbEntity
  8
0
100
AcDbLine
 62
7
  6
CONTINUOUS
 10
194.2267842539
 20
285.1561333419
 11
80.7267842539
 21
285.1561333419
  0
LINE
  5
3AE
100
AcDbEntity
  8
0
100
AcDbLine
 62
7
  6
CONTINUOUS
 10
194.6688853474
 20
285.5906456584
 11
194.2267842539
 21
285.5906456584
  0
LINE
  5
3AF
100
AcDbEntity
  8
0
100
AcDbLine
 62
7
  6
CONTINUOUS
 10
194.2267842539
 20
285.6561333419
 11
195.8220219459
 21
285.6561333419
  0
LINE
  5
3B0
100
AcDbEntity
  8
0
100
AcDbLine
 62
7
  6
CONTINUOUS
 10
223.2267842539
 20
239.6123890101
 11
223.3142729174
 21
239.5249003466
  0
LINE
  5
3B1
100
AcDbEntity
  8
0
100
AcDbLine
 62
7
  6
CONTINUOUS
 10
200.2894151547
 20
268.6433831148
 11
200.3023350803
 21
268.6299474214
  0
LINE
  5
3B2
100
AcDbEntity
  8
0
100
AcDbLine
 62
7
  6
CONTINUOUS
 10
228.9713468996
 20
277.6690549064
 11
228.9713468955
 21
280.6432117773
  0
LINE
  5
3B3
100
AcDbEntity
  8
0
100
AcDbLine
 62
7
  6
CONTINUOUS
 10
229.1885473264
 20
262.6432117773
 11
229.1885681595
 21
259.6690549064
  0
LINE
  5
3B4
100
AcDbEntity
  8
0
100
AcDbLine
 62
7
  6
CONTINUOUS
 10
229.69446853
 20
259.682313274
 11
229.69446853
 21
262.6299533553
  0
LINE
  5
3B5
100
AcDbEntity
  8
0
100
AcDbLine
 62
7
  6
CONTINUOUS
 10
230.2267842539
 20
208.1561333419
 11
230.2267842539
 21
208.6561333419
  0
LINE
  5
3B6
100
AcDbEntity
  8
0
100
AcDbLine
 62
7
  6
CONTINUOUS
 10
230.7963434371
 20
268.6432117773
 11
230.7963434371
 21
265.6690549064
  0
LINE
  5
3B7
100
AcDbEntity
  8
0
100
AcDbLine
 62
7
  6
CONTINUOUS
 10
231.3021636846
 20
265.6823132751
 11
231.3021636846
 21
268.6299533834
  0
LINE
  5
3B8
100
AcDbEntity
  8
0
100
AcDbLine
 62
7
  6
CONTINUOUS
 10
232.4040385917
 20
274.6432117773
 11
232.4040385917
 21
271.6690549064
  0
LINE
  5
3B9
100
AcDbEntity
  8
0
100
AcDbLine
 62
7
  6
CONTINUOUS
 10
232.9098588392
 20
271.6823132751
 11
232.9098588392
 21
274.6299533834
  0
LINE
  5
3BA
100
AcDbEntity
  8
0
100
AcDbLine
 62
7
  6
CONTINUOUS
 10
234.0117320376
 20
280.6432117773
 11
234.0117320402
 21
277.6690549064
  0
LINE
  5
3BB
100
AcDbEntity
  8
0
100
AcDbLine
 62
7
  6
CONTINUOUS
 10
234.5175539938
 20
277.6823132752
 11
234.5175539938
 21
280.6299533841
  0
LINE
  5
3BC
100
AcDbEntity
  8
0
100
AcDbLine
 62
7
  6
CONTINUOUS
 10
196.892473076
 20
287.6561333406
 11
265.2267842539
 21
287.6561333419
  0
LINE
  5
3BD
100
AcDbEntity
  8
0
100
AcDbLine
 62
7
  6
CONTINUOUS
 10
194.2267842539
 20
288.1923704412
 11
194.9287029675
 21
288.1923704767
  0
LINE
  5
3BE
100
AcDbEntity
  8
0
100
AcDbLine
 62
7
  6
CONTINUOUS
 10
194.2267842539
 20
288.6561333419
 11
264.2267842539
 21
288.6561333419
  0
LINE
  5
3BF
100
AcDbEntity
  8
0
100
AcDbLine
 62
7
  6
CONTINUOUS
 10
80.7267842539
 20
290.6561333419
 11
194.2267842539
 21
290.6561333419
  0
LINE
  5
3C0
100
AcDbEntity
  8
0
100
AcDbLine
 62
7
  6
CONTINUOUS
 10
148.5089272928
 20
296.8161333419
 11
169.944641215
 21
296.8161333419
  0
LINE
  5
3C1
100
AcDbEntity
  8
0
100
AcDbLine
 62
7
  6
CONTINUOUS
 10
265.2268146878
 20
284.1561325449
 11
265.62675382
 21
284.1456597702
  0
LINE
  5
3C2
100
AcDbEntity
  8
0
100
AcDbLine
 62
7
  6
CONTINUOUS
 10
195.8930822017
 20
287.6910328386
 11
196.8924730691
 21
287.6561333405
  0
LINE
  5
3C3
100
AcDbEntity
  8
0
100
AcDbLine
 62
7
  6
CONTINUOUS
 10
239.7267842539
 20
203.6561333419
 11
239.7267842539
 21
208.1561333419
  0
LINE
  5
3C4
100
AcDbEntity
  8
0
100
AcDbLine
 62
7
  6
CONTINUOUS
 10
240.2267842539
 20
208.6561333419
 11
240.2267842539
 21
203.6561333419
  0
LINE
  5
3C5
100
AcDbEntity
  8
0
100
AcDbLine
 62
7
  6
CONTINUOUS
 10
241.9267842539
 20
120.1561333419
 11
241.9267842539
 21
118.6561333419
  0
LINE
  5
3C6
100
AcDbEntity
  8
0
100
AcDbLine
 62
7
  6
CONTINUOUS
 10
242.7267842539
 20
120.1561333419
 11
242.7267842539
 21
118.6561333419
  0
LINE
  5
3C7
100
AcDbEntity
  8
0
100
AcDbLine
 62
7
  6
CONTINUOUS
 10
243.8520529002
 20
213.1561333419
 11
243.8520316342
 21
212.6561333419
  0
LINE
  5
3C8
100
AcDbEntity
  8
0
100
AcDbLine
 62
7
  6
CONTINUOUS
 10
245.2267842539
 20
193.1561333419
 11
245.2267842539
 21
120.1561333419
  0
LINE
  5
3C9
100
AcDbEntity
  8
0
100
AcDbLine
 62
7
  6
CONTINUOUS
 10
246.5712974711
 20
193.1561333419
 11
246.5712974711
 21
120.1561333419
  0
LINE
  5
3CA
100
AcDbEntity
  8
0
100
AcDbLine
 62
7
  6
CONTINUOUS
 10
249.2140340269
 20
262.6433831148
 11
249.2139424252
 21
259.6689571351
  0
LINE
  5
3CB
100
AcDbEntity
  8
0
100
AcDbLine
 62
7
  6
CONTINUOUS
 10
249.2139431102
 20
274.6433099276
 11
249.2139431096
 21
271.668956752
  0
LINE
  5
3CC
100
AcDbEntity
  8
0
100
AcDbLine
 62
7
  6
CONTINUOUS
 10
249.2139431102
 20
268.6433099278
 11
249.2139431098
 21
265.6689567521
  0
LINE
  5
3CD
100
AcDbEntity
  8
0
100
AcDbLine
 62
7
  6
CONTINUOUS
 10
249.2140035396
 20
280.6433546507
 11
249.2140035392
 21
277.6689120316
  0
LINE
  5
3CE
100
AcDbEntity
  8
0
100
AcDbLine
 62
7
  6
CONTINUOUS
 10
249.7138626894
 20
259.1690549064
 11
249.7138626894
 21
263.1432117773
  0
LINE
  5
3CF
100
AcDbEntity
  8
0
100
AcDbLine
 62
7
  6
CONTINUOUS
 10
249.7138626894
 20
265.1690549064
 11
249.7138626894
 21
269.1432117773
  0
LINE
  5
3D0
100
AcDbEntity
  8
0
100
AcDbLine
 62
7
  6
CONTINUOUS
 10
249.7138626894
 20
271.1690549064
 11
249.7138626894
 21
275.1432117773
  0
LINE
  5
3D1
100
AcDbEntity
  8
0
100
AcDbLine
 62
7
  6
CONTINUOUS
 10
249.7138626894
 20
277.1690549064
 11
249.7138626894
 21
281.1432117773
  0
LINE
  5
3D2
100
AcDbEntity
  8
0
100
AcDbLine
 62
7
  6
CONTINUOUS
 10
250.2267842539
 20
239.5371155479
 11
250.2267842539
 21
236.7751511358
  0
LINE
  5
3D3
100
AcDbEntity
  8
0
100
AcDbLine
 62
7
  6
CONTINUOUS
 10
250.2267842539
 20
233.5371155479
 11
250.2267842539
 21
230.7751511358
  0
LINE
  5
3D4
100
AcDbEntity
  8
0
100
AcDbLine
 62
7
  6
CONTINUOUS
 10
250.2267842539
 20
227.5371155479
 11
250.2267842539
 21
224.7751511358
  0
LINE
  5
3D5
100
AcDbEntity
  8
0
100
AcDbLine
 62
7
  6
CONTINUOUS
 10
250.2267842539
 20
221.5371155479
 11
250.2267842539
 21
218.7751511358
  0
LINE
  5
3D6
100
AcDbEntity
  8
0
100
AcDbLine
 62
7
  6
CONTINUOUS
 10
250.5686703709
 20
218.7336516189
 11
250.5686703709
 21
221.5786150648
  0
LINE
  5
3D7
100
AcDbEntity
  8
0
100
AcDbLine
 62
7
  6
CONTINUOUS
 10
250.5686703709
 20
224.7336516189
 11
250.5686703709
 21
227.5786150648
  0
LINE
  5
3D8
100
AcDbEntity
  8
0
100
AcDbLine
 62
7
  6
CONTINUOUS
 10
250.5686703709
 20
230.7336516189
 11
250.5686703709
 21
233.5786150648
  0
LINE
  5
3D9
100
AcDbEntity
  8
0
100
AcDbLine
 62
7
  6
CONTINUOUS
 10
250.5686703709
 20
236.7336516189
 11
250.5686703709
 21
239.5786150648
  0
LINE
  5
3DA
100
AcDbEntity
  8
0
100
AcDbLine
 62
7
  6
CONTINUOUS
 10
251.9267842539
 20
173.1561333419
 11
251.9267842539
 21
168.1561333419
  0
LINE
  5
3DB
100
AcDbEntity
  8
0
100
AcDbLine
 62
7
  6
CONTINUOUS
 10
251.9267842539
 20
155.1561333419
 11
251.9267842539
 21
150.1561333419
  0
LINE
  5
3DC
100
AcDbEntity
  8
0
100
AcDbLine
 62
7
  6
CONTINUOUS
 10
253.2267842539
 20
218.6561333419
 11
253.2267842539
 21
221.6561333419
  0
LINE
  5
3DD
100
AcDbEntity
  8
0
100
AcDbLine
 62
7
  6
CONTINUOUS
 10
253.2267842539
 20
224.6561333419
 11
253.2267842539
 21
227.6561333419
  0
LINE
  5
3DE
100
AcDbEntity
  8
0
100
AcDbLine
 62
7
  6
CONTINUOUS
 10
253.2267842539
 20
230.6561333419
 11
253.2267842539
 21
233.6561333419
  0
LINE
  5
3DF
100
AcDbEntity
  8
0
100
AcDbLine
 62
7
  6
CONTINUOUS
 10
253.2267842539
 20
236.6561333419
 11
253.2267842539
 21
239.6561333419
  0
LINE
  5
3E0
100
AcDbEntity
  8
0
100
AcDbLine
 62
7
  6
CONTINUOUS
 10
253.3941217157
 20
288.6561333419
 11
253.3941218632
 21
252.6561333419
  0
LINE
  5
3E1
100
AcDbEntity
  8
0
100
AcDbLine
 62
7
  6
CONTINUOUS
 10
253.7606543755
 20
213.1561333419
 11
253.7606543755
 21
212.6561333419
  0
LINE
  5
3E2
100
AcDbEntity
  8
0
100
AcDbLine
 62
7
  6
CONTINUOUS
 10
253.7606543755
 20
252.1561333419
 11
253.7606543755
 21
252.6561333419
  0
LINE
  5
3E3
100
AcDbEntity
  8
0
100
AcDbLine
 62
7
  6
CONTINUOUS
 10
254.5415808813
 20
252.6561333419
 11
254.5415808813
 21
252.1561333419
  0
LINE
  5
3E4
100
AcDbEntity
  8
0
100
AcDbLine
 62
7
  6
CONTINUOUS
 10
254.5415808813
 20
213.1561333419
 11
254.5415808813
 21
212.6561333419
  0
LINE
  5
3E5
100
AcDbEntity
  8
0
100
AcDbLine
 62
7
  6
CONTINUOUS
 10
255.2267842539
 20
252.1561333419
 11
255.2267842539
 21
213.1561333419
  0
LINE
  5
3E6
100
AcDbEntity
  8
0
100
AcDbLine
 62
7
  6
CONTINUOUS
 10
255.2267842539
 20
193.1561333419
 11
255.2267842539
 21
212.6561333419
  0
LINE
  5
3E7
100
AcDbEntity
  8
0
100
AcDbLine
 62
7
  6
CONTINUOUS
 10
255.3865113021
 20
252.6561333419
 11
255.3865113021
 21
287.6561333419
  0
LINE
  5
3E8
100
AcDbEntity
  8
0
100
AcDbLine
 62
7
  6
CONTINUOUS
 10
255.4267842539
 20
150.1561333419
 11
255.4267842539
 21
155.1561333419
  0
LINE
  5
3E9
100
AcDbEntity
  8
0
100
AcDbLine
 62
7
  6
CONTINUOUS
 10
255.4267842539
 20
168.1561333419
 11
255.4267842539
 21
173.1561333419
  0
LINE
  5
3EA
100
AcDbEntity
  8
0
100
AcDbLine
 62
7
  6
CONTINUOUS
 10
256.1354923974
 20
287.6561333419
 11
256.1354923981
 21
252.6561333419
  0
LINE
  5
3EB
100
AcDbEntity
  8
0
100
AcDbLine
 62
7
  6
CONTINUOUS
 10
256.1354923982
 20
252.1561333419
 11
256.1354923982
 21
213.1561333419
  0
LINE
  5
3EC
100
AcDbEntity
  8
0
100
AcDbLine
 62
7
  6
CONTINUOUS
 10
256.4280218046
 20
193.1561333419
 11
256.4280218046
 21
212.6561333419
  0
LINE
  5
3ED
100
AcDbEntity
  8
0
100
AcDbLine
 62
7
  6
CONTINUOUS
 10
259.2267842539
 20
167.1561333419
 11
259.2267842539
 21
156.1561333419
  0
LINE
  5
3EE
100
AcDbEntity
  8
0
100
AcDbLine
 62
7
  6
CONTINUOUS
 10
259.6321990312
 20
212.6561333419
 11
259.6321990312
 21
213.1561333419
  0
LINE
  5
3EF
100
AcDbEntity
  8
0
100
AcDbLine
 62
7
  6
CONTINUOUS
 10
259.6321990312
 20
252.1561333419
 11
259.6321990312
 21
252.6561333419
  0
LINE
  5
3F0
100
AcDbEntity
  8
0
100
AcDbLine
 62
7
  6
CONTINUOUS
 10
259.7716482196
 20
213.1561333419
 11
259.7716482196
 21
252.1561333419
  0
LINE
  5
3F1
100
AcDbEntity
  8
0
100
AcDbLine
 62
7
  6
CONTINUOUS
 10
259.77164822
 20
252.6561333419
 11
259.7716482198
 21
287.6561333419
  0
LINE
  5
3F2
100
AcDbEntity
  8
0
100
AcDbLine
 62
7
  6
CONTINUOUS
 10
260.2267842539
 20
120.1561333419
 11
260.2267842539
 21
118.6561333419
  0
LINE
  5
3F3
100
AcDbEntity
  8
0
100
AcDbLine
 62
7
  6
CONTINUOUS
 10
263.6267842539
 20
213.1561333419
 11
263.6267842539
 21
212.6561333419
  0
LINE
  5
3F4
100
AcDbEntity
  8
0
100
AcDbLine
 62
7
  6
CONTINUOUS
 10
263.6267842539
 20
252.1561333419
 11
263.6267842539
 21
252.6561333419
  0
LINE
  5
3F5
100
AcDbEntity
  8
0
100
AcDbLine
 62
7
  6
CONTINUOUS
 10
264.3139399967
 20
287.6561333419
 11
264.3139399967
 21
252.6561333419
  0
LINE
  5
3F6
100
AcDbEntity
  8
0
100
AcDbLine
 62
7
  6
CONTINUOUS
 10
265.2267842539
 20
118.6561333419
 11
265.2267842539
 21
252.1561333419
  0
LINE
  5
3F7
100
AcDbEntity
  8
0
100
AcDbLine
 62
7
  6
CONTINUOUS
 10
265.2267842539
 20
252.6561333419
 11
265.2267842539
 21
287.6561333419
  0
LINE
  5
3F8
100
AcDbEntity
  8
0
100
AcDbLine
 62
7
  6
CONTINUOUS
 10
265.6267842539
 20
284.1456591061
 11
265.6267842539
 21
256.1666075777
  0
ARC
  5
3F9
100
AcDbEntity
  8
0
100
AcDbCircle
 62
7
  6
CONTINUOUS
 10
-72.203743193
 20
263.0394398476
 40
119.4540765176
100
AcDbArc
 50
7.5058858939
 51
7.7331831887
  0
ARC
  5
3FA
100
AcDbEntity
  8
0
100
AcDbCircle
 62
7
  6
CONTINUOUS
 10
65.2267842539
 20
171.6561333419
 40
3.0
100
AcDbArc
 50
90.0
 51
270.0
  0
ARC
  5
3FB
100
AcDbEntity
  8
0
100
AcDbCircle
 62
7
  6
CONTINUOUS
 10
94.2267842539
 20
171.6561333419
 40
3.0
100
AcDbArc
 50
270.0
 51
90.0
  0
ARC
  5
3FC
100
AcDbEntity
  8
0
100
AcDbCircle
 62
7
  6
CONTINUOUS
 10
65.2267842539
 20
162.6561333419
 40
3.0
100
AcDbArc
 50
90.0
 51
270.0
  0
ARC
  5
3FD
100
AcDbEntity
  8
0
100
AcDbCircle
 62
7
  6
CONTINUOUS
 10
94.2267842539
 20
162.6561333419
 40
3.0
100
AcDbArc
 50
270.0
 51
90.0
  0
ARC
  5
3FE
100
AcDbEntity
  8
0
100
AcDbCircle
 62
7
  6
CONTINUOUS
 10
65.2267842539
 20
153.6561333419
 40
3.0
100
AcDbArc
 50
90.0
 51
270.0
  0
ARC
  5
3FF
100
AcDbEntity
  8
0
100
AcDbCircle
 62
7
  6
CONTINUOUS
 10
94.2267842539
 20
153.6561333419
 40
3.0
100
AcDbArc
 50
270.0
 51
90.0
  0
ARC
  5
400
100
AcDbEntity
  8
0
100
AcDbCircle
 62
7
  6
CONTINUOUS
 10
65.2267842539
 20
144.6561333419
 40
3.0
100
AcDbArc
 50
90.0
 51
270.0
  0
ARC
  5
401
100
AcDbEntity
  8
0
100
AcDbCircle
 62
7
  6
CONTINUOUS
 10
94.2267842539
 20
144.6561333419
 40
3.0
100
AcDbArc
 50
270.0
 51
90.0
  0
ARC
  5
402
100
AcDbEntity
  8
0
100
AcDbCircle
 62
7
  6
CONTINUOUS
 10
65.2267842539
 20
135.6561333419
 40
3.0
100
AcDbArc
 50
90.0
 51
270.0
  0
ARC
  5
403
100
AcDbEntity
  8
0
100
AcDbCircle
 62
7
  6
CONTINUOUS
 10
94.2267842539
 20
135.6561333419
 40
3.0
100
AcDbArc
 50
270.0
 51
90.0
  0
ARC
  5
404
100
AcDbEntity
  8
0
100
AcDbCircle
 62
7
  6
CONTINUOUS
 10
65.2267842539
 20
126.6561333419
 40
3.0
100
AcDbArc
 50
90.0
 51
270.0
  0
ARC
  5
405
100
AcDbEntity
  8
0
100
AcDbCircle
 62
7
  6
CONTINUOUS
 10
94.2267842539
 20
126.6561333419
 40
3.0
100
AcDbArc
 50
270.0
 51
90.0
  0
ARC
  5
406
100
AcDbEntity
  8
0
100
AcDbCircle
 62
7
  6
CONTINUOUS
 10
65.2267842539
 20
180.6561333419
 40
3.0
100
AcDbArc
 50
90.0
 51
270.0
  0
ARC
  5
407
100
AcDbEntity
  8
0
100
AcDbCircle
 62
7
  6
CONTINUOUS
 10
94.2267842539
 20
180.6561333419
 40
3.0
100
AcDbArc
 50
270.0
 51
90.0
  0
ARC
  5
408
100
AcDbEntity
  8
0
100
AcDbCircle
 62
7
  6
CONTINUOUS
 10
46.2267842539
 20
282.7789211168
 40
1.0
100
AcDbArc
 50
97.4408865109
 51
180.0
  0
ARC
  5
409
100
AcDbEntity
  8
0
100
AcDbCircle
 62
7
  6
CONTINUOUS
 10
46.2267842539
 20
258.8003324088
 40
1.0
100
AcDbArc
 50
97.7653658809
 51
180.0
  0
ARC
  5
40A
100
AcDbEntity
  8
0
100
AcDbCircle
 62
7
  6
CONTINUOUS
 10
194.7630532388
 20
-830.8438666581
 40
1102.0392788825
100
AcDbArc
 50
94.450097863
 51
94.7666707199
  0
ARC
  5
40B
100
AcDbEntity
  8
0
100
AcDbCircle
 62
7
  6
CONTINUOUS
 10
194.7246705106
 20
-830.1208666581
 40
1100.0
100
AcDbArc
 50
95.9484971245
 51
97.765611655
  0
ARC
  5
40C
100
AcDbEntity
  8
0
100
AcDbCircle
 62
7
  6
CONTINUOUS
 10
194.2267842539
 20
-830.8438666581
 40
1100.0
100
AcDbArc
 50
90.0
 51
95.9224234135
  0
ARC
  5
40D
100
AcDbEntity
  8
0
100
AcDbCircle
 62
7
  6
CONTINUOUS
 10
194.7630532388
 20
-830.8438666581
 40
1100.0
100
AcDbArc
 50
89.9999939
 51
90.0279371908
  0
ARC
  5
40E
100
AcDbEntity
  8
0
100
AcDbCircle
 62
7
  6
CONTINUOUS
 10
194.7630532388
 20
-830.8438666581
 40
1100.0
100
AcDbArc
 50
90.0560111354
 51
94.4523083981
  0
ARC
  5
40F
100
AcDbEntity
  8
0
100
AcDbCircle
 62
7
  6
CONTINUOUS
 10
194.7630532388
 20
-830.8438666581
 40
1100.0
100
AcDbArc
 50
94.7810109562
 51
95.9231063853
  0
ARC
  5
410
100
AcDbEntity
  8
0
100
AcDbCircle
 62
7
  6
CONTINUOUS
 10
194.762710622
 20
-830.839378779
 40
1099.9692949901
100
AcDbArc
 50
94.45241503
 51
94.7817654603
  0
ARC
  5
411
100
AcDbEntity
  8
0
100
AcDbCircle
 62
7
  6
CONTINUOUS
 10
194.7630532388
 20
-830.8438666581
 40
1099.5
100
AcDbArc
 50
90.0
 51
95.9264376448
  0
ARC
  5
412
100
AcDbEntity
  8
0
100
AcDbCircle
 62
7
  6
CONTINUOUS
 10
194.7246705106
 20
-830.1208666581
 40
1099.0
100
AcDbArc
 50
95.9535671536
 51
97.1960063017
  0
ARC
  5
413
100
AcDbEntity
  8
0
100
AcDbCircle
 62
7
  6
CONTINUOUS
 10
194.6374956754
 20
-830.1207199501
 40
1098.9998520508
100
AcDbArc
 50
97.5266773148
 51
97.7656119767
  0
ARC
  5
414
100
AcDbEntity
  8
0
100
AcDbCircle
 62
7
  6
CONTINUOUS
 10
194.7246705106
 20
-830.1208666581
 40
1097.0
100
AcDbArc
 50
95.9585361995
 51
95.9663084511
  0
ARC
  5
415
100
AcDbEntity
  8
0
100
AcDbCircle
 62
7
  6
CONTINUOUS
 10
166.8773174743
 20
-444.1257050954
 40
713.0666091773
100
AcDbArc
 50
99.0822621112
 51
99.3782636604
  0
ARC
  5
416
100
AcDbEntity
  8
0
100
AcDbCircle
 62
7
  6
CONTINUOUS
 10
121.2267842539
 20
-291.4438666581
 40
580.1
100
AcDbArc
 50
94.0036288421
 51
97.4413529448
  0
ARC
  5
417
100
AcDbEntity
  8
0
100
AcDbCircle
 62
7
  6
CONTINUOUS
 10
121.2281005305
 20
-291.5306644832
 40
579.711880238
100
AcDbArc
 50
94.0070966484
 51
97.4398042469
  0
ARC
  5
418
100
AcDbEntity
  8
0
100
AcDbCircle
 62
7
  6
CONTINUOUS
 10
121.2562682291
 20
-291.8054143976
 40
575.8351119782
100
AcDbArc
 50
94.0369298075
 51
97.4930407304
  0
ARC
  5
419
100
AcDbEntity
  8
0
100
AcDbCircle
 62
7
  6
CONTINUOUS
 10
121.2387994901
 20
-291.3814142019
 40
574.9392975626
100
AcDbArc
 50
94.0414989856
 51
97.4967208348
  0
ARC
  5
41A
100
AcDbEntity
  8
0
100
AcDbCircle
 62
7
  6
CONTINUOUS
 10
114.8099152547
 20
212.6355726594
 40
129.0874692079
100
AcDbArc
 50
0.0091259077
 51
0.2310536172
  0
ARC
  5
41B
100
AcDbEntity
  8
0
100
AcDbCircle
 62
7
  6
CONTINUOUS
 10
105.2267842539
 20
180.6561333419
 40
3.0
100
AcDbArc
 50
90.0
 51
270.0
  0
ARC
  5
41C
100
AcDbEntity
  8
0
100
AcDbCircle
 62
7
  6
CONTINUOUS
 10
134.2267842539
 20
180.6561333419
 40
3.0
100
AcDbArc
 50
270.0
 51
90.0
  0
ARC
  5
41D
100
AcDbEntity
  8
0
100
AcDbCircle
 62
7
  6
CONTINUOUS
 10
105.2267842539
 20
171.6561333419
 40
3.0
100
AcDbArc
 50
90.0
 51
270.0
  0
ARC
  5
41E
100
AcDbEntity
  8
0
100
AcDbCircle
 62
7
  6
CONTINUOUS
 10
134.2267842539
 20
171.6561333419
 40
3.0
100
AcDbArc
 50
270.0
 51
90.0
  0
ARC
  5
41F
100
AcDbEntity
  8
0
100
AcDbCircle
 62
7
  6
CONTINUOUS
 10
105.2267842539
 20
162.6561333419
 40
3.0
100
AcDbArc
 50
90.0
 51
270.0
  0
ARC
  5
420
100
AcDbEntity
  8
0
100
AcDbCircle
 62
7
  6
CONTINUOUS
 10
134.2267842539
 20
162.6561333419
 40
3.0
100
AcDbArc
 50
270.0
 51
90.0
  0
ARC
  5
421
100
AcDbEntity
  8
0
100
AcDbCircle
 62
7
  6
CONTINUOUS
 10
105.2267842539
 20
153.6561333419
 40
3.0
100
AcDbArc
 50
90.0
 51
270.0
  0
ARC
  5
422
100
AcDbEntity
  8
0
100
AcDbCircle
 62
7
  6
CONTINUOUS
 10
134.2267842539
 20
153.6561333419
 40
3.0
100
AcDbArc
 50
270.0
 51
90.0
  0
ARC
  5
423
100
AcDbEntity
  8
0
100
AcDbCircle
 62
7
  6
CONTINUOUS
 10
105.2267842539
 20
144.6561333419
 40
3.0
100
AcDbArc
 50
90.0
 51
270.0
  0
ARC
  5
424
100
AcDbEntity
  8
0
100
AcDbCircle
 62
7
  6
CONTINUOUS
 10
134.2267842539
 20
144.6561333419
 40
3.0
100
AcDbArc
 50
270.0
 51
90.0
  0
ARC
  5
425
100
AcDbEntity
  8
0
100
AcDbCircle
 62
7
  6
CONTINUOUS
 10
105.2267842539
 20
135.6561333419
 40
3.0
100
AcDbArc
 50
90.0
 51
270.0
  0
ARC
  5
426
100
AcDbEntity
  8
0
100
AcDbCircle
 62
7
  6
CONTINUOUS
 10
134.2267842539
 20
135.6561333419
 40
3.0
100
AcDbArc
 50
270.0
 51
90.0
  0
ARC
  5
427
100
AcDbEntity
  8
0
100
AcDbCircle
 62
7
  6
CONTINUOUS
 10
105.2267842539
 20
126.6561333419
 40
3.0
100
AcDbArc
 50
90.0
 51
270.0
  0
ARC
  5
428
100
AcDbEntity
  8
0
100
AcDbCircle
 62
7
  6
CONTINUOUS
 10
134.2267842539
 20
126.6561333419
 40
3.0
100
AcDbArc
 50
270.0
 51
90.0
  0
ARC
  5
429
100
AcDbEntity
  8
0
100
AcDbCircle
 62
7
  6
CONTINUOUS
 10
264.2267842539
 20
287.6561333419
 40
1.0
100
AcDbArc
 50
0.0
 51
90.0
  0
ARC
  5
42A
100
AcDbEntity
  8
0
100
AcDbCircle
 62
7
  6
CONTINUOUS
 10
196.8924730287
 20
287.6561333419
 40
1.0
100
AcDbArc
 50
89.9999975925
 51
178.0
  0
SPLINE
  5
42B
100
AcDbEntity
  8
0
100
AcDbSpline
 62
7
  6
CONTINUOUS
 70
0
 71
3
 72
12
 73
8
 74
0
 42
0.0000001
 43
0.0000001
 44
0.0000000001
 40
0.0
 40
0.0
 40
0.0
 40
0.0
 40
0.1771649452
 40
0.2830688941
 40
0.403249138
 40
0.6835354281
 40
1.0
 40
1.0
 40
1.0
 40
1.0
 10
45.2267842541
 20
282.7789326141
 30
0.0
 10
45.2267828085
 20
282.8472876344
 30
0.0
 10
45.2728970246
 20
282.9569351951
 30
0.0
 10
45.384115495
 20
283.0660560568
 30
0.0
 10
45.5481410412
 20
283.1745172853
 30
0.0
 10
45.8122458206
 20
283.267821933
 30
0.0
 10
46.0421492138
 20
283.2972004161
 30
0.0
 10
46.1641840744
 20
283.3012059094
 30
0.0
  0
SPLINE
  5
42C
100
AcDbEntity
  8
0
100
AcDbSpline
 62
7
  6
CONTINUOUS
 70
0
 71
3
 72
12
 73
8
 74
0
 42
0.0000001
 43
0.0000001
 44
0.0000000001
 40
0.0
 40
0.0
 40
0.0
 40
0.0
 40
0.3162347296
 40
0.5963594899
 40
0.7166141186
 40
0.8225522842
 40
1.0
 40
1.0
 40
1.0
 40
1.0
 10
46.1641840744
 20
279.1133666366
 30
0.0
 10
46.042239267
 20
279.1093327883
 30
0.0
 10
45.8124683404
 20
279.080068903
 30
0.0
 10
45.5485213191
 20
278.9867653621
 30
0.0
 10
45.384389678
 20
278.8785003162
 30
0.0
 10
45.2730310322
 20
278.769309047
 30
0.0
 10
45.2267856532
 20
278.6595572427
 30
0.0
 10
45.2267842541
 20
278.5910933413
 30
0.0
  0
SPLINE
  5
42D
100
AcDbEntity
  8
0
100
AcDbSpline
 62
7
  6
CONTINUOUS
 70
0
 71
3
 72
11
 73
7
 74
0
 42
0.0000001
 43
0.0000001
 44
0.0000000001
 40
0.0
 40
0.0
 40
0.0
 40
0.0
 40
0.2465824986
 40
0.5067348579
 40
0.7631437638
 40
1.0
 40
1.0
 40
1.0
 40
1.0
 10
55.0671406961
 20
260.0965206478
 30
0.0
 10
55.0670218879
 20
260.2143418241
 30
0.0
 10
55.1102294783
 20
260.4586193187
 30
0.0
 10
55.3024306811
 20
260.7784233356
 30
0.0
 10
55.5939398008
 20
261.0033632085
 30
0.0
 10
55.8244226465
 20
261.0741763017
 30
0.0
 10
55.9366856466
 20
261.0885060839
 30
0.0
  0
SPLINE
  5
42E
100
AcDbEntity
  8
0
100
AcDbSpline
 62
7
  6
CONTINUOUS
 70
0
 71
3
 72
14
 73
10
 74
0
 42
0.0000001
 43
0.0000001
 44
0.0000000001
 40
0.0
 40
0.0
 40
0.0
 40
0.0
 40
0.0228115992
 40
0.0779181326
 40
0.1710305141
 40
0.2995690288
 40
0.4578240951
 40
0.634961373
 40
1.0
 40
1.0
 40
1.0
 40
1.0
 10
50.6380745347
 20
260.4014885854
 30
0.0
 10
50.6305392226
 20
260.4004818846
 30
0.0
 10
50.619333352
 20
260.3694888707
 30
0.0
 10
50.6143306242
 20
260.3180894256
 30
0.0
 10
50.6114026669
 20
260.2228186999
 30
0.0
 10
50.6154263628
 20
260.0975266067
 30
0.0
 10
50.6250576688
 20
259.9427307437
 30
0.0
 10
50.6452845953
 20
259.7103534388
 30
0.0
 10
50.6660988106
 20
259.5307486024
 30
0.0
 10
50.6819148765
 20
259.4101272423
 30
0.0
  0
SPLINE
  5
42F
100
AcDbEntity
  8
0
100
AcDbSpline
 62
7
  6
CONTINUOUS
 70
0
 71
3
 72
11
 73
7
 74
0
 42
0.0000001
 43
0.0000001
 44
0.0000000001
 40
0.0
 40
0.0
 40
0.0
 40
0.0
 40
0.2380397467
 40
0.4949698014
 40
0.7546346285
 40
1.0
 40
1.0
 40
1.0
 40
1.0
 10
54.3180627276
 20
260.0009985048
 30
0.0
 10
54.317949331
 20
260.1147433114
 30
0.0
 10
54.3586222843
 20
260.3531974624
 30
0.0
 10
54.543873511
 20
260.672065683
 30
0.0
 10
54.8354383138
 20
260.9040551704
 30
0.0
 10
55.0713971813
 20
260.978140876
 30
0.0
 10
55.1876999167
 20
260.992978095
 30
0.0
  0
SPLINE
  5
430
100
AcDbEntity
  8
0
100
AcDbSpline
 62
7
  6
CONTINUOUS
 70
0
 71
3
 72
14
 73
10
 74
0
 42
0.0000001
 43
0.0000001
 44
0.0000000001
 40
0.0
 40
0.0
 40
0.0
 40
0.0
 40
0.0252631513
 40
0.0836085455
 40
0.1759410472
 40
0.2993981195
 40
0.4494278076
 40
0.6205569018
 40
1.0
 40
1.0
 40
1.0
 40
1.0
 10
46.0916770609
 20
259.7911633802
 30
0.0
 10
46.083336515
 20
259.7900422832
 30
0.0
 10
46.0727073783
 20
259.755695907
 30
0.0
 10
46.0679090714
 20
259.703449256
 30
0.0
 10
46.0658718839
 20
259.6088519191
 30
0.0
 10
46.0703251645
 20
259.4883726511
 30
0.0
 10
46.0799690945
 20
259.3400869481
 30
0.0
 10
46.100919494
 20
259.1078319212
 30
0.0
 10
46.1226763475
 20
258.9255889496
 30
0.0
 10
46.1396280348
 20
258.8003323367
 30
0.0
  0
SPLINE
  5
431
100
AcDbEntity
  8
0
100
AcDbSpline
 62
7
  6
CONTINUOUS
 70
0
 71
3
 72
16
 73
12
 74
0
 42
0.0000001
 43
0.0000001
 44
0.0000000001
 40
0.0
 40
0.0
 40
0.0
 40
0.0
 40
0.3808930965
 40
0.5529772728
 40
0.7038737608
 40
0.8279153574
 40
0.9203098998
 40
0.953569668
 40
0.9777920553
 40
0.9929927588
 40
1.0
 40
1.0
 40
1.0
 40
1.0
 10
46.2267842539
 20
278.6434406139
 30
0.0
 10
46.0992018285
 20
278.6434406139
 30
0.0
 10
45.9139602833
 20
278.6416778195
 30
0.0
 10
45.6782939988
 20
278.6352596972
 30
0.0
 10
45.5286415489
 20
278.6290082849
 30
0.0
 10
45.40593819
 20
278.6215534116
 30
0.0
 10
45.3223627949
 20
278.6139239535
 30
0.0
 10
45.2729628593
 20
278.6071785213
 30
0.0
 10
45.2484893099
 20
278.6021104089
 30
0.0
 10
45.2346406752
 20
278.5983274881
 30
0.0
 10
45.2267848143
 20
278.5934520559
 30
0.0
 10
45.2267842539
 20
278.5911049386
 30
0.0
  0
SPLINE
  5
432
100
AcDbEntity
  8
0
100
AcDbSpline
 62
7
  6
CONTINUOUS
 70
0
 71
3
 72
16
 73
12
 74
0
 42
0.0000001
 43
0.0000001
 44
0.0000000001
 40
0.0
 40
0.0
 40
0.0
 40
0.0
 40
0.0042923379
 40
0.016905256
 40
0.037860301
 40
0.0671391733
 40
0.1505757462
 40
0.2670221687
 40
0.4153617349
 40
0.590790584
 40
1.0
 40
1.0
 40
1.0
 40
1.0
 10
46.0972748042
 20
283.7704987825
 30
0.0
 10
46.0979478805
 20
283.7705830296
 30
0.0
 10
46.0978162688
 20
283.7663368744
 30
0.0
 10
46.0996790623
 20
283.7620346278
 30
0.0
 10
46.1009401465
 20
283.7513579612
 30
0.0
 10
46.1045332544
 20
283.7310371376
 30
0.0
 10
46.1097253151
 20
283.6948242922
 30
0.0
 10
46.1176926797
 20
283.6405520291
 30
0.0
 10
46.1273611386
 20
283.571590622
 30
0.0
 10
46.1432733748
 20
283.456885365
 30
0.0
 10
46.1557104622
 20
283.3653210723
 30
0.0
 10
46.1643532724
 20
283.301232894
 30
0.0
  0
SPLINE
  5
433
100
AcDbEntity
  8
0
100
AcDbSpline
 62
7
  6
CONTINUOUS
 70
0
 71
3
 72
10
 73
6
 74
0
 42
0.0000001
 43
0.0000001
 44
0.0000000001
 40
0.0
 40
0.0
 40
0.0
 40
0.0
 40
0.113589937
 40
0.3629916121
 40
1.0
 40
1.0
 40
1.0
 40
1.0
 10
203.5044272347
 20
277.6688835689
 30
0.0
 10
203.4864003129
 20
277.6490959087
 30
0.0
 10
203.4238790107
 20
277.5905618805
 30
0.0
 10
203.2593740835
 20
277.4218855808
 30
0.0
 10
203.1106073377
 20
277.2752012111
 30
0.0
 10
203.004461033
 20
277.1690549064
 30
0.0
  0
SPLINE
  5
434
100
AcDbEntity
  8
0
100
AcDbSpline
 62
7
  6
CONTINUOUS
 70
0
 71
3
 72
14
 73
10
 74
0
 42
0.0000001
 43
0.0000001
 44
0.0000000001
 40
0.0
 40
0.0
 40
0.0
 40
0.0
 40
0.0710904113
 40
0.146204037
 40
0.2789840671
 40
0.4551197639
 40
0.6946670027
 40
0.842024144
 40
1.0
 40
1.0
 40
1.0
 40
1.0
 10
195.8930824301
 20
287.6910393868
 30
0.0
 10
195.8940655406
 20
287.7192247449
 30
0.0
 10
195.887662304
 20
287.7778716494
 30
0.0
 10
195.8427208841
 20
287.8807136643
 30
0.0
 10
195.7349293229
 20
287.992977509
 30
0.0
 10
195.5448987595
 20
288.10339494
 30
0.0
 10
195.3268749079
 20
288.1618775959
 30
0.0
 10
195.1129392088
 20
288.191064071
 30
0.0
 10
194.9911790663
 20
288.1973391902
 30
0.0
 10
194.9287052532
 20
288.1923704199
 30
0.0
  0
SPLINE
  5
435
100
AcDbEntity
  8
0
100
AcDbSpline
 62
7
  6
CONTINUOUS
 70
0
 71
3
 72
10
 73
6
 74
0
 42
0.0000001
 43
0.0000001
 44
0.0000000001
 40
0.0
 40
0.0
 40
0.0
 40
0.0
 40
0.6369861965
 40
0.8863956644
 40
1.0
 40
1.0
 40
1.0
 40
1.0
 10
249.7138626894
 20
277.1690549064
 30
0.0
 10
249.6077200698
 20
277.275197526
 30
0.0
 10
249.458953439
 20
277.4218772515
 30
0.0
 10
249.2944494777
 20
277.5905545452
 30
0.0
 10
249.2319255372
 20
277.6490933636
 30
0.0
 10
249.213896366
 20
277.6688835689
 30
0.0
  0
SPLINE
  5
436
100
AcDbEntity
  8
0
100
AcDbSpline
 62
7
  6
CONTINUOUS
 70
0
 71
3
 72
13
 73
9
 74
0
 42
0.0000001
 43
0.0000001
 44
0.0000000001
 40
0.0
 40
0.0
 40
0.0
 40
0.0
 40
0.0335901402
 40
0.1139360594
 40
0.2275990709
 40
0.3631397292
 40
0.6710552015
 40
1.0
 40
1.0
 40
1.0
 40
1.0
 10
201.8971100603
 20
271.6688835689
 30
0.0
 10
201.8924208879
 20
271.6625025978
 30
0.0
 10
201.871411308
 20
271.6452520831
 30
0.0
 10
201.8346535188
 20
271.6063546231
 30
0.0
 10
201.7791822204
 20
271.5518531226
 30
0.0
 10
201.6866978554
 20
271.4586459188
 30
0.0
 10
201.5576941678
 20
271.3301100575
 30
0.0
 10
201.4515996027
 20
271.2238886307
 30
0.0
 10
201.3967658784
 20
271.1690549064
 30
0.0
  0
SPLINE
  5
437
100
AcDbEntity
  8
0
100
AcDbSpline
 62
7
  6
CONTINUOUS
 70
0
 71
3
 72
13
 73
9
 74
0
 42
0.0000001
 43
0.0000001
 44
0.0000000001
 40
0.0
 40
0.0
 40
0.0
 40
0.0
 40
0.0323854546
 40
0.1113237651
 40
0.2249678315
 40
0.3609354014
 40
0.6697821757
 40
1.0
 40
1.0
 40
1.0
 40
1.0
 10
249.2139552386
 20
265.6689567491
 30
0.0
 10
249.2184745839
 20
265.6628068677
 30
0.0
 10
249.2387129547
 20
265.6456777229
 30
0.0
 10
249.2750076797
 20
265.6072164177
 30
0.0
 10
249.3303008681
 20
265.5529107248
 30
0.0
 10
249.423052393
 20
265.4595920041
 30
0.0
 10
249.5524264821
 20
265.330643593
 30
0.0
 10
249.6588368354
 20
265.2240807604
 30
0.0
 10
249.7138626894
 20
265.1690549064
 30
0.0
  0
SPLINE
  5
438
100
AcDbEntity
  8
0
100
AcDbSpline
 62
7
  6
CONTINUOUS
 70
0
 71
3
 72
13
 73
9
 74
0
 42
0.0000001
 43
0.0000001
 44
0.0000000001
 40
0.0
 40
0.0
 40
0.0
 40
0.0
 40
0.0335901395
 40
0.1139360597
 40
0.2275990711
 40
0.3631397292
 40
0.6710552016
 40
1.0
 40
1.0
 40
1.0
 40
1.0
 10
249.2135185074
 20
268.6433831148
 30
0.0
 10
249.2182076753
 20
268.649764089
 30
0.0
 10
249.2392172639
 20
268.6670145976
 30
0.0
 10
249.275975047
 20
268.7059120619
 30
0.0
 10
249.3314463483
 20
268.7604135606
 30
0.0
 10
249.4239307117
 20
268.8536207654
 30
0.0
 10
249.5529344003
 20
268.982156626
 30
0.0
 10
249.6590289651
 20
269.0883780531
 30
0.0
 10
249.7138626894
 20
269.1432117773
 30
0.0
  0
SPLINE
  5
439
100
AcDbEntity
  8
0
100
AcDbSpline
 62
7
  6
CONTINUOUS
 70
0
 71
3
 72
13
 73
9
 74
0
 42
0.0000001
 43
0.0000001
 44
0.0000000001
 40
0.0
 40
0.0
 40
0.0
 40
0.0
 40
0.3289318466
 40
0.6368272674
 40
0.7723753125
 40
0.8860324523
 40
0.9663958697
 40
1.0
 40
1.0
 40
1.0
 40
1.0
 10
199.7890707238
 20
269.1432117773
 30
0.0
 10
199.8439023536
 20
269.0883801476
 30
0.0
 10
199.949988168
 20
268.9821607246
 30
0.0
 10
200.0789957938
 20
268.8536370328
 30
0.0
 10
200.1714738347
 20
268.7604294812
 30
0.0
 10
200.2269443962
 20
268.7059207609
 30
0.0
 10
200.2637111473
 20
268.667023714
 30
0.0
 10
200.2847249345
 20
268.6497667594
 30
0.0
 10
200.289416054
 20
268.6433831148
 30
0.0
  0
SPLINE
  5
43A
100
AcDbEntity
  8
0
100
AcDbSpline
 62
7
  6
CONTINUOUS
 70
0
 71
3
 72
13
 73
9
 74
0
 42
0.0000001
 43
0.0000001
 44
0.0000000001
 40
0.0
 40
0.0
 40
0.0
 40
0.0
 40
0.0335901384
 40
0.11393606
 40
0.2275990714
 40
0.363139729
 40
0.6710552016
 40
1.0
 40
1.0
 40
1.0
 40
1.0
 10
200.2894149058
 20
265.6688835689
 30
0.0
 10
200.284725745
 20
265.6625025898
 30
0.0
 10
200.2637161428
 20
265.6452520908
 30
0.0
 10
200.2269583695
 20
265.6063546199
 30
0.0
 10
200.1714870635
 20
265.551853124
 30
0.0
 10
200.0790027026
 20
265.4586459175
 30
0.0
 10
199.9499990125
 20
265.3301100581
 30
0.0
 10
199.8439044481
 20
265.2238886306
 30
0.0
 10
199.7890707238
 20
265.1690549064
 30
0.0
  0
SPLINE
  5
43B
100
AcDbEntity
  8
0
100
AcDbSpline
 62
7
  6
CONTINUOUS
 70
0
 71
3
 72
13
 73
9
 74
0
 42
0.0000001
 43
0.0000001
 44
0.0000000001
 40
0.0
 40
0.0
 40
0.0
 40
0.0
 40
0.03237646
 40
0.1113074185
 40
0.2249506891
 40
0.3609200885
 40
0.6697735216
 40
1.0
 40
1.0
 40
1.0
 40
1.0
 10
249.213954737
 20
259.6689571351
 30
0.0
 10
249.2184648566
 20
259.6628031039
 30
0.0
 10
249.2387160219
 20
259.6456876424
 30
0.0
 10
249.2749966022
 20
259.6072215848
 30
0.0
 10
249.3302940259
 20
259.5529203613
 30
0.0
 10
249.4230439488
 20
259.4595981222
 30
0.0
 10
249.5524229173
 20
259.3306481701
 30
0.0
 10
249.6588353437
 20
259.224082252
 30
0.0
 10
249.7138626894
 20
259.1690549064
 30
0.0
  0
SPLINE
  5
43C
100
AcDbEntity
  8
0
100
AcDbSpline
 62
7
  6
CONTINUOUS
 70
0
 71
3
 72
13
 73
9
 74
0
 42
0.0000001
 43
0.0000001
 44
0.0000000001
 40
0.0
 40
0.0
 40
0.0
 40
0.0
 40
0.0323764667
 40
0.1113074307
 40
0.2249507019
 40
0.3609200999
 40
0.6697735281
 40
1.0
 40
1.0
 40
1.0
 40
1.0
 10
198.6812835213
 20
262.643309549
 30
0.0
 10
198.6767733947
 20
262.649463577
 30
0.0
 10
198.6565222391
 20
262.6665790488
 30
0.0
 10
198.6202416481
 20
262.7050451028
 30
0.0
 10
198.5649442276
 20
262.7593463296
 30
0.0
 10
198.4721943035
 20
262.8526685661
 30
0.0
 10
198.3428153386
 20
262.9816185171
 30
0.0
 10
198.2364029138
 20
263.0881844328
 30
0.0
 10
198.1813755693
 20
263.1432117773
 30
0.0
  0
SPLINE
  5
43D
100
AcDbEntity
  8
0
100
AcDbSpline
 62
7
  6
CONTINUOUS
 70
0
 71
3
 72
10
 73
6
 74
0
 42
0.0000001
 43
0.0000001
 44
0.0000000001
 40
0.0
 40
0.0
 40
0.0
 40
0.0
 40
0.1127530151
 40
0.3622800351
 40
1.0
 40
1.0
 40
1.0
 40
1.0
 10
203.5043188183
 20
280.6433546533
 30
0.0
 10
203.4864261516
 20
280.6629949453
 30
0.0
 10
203.4242357902
 20
280.721613164
 30
0.0
 10
203.2594944714
 20
280.8900258666
 30
0.0
 10
203.1107173926
 20
281.0369554178
 30
0.0
 10
203.004461033
 20
281.1432117773
 30
0.0
  0
SPLINE
  5
43E
100
AcDbEntity
  8
0
100
AcDbSpline
 62
7
  6
CONTINUOUS
 70
0
 71
3
 72
10
 73
6
 74
0
 42
0.0000001
 43
0.0000001
 44
0.0000000001
 40
0.0
 40
0.0
 40
0.0
 40
0.0
 40
0.6377001222
 40
0.8872326574
 40
1.0
 40
1.0
 40
1.0
 40
1.0
 10
249.7138626894
 20
281.1432117773
 30
0.0
 10
249.6076096355
 20
281.0369587234
 30
0.0
 10
249.4588433533
 20
280.8900231481
 30
0.0
 10
249.2940916765
 20
280.7216208061
 30
0.0
 10
249.2318998059
 20
280.6629974711
 30
0.0
 10
249.214004903
 20
280.6433546492
 30
0.0
  0
SPLINE
  5
43F
100
AcDbEntity
  8
0
100
AcDbSpline
 62
7
  6
CONTINUOUS
 70
0
 71
3
 72
14
 73
10
 74
0
 42
0.0000001
 43
0.0000001
 44
0.0000000001
 40
0.0
 40
0.0
 40
0.0
 40
0.0
 40
0.3784751478
 40
0.5496887736
 40
0.6998508449
 40
0.8234388523
 40
0.9161056763
 40
0.974608593
 40
1.0
 40
1.0
 40
1.0
 40
1.0
 10
259.7716482196
 20
287.6561333419
 30
0.0
 10
259.7716482196
 20
287.7837136537
 30
0.0
 10
259.768691064
 20
287.9691208127
 30
0.0
 10
259.7580449996
 20
288.2046067756
 30
0.0
 10
259.7475102795
 20
288.354729173
 30
0.0
 10
259.7354533295
 20
288.4763289085
 30
0.0
 10
259.720514002
 20
288.5711340003
 30
0.0
 10
259.7083934946
 20
288.6230134131
 30
0.0
 10
259.6930516746
 20
288.6561333419
 30
0.0
 10
259.6844924769
 20
288.6561333419
 30
0.0
  0
SPLINE
  5
440
100
AcDbEntity
  8
0
100
AcDbSpline
 62
7
  6
CONTINUOUS
 70
0
 71
3
 72
11
 73
7
 74
0
 42
0.0000001
 43
0.0000001
 44
0.0000000001
 40
0.0
 40
0.0
 40
0.0
 40
0.0
 40
0.2495595946
 40
0.4993773703
 40
0.749559884
 40
1.0
 40
1.0
 40
1.0
 40
1.0
 10
255.1392976986
 20
288.6561333419
 30
0.0
 10
255.2688818907
 20
288.6561333419
 30
0.0
 10
255.531037108
 20
288.6040251593
 30
0.0
 10
255.8621640702
 20
288.3813313668
 30
0.0
 10
256.0837202202
 20
288.0489544316
 30
0.0
 10
256.1354923967
 20
287.7861747461
 30
0.0
 10
256.1354923967
 20
287.6561333419
 30
0.0
  0
SPLINE
  5
441
100
AcDbEntity
  8
0
100
AcDbSpline
 62
7
  6
CONTINUOUS
 70
0
 71
3
 72
11
 73
7
 74
0
 42
0.0000001
 43
0.0000001
 44
0.0000000001
 40
0.0
 40
0.0
 40
0.0
 40
0.0
 40
0.2504014839
 40
0.5004916653
 40
0.7503579145
 40
1.0
 40
1.0
 40
1.0
 40
1.0
 10
255.3865113021
 20
287.6561333419
 30
0.0
 10
255.3865113021
 20
287.7861544507
 30
0.0
 10
255.3347656795
 20
288.0488652741
 30
0.0
 10
255.113278817
 20
288.3812273304
 30
0.0
 10
254.7821657656
 20
288.6039803481
 30
0.0
 10
254.5199433947
 20
288.6561333419
 30
0.0
 10
254.390316604
 20
288.6561333419
 30
0.0
  0
SPLINE
  5
442
100
AcDbEntity
  8
0
100
AcDbSpline
 62
7
  6
CONTINUOUS
 70
0
 71
3
 72
8
 73
4
 74
0
 42
0.0000001
 43
0.0000001
 44
0.0000000001
 40
0.0
 40
0.0
 40
0.0
 40
0.0
 40
1.0
 40
1.0
 40
1.0
 40
1.0
 10
195.3720345381
 20
268.6561332262
 30
0.0
 10
195.3752357871
 20
268.8227846855
 30
0.0
 10
195.3755595442
 20
268.9894837392
 30
0.0
 10
195.3788619722
 20
269.1561332242
 30
0.0
  0
SPLINE
  5
443
100
AcDbEntity
  8
0
100
AcDbSpline
 62
7
  6
CONTINUOUS
 70
0
 71
3
 72
14
 73
10
 74
0
 42
0.0000001
 43
0.0000001
 44
0.0000000001
 40
0.0
 40
0.0
 40
0.0
 40
0.0
 40
0.025391407
 40
0.0838943237
 40
0.1765611477
 40
0.3001491551
 40
0.4503112264
 40
0.6215248522
 40
1.0
 40
1.0
 40
1.0
 40
1.0
 10
264.2267842539
 20
288.6561333419
 30
0.0
 10
264.2353434516
 20
288.6561333419
 30
0.0
 10
264.2506852717
 20
288.6230134131
 30
0.0
 10
264.262805779
 20
288.5711340003
 30
0.0
 10
264.2777451065
 20
288.4763289085
 30
0.0
 10
264.2898020565
 20
288.354729173
 30
0.0
 10
264.3003367767
 20
288.2046067756
 30
0.0
 10
264.310982841
 20
287.9691208127
 30
0.0
 10
264.3139399967
 20
287.7837136537
 30
0.0
 10
264.3139399967
 20
287.6561333419
 30
0.0
  0
SPLINE
  5
444
100
AcDbEntity
  8
0
100
AcDbSpline
 62
7
  6
CONTINUOUS
 70
0
 71
3
 72
13
 73
9
 74
0
 42
0.0000001
 43
0.0000001
 44
0.0000000001
 40
0.0
 40
0.0
 40
0.0
 40
0.0
 40
0.0323854526
 40
0.1113237614
 40
0.2249678278
 40
0.3609353982
 40
0.6697821739
 40
1.0
 40
1.0
 40
1.0
 40
1.0
 10
249.2139552385
 20
271.6689567485
 30
0.0
 10
249.2184745821
 20
271.6628068664
 30
0.0
 10
249.2387129555
 20
271.6456777246
 30
0.0
 10
249.2750076777
 20
271.6072164186
 30
0.0
 10
249.3303008669
 20
271.5529107266
 30
0.0
 10
249.4230523913
 20
271.4595920052
 30
0.0
 10
249.5524264815
 20
271.3306435938
 30
0.0
 10
249.6588368351
 20
271.2240807607
 30
0.0
 10
249.7138626894
 20
271.1690549064
 30
0.0
  0
SPLINE
  5
445
100
AcDbEntity
  8
0
100
AcDbSpline
 62
7
  6
CONTINUOUS
 70
0
 71
3
 72
13
 73
9
 74
0
 42
0.0000001
 43
0.0000001
 44
0.0000000001
 40
0.0
 40
0.0
 40
0.0
 40
0.0
 40
0.0323854605
 40
0.111323776
 40
0.2249678423
 40
0.3609354108
 40
0.669782181
 40
1.0
 40
1.0
 40
1.0
 40
1.0
 10
201.8966733289
 20
274.6433099328
 30
0.0
 10
201.8921539785
 20
274.6494598121
 30
0.0
 10
201.8719156153
 20
274.6665889659
 30
0.0
 10
201.8356208825
 20
274.7050502689
 30
0.0
 10
201.7803276961
 20
274.7593559642
 30
0.0
 10
201.6875761702
 20
274.8526746826
 30
0.0
 10
201.558202084
 20
274.9816230933
 30
0.0
 10
201.4517917317
 20
275.0881859241
 30
0.0
 10
201.3967658784
 20
275.1432117773
 30
0.0
  0
SPLINE
  5
446
100
AcDbEntity
  8
0
100
AcDbSpline
 62
7
  6
CONTINUOUS
 70
0
 71
3
 72
13
 73
9
 74
0
 42
0.0000001
 43
0.0000001
 44
0.0000000001
 40
0.0
 40
0.0
 40
0.0
 40
0.0
 40
0.0335901393
 40
0.1139360598
 40
0.2275990712
 40
0.3631397291
 40
0.6710552016
 40
1.0
 40
1.0
 40
1.0
 40
1.0
 10
249.2135185074
 20
274.6433831148
 30
0.0
 10
249.2182076737
 20
274.6497640901
 30
0.0
 10
249.2392172653
 20
274.6670145966
 30
0.0
 10
249.2759750463
 20
274.7059120623
 30
0.0
 10
249.3314463486
 20
274.7604135604
 30
0.0
 10
249.4239307115
 20
274.8536207656
 30
0.0
 10
249.5529344004
 20
274.9821566259
 30
0.0
 10
249.6590289651
 20
275.0883780531
 30
0.0
 10
249.7138626894
 20
275.1432117773
 30
0.0
  0
ELLIPSE
  5
447
100
AcDbEntity
  8
0
100
AcDbEllipse
 62
7
  6
CONTINUOUS
 10
250.7267842539
 20
236.7751511358
 30
0.0
 11
0.5
 21
0.0
 31
0.0
 40
0.0874886635
 41
-3.1415926536
 42
-1.8925468812
  0
ELLIPSE
  5
448
100
AcDbEntity
  8
0
100
AcDbEllipse
 62
7
  6
CONTINUOUS
 10
250.7267842539
 20
239.5371155479
 30
0.0
 11
0.5
 21
0.0
 31
0.0
 40
0.0874886635
 41
1.8925468813
 42
3.1415926536
  0
ELLIPSE
  5
449
100
AcDbEntity
  8
0
100
AcDbEllipse
 62
7
  6
CONTINUOUS
 10
59.7267842539
 20
221.5371155479
 30
0.0
 11
0.5
 21
-0.0
 31
0.0
 40
0.0874886635
 41
-0.0
 42
1.2490457724
  0
ELLIPSE
  5
44A
100
AcDbEntity
  8
0
100
AcDbEllipse
 62
7
  6
CONTINUOUS
 10
59.7267842539
 20
218.7751511358
 30
0.0
 11
0.5
 21
0.0
 31
0.0
 40
0.0874886635
 41
-1.2490457724
 42
-0.0
  0
ELLIPSE
  5
44B
100
AcDbEntity
  8
0
100
AcDbEllipse
 62
7
  6
CONTINUOUS
 10
250.7267842539
 20
218.7751511358
 30
0.0
 11
0.5
 21
-0.0
 31
0.0
 40
0.0874886635
 41
3.1415926536
 42
4.390638426
  0
ELLIPSE
  5
44C
100
AcDbEntity
  8
0
100
AcDbEllipse
 62
7
  6
CONTINUOUS
 10
250.7267842539
 20
221.5371155479
 30
0.0
 11
0.5
 21
-0.0
 31
0.0
 40
0.0874886635
 41
1.8925468813
 42
3.1415926536
  0
ELLIPSE
  5
44D
100
AcDbEntity
  8
0
100
AcDbEllipse
 62
7
  6
CONTINUOUS
 10
59.7267842539
 20
239.5371155479
 30
0.0
 11
0.5
 21
-0.0
 31
0.0
 40
0.0874886635
 41
-0.0
 42
1.2490457724
  0
ELLIPSE
  5
44E
100
AcDbEntity
  8
0
100
AcDbEllipse
 62
7
  6
CONTINUOUS
 10
59.7267842539
 20
236.7751511358
 30
0.0
 11
0.5
 21
-0.0
 31
0.0
 40
0.0874886635
 41
-1.2490457724
 42
-0.0
  0
ELLIPSE
  5
44F
100
AcDbEntity
  8
0
100
AcDbEllipse
 62
7
  6
CONTINUOUS
 10
59.7267842539
 20
227.5371155479
 30
0.0
 11
0.5
 21
0.0
 31
0.0
 40
0.0874886635
 41
-0.0
 42
1.2490457724
  0
ELLIPSE
  5
450
100
AcDbEntity
  8
0
100
AcDbEllipse
 62
7
  6
CONTINUOUS
 10
59.7267842539
 20
224.7751511358
 30
0.0
 11
0.5
 21
0.0
 31
0.0
 40
0.0874886635
 41
-1.2490457724
 42
-0.0
  0
ELLIPSE
  5
451
100
AcDbEntity
  8
0
100
AcDbEllipse
 62
7
  6
CONTINUOUS
 10
250.7267842539
 20
224.7751511358
 30
0.0
 11
0.5
 21
-0.0
 31
0.0
 40
0.0874886635
 41
3.1415926536
 42
4.390638426
  0
ELLIPSE
  5
452
100
AcDbEntity
  8
0
100
AcDbEllipse
 62
7
  6
CONTINUOUS
 10
250.7267842539
 20
227.5371155479
 30
0.0
 11
0.5
 21
-0.0
 31
0.0
 40
0.0874886635
 41
1.8925468813
 42
3.1415926536
  0
ELLIPSE
  5
453
100
AcDbEntity
  8
0
100
AcDbEllipse
 62
7
  6
CONTINUOUS
 10
59.7267842539
 20
233.5371155479
 30
0.0
 11
0.5
 21
0.0
 31
0.0
 40
0.0874886635
 41
-0.0
 42
1.2490457724
  0
ELLIPSE
  5
454
100
AcDbEntity
  8
0
100
AcDbEllipse
 62
7
  6
CONTINUOUS
 10
59.7267842539
 20
230.7751511358
 30
0.0
 11
0.5
 21
-0.0
 31
0.0
 40
0.0874886635
 41
-1.2490457724
 42
-0.0
  0
ELLIPSE
  5
455
100
AcDbEntity
  8
0
100
AcDbEllipse
 62
7
  6
CONTINUOUS
 10
250.7267842539
 20
230.7751511358
 30
0.0
 11
0.5
 21
-0.0
 31
0.0
 40
0.0874886635
 41
-3.1415926536
 42
-1.8925468812
  0
ELLIPSE
  5
456
100
AcDbEntity
  8
0
100
AcDbEllipse
 62
7
  6
CONTINUOUS
 10
250.7267842539
 20
233.5371155479
 30
0.0
 11
0.5
 21
0.0
 31
0.0
 40
0.0874886635
 41
1.8925468813
 42
3.1415926536
  0
ENDSEC
  0
SECTION
  2
OBJECTS
  0
DICTIONARY
  5
C
100
AcDbDictionary
280
0
281
1
  3
ACAD_GROUP
350
D
  3
ACAD_MLINESTYLE
350
17
  3
ACAD_LAYOUT
350
1A
  3
ACAD_PLOTSETTINGS
350
19
  3
ACAD_PLOTSTYLENAME
350
E
  0
DICTIONARY
  5
D
102
{ACAD_REACTORS
330
C
102
}
100
AcDbDictionary
280
0
281
1
  0
ACDBDICTIONARYWDFLT
  5
E
102
{ACAD_REACTORS
330
C
102
}
100
AcDbDictionary
281
1
  3
Normal
350
F
100
AcDbDictionaryWithDefault
340
F
  0
DICTIONARY
  5
17
102
{ACAD_REACTORS
330
C
102
}
100
AcDbDictionary
280
0
281
1
  3
Standard
350
18
  0
DICTIONARY
  5
19
102
{ACAD_REACTORS
330
C
102
}
100
AcDbDictionary
281
1
  0
DICTIONARY
  5
1A
102
{ACAD_REACTORS
330
C
102
}
100
AcDbDictionary
281
1
  3
Model
350
457
  3
Layout1
350
458
  0
ACDBPLACEHOLDER
  5
F
102
{ACAD_REACTORS
330
E
102
}
  0
MLINESTYLE
  5
18
102
{ACAD_REACTORS
330
17
102
}
100
AcDbMlineStyle
  2
STANDARD
 70
0
  3

 62
256
 51
90.0
 52
90.0
 71
2
 49
0.5
 62
256
  6
BYLAYER
 49
-0.5
 62
256
  6
BYLAYER
  0
LAYOUT
  5
457
102
{ACAD_REACTORS
330
1A
102
}
100
AcDbPlotSettings
  1

  2
none_device
  4

  6

 40
0.0
 41
0.0
 42
0.0
 43
0.0
 44
210.0
 45
297.0
 46
0.0
 47
0.0
 48
0.0
 49
0.0
140
0.0
141
0.0
142
1.0
143
1.0
 70
1024
 72
1
 73
0
 74
0
  7

 75
0
147
1.0
148
0.0
149
0.0
100
AcDbLayout
  1
Model
 70
0
 71
0
 10
0.0
 20
0.0
 11
210.0
 21
297.0
 12
0.0
 22
0.0
 32
0.0
 14
0.0
 24
0.0
 34
0.0
 15
0.0
 25
0.0
 35
0.0
146
0.0
 13
0.0
 23
0.0
 33
0.0
 16
1.0
 26
0.0
 36
0.0
 17
0.0
 27
1.0
 37
0.0
 76
0
330
210
345
0
346
0
  0
LAYOUT
  5
458
102
{ACAD_REACTORS
330
1A
102
}
100
AcDbPlotSettings
  1

  2
none_device
  4

  6

 40
0.0
 41
0.0
 42
0.0
 43
0.0
 44
210.0
 45
297.0
 46
0.0
 47
0.0
 48
0.0
 49
0.0
140
0.0
141
0.0
142
1.0
143
1.0
 70
0
 72
1
 73
0
 74
0
  7

 75
0
147
1.0
148
0.0
149
0.0
100
AcDbLayout
  1
Layout1
 70
0
 71
1
 10
0.0
 20
0.0
 11
210.0
 21
297.0
 12
0.0
 22
0.0
 32
0.0
 14
0.0
 24
0.0
 34
0.0
 15
0.0
 25
0.0
 35
0.0
146
0.0
 13
0.0
 23
0.0
 33
0.0
 16
1.0
 26
0.0
 36
0.0
 17
0.0
 27
1.0
 37
0.0
 76
0
330
211
345
0
346
0
  0
ENDSEC
  0
EOF
